  0
SECTION
  2
HEADER
  9
$ACADVER
  1
AC1012
  9
$DWGCODEPAGE
  3
ansi_1252
  9
$INSBASE
 10
0.0
 20
0.0
 30
0.0
  9
$EXTMIN
 10
-26.371285
 20
0.0
 30
0.0
  9
$EXTMAX
 10
105.113812
 20
81.615782
 30
0.0
  9
$LIMMIN
 10
0.0
 20
0.0
  9
$LIMMAX
 10
95.16
 20
95.16
  9
$ORTHOMODE
 70
     1
  9
$REGENMODE
 70
     1
  9
$FILLMODE
 70
     1
  9
$QTEXTMODE
 70
     0
  9
$MIRRTEXT
 70
     1
  9
$DRAGMODE
 70
     2
  9
$LTSCALE
 40
1.0
  9
$OSMODE
 70
    39
  9
$ATTMODE
 70
     1
  9
$TEXTSIZE
 40
3.0
  9
$TRACEWID
 40
3.0
  9
$TEXTSTYLE
  7
BLOCK
  9
$CLAYER
  8
D-TEXT
  9
$CELTYPE
  6
CONTINUOUS
  9
$CECOLOR
 62
   256
  9
$CELTSCALE
 40
1.0
  9
$DELOBJ
 70
     1
  9
$DISPSILH
 70
     0
  9
$DIMSCALE
 40
8.0
  9
$DIMASZ
 40
0.1875
  9
$DIMEXO
 40
0.0625
  9
$DIMDLI
 40
0.375
  9
$DIMRND
 40
0.0
  9
$DIMDLE
 40
0.0
  9
$DIMEXE
 40
0.1875
  9
$DIMTP
 40
0.0
  9
$DIMTM
 40
0.0
  9
$DIMTXT
 40
0.125
  9
$DIMCEN
 40
0.1875
  9
$DIMTSZ
 40
0.0
  9
$DIMTOL
 70
     0
  9
$DIMLIM
 70
     0
  9
$DIMTIH
 70
     1
  9
$DIMTOH
 70
     1
  9
$DIMSE1
 70
     0
  9
$DIMSE2
 70
     0
  9
$DIMTAD
 70
     0
  9
$DIMZIN
 70
     0
  9
$DIMBLK
  1
OBLIQUE
  9
$DIMASO
 70
     1
  9
$DIMSHO
 70
     1
  9
$DIMPOST
  1

  9
$DIMAPOST
  1

  9
$DIMALT
 70
     0
  9
$DIMALTD
 70
     1
  9
$DIMALTF
 40
25.4
  9
$DIMLFAC
 40
1.0
  9
$DIMTOFL
 70
     0
  9
$DIMTVP
 40
0.0
  9
$DIMTIX
 70
     0
  9
$DIMSOXD
 70
     0
  9
$DIMSAH
 70
     1
  9
$DIMBLK1
  1
_OPEN90
  9
$DIMBLK2
  1
_OPEN90
  9
$DIMSTYLE
  2
LEADER
  9
$DIMCLRD
 70
     0
  9
$DIMCLRE
 70
     0
  9
$DIMCLRT
 70
     0
  9
$DIMTFAC
 40
1.0
  9
$DIMGAP
 40
0.125
  9
$DIMJUST
 70
     0
  9
$DIMSD1
 70
     0
  9
$DIMSD2
 70
     0
  9
$DIMTOLJ
 70
     0
  9
$DIMTZIN
 70
     0
  9
$DIMALTZ
 70
     0
  9
$DIMALTTZ
 70
     0
  9
$DIMFIT
 70
     1
  9
$DIMUPT
 70
     1
  9
$DIMUNIT
 70
     4
  9
$DIMDEC
 70
     4
  9
$DIMTDEC
 70
     2
  9
$DIMALTU
 70
     2
  9
$DIMALTTD
 70
     1
  9
$DIMTXSTY
  7
ARCH
  9
$DIMAUNIT
 70
     0
  9
$LUNITS
 70
     4
  9
$LUPREC
 70
     4
  9
$SKETCHINC
 40
12.0
  9
$FILLETRAD
 40
0.0
  9
$AUNITS
 70
     0
  9
$AUPREC
 70
     0
  9
$MENU
  1
.
  9
$ELEVATION
 40
0.0
  9
$PELEVATION
 40
0.0
  9
$THICKNESS
 40
0.0
  9
$LIMCHECK
 70
     0
  9
$BLIPMODE
 70
     1
  9
$CHAMFERA
 40
24.0
  9
$CHAMFERB
 40
24.0
  9
$CHAMFERC
 40
24.0
  9
$CHAMFERD
 40
0.785398
  9
$SKPOLY
 70
     0
  9
$TDCREATE
 40
2451083.741152083
  9
$TDUPDATE
 40
2451103.326526272
  9
$TDINDWG
 40
0.2665119213
  9
$TDUSRTIMER
 40
0.2665119213
  9
$USRTIMER
 70
     1
  9
$ANGBASE
 50
0.0
  9
$ANGDIR
 70
     0
  9
$PDMODE
 70
    34
  9
$PDSIZE
 40
0.0
  9
$PLINEWID
 40
0.0
  9
$COORDS
 70
     2
  9
$SPLFRAME
 70
     0
  9
$SPLINETYPE
 70
     6
  9
$SPLINESEGS
 70
     8
  9
$ATTDIA
 70
     0
  9
$ATTREQ
 70
     1
  9
$HANDLING
 70
     1
  9
$HANDSEED
  5
2BA7
  9
$SURFTAB1
 70
     6
  9
$SURFTAB2
 70
     6
  9
$SURFTYPE
 70
     6
  9
$SURFU
 70
     6
  9
$SURFV
 70
     6
  9
$UCSNAME
  2

  9
$UCSORG
 10
0.0
 20
0.0
 30
0.0
  9
$UCSXDIR
 10
1.0
 20
0.0
 30
0.0
  9
$UCSYDIR
 10
0.0
 20
1.0
 30
0.0
  9
$PUCSNAME
  2

  9
$PUCSORG
 10
0.0
 20
0.0
 30
0.0
  9
$PUCSXDIR
 10
1.0
 20
0.0
 30
0.0
  9
$PUCSYDIR
 10
0.0
 20
1.0
 30
0.0
  9
$USERI1
 70
     0
  9
$USERI2
 70
     0
  9
$USERI3
 70
     0
  9
$USERI4
 70
     0
  9
$USERI5
 70
     0
  9
$USERR1
 40
0.0
  9
$USERR2
 40
0.0
  9
$USERR3
 40
0.0
  9
$USERR4
 40
0.0
  9
$USERR5
 40
0.0
  9
$WORLDVIEW
 70
     1
  9
$SHADEDGE
 70
     3
  9
$SHADEDIF
 70
    70
  9
$TILEMODE
 70
     1
  9
$MAXACTVP
 70
    16
  9
$PINSBASE
 10
0.0
 20
0.0
 30
0.0
  9
$PLIMCHECK
 70
     0
  9
$PEXTMIN
 10
1.000000E+20
 20
1.000000E+20
 30
1.000000E+20
  9
$PEXTMAX
 10
-1.000000E+20
 20
-1.000000E+20
 30
-1.000000E+20
  9
$PLIMMIN
 10
0.0
 20
0.0
  9
$PLIMMAX
 10
12.0
 20
9.0
  9
$UNITMODE
 70
     0
  9
$VISRETAIN
 70
     0
  9
$PLINEGEN
 70
     0
  9
$PSLTSCALE
 70
     1
  9
$TREEDEPTH
 70
  3020
  9
$PICKSTYLE
 70
     1
  9
$CMLSTYLE
  2
STANDARD
  9
$CMLJUST
 70
     0
  9
$CMLSCALE
 40
1.0
  9
$SAVEIMAGES
 70
     0
  0
ENDSEC
  0
SECTION
  2
CLASSES
  0
ENDSEC
  0
SECTION
  2
TABLES
  0
TABLE
  2
VPORT
  5
8
100
AcDbSymbolTable
 70
     4
  0
VPORT
  5
2BA6
100
AcDbSymbolTableRecord
100
AcDbViewportTableRecord
  2
*ACTIVE
 70
     0
 10
0.0
 20
0.0
 11
1.0
 21
1.0
 12
39.371263
 22
44.587471
 13
0.0
 23
0.0
 14
0.25
 24
0.25
 15
1.0
 25
1.0
 16
0.0
 26
0.0
 36
1.0
 17
0.0
 27
0.0
 37
0.0
 40
89.174943
 41
1.474462
 42
50.0
 43
0.0
 44
0.0
 50
0.0
 51
0.0
 71
     0
 72
   100
 73
     1
 74
     1
 75
     0
 76
     1
 77
     0
 78
     0
  0
ENDTAB
  0
TABLE
  2
LTYPE
  5
5
100
AcDbSymbolTable
 70
     3
  0
LTYPE
  5
14
100
AcDbSymbolTableRecord
100
AcDbLinetypeTableRecord
  2
BYBLOCK
 70
     0
  3

 72
    65
 73
     0
 40
0.0
  0
LTYPE
  5
15
100
AcDbSymbolTableRecord
100
AcDbLinetypeTableRecord
  2
BYLAYER
 70
     0
  3

 72
    65
 73
     0
 40
0.0
  0
LTYPE
  5
16
100
AcDbSymbolTableRecord
100
AcDbLinetypeTableRecord
  2
CONTINUOUS
 70
    64
  3
Solid line
 72
    65
 73
     0
 40
0.0
  0
LTYPE
  5
235F
100
AcDbSymbolTableRecord
100
AcDbLinetypeTableRecord
  2
CENTER
 70
    64
  3
____ _ ____ _ ____ _ ____ _ ____ _ ____ _ ____ 
 72
    65
 73
     4
 40
2.0
 49
1.25
 74
     0
 49
-0.25
 74
     0
 49
0.25
 74
     0
 49
-0.25
 74
     0
  0
LTYPE
  5
2360
100
AcDbSymbolTableRecord
100
AcDbLinetypeTableRecord
  2
HIDDEN
 70
    64
  3
__ __ __ __ __ __ __ __ __ __ __ __ __ __ __ __
 72
    65
 73
     2
 40
0.375
 49
0.25
 74
     0
 49
-0.125
 74
     0
  0
ENDTAB
  0
TABLE
  2
LAYER
  5
2
100
AcDbSymbolTable
 70
     9
  0
LAYER
  5
F
100
AcDbSymbolTableRecord
100
AcDbLayerTableRecord
  2
0
 70
    64
 62
     7
  6
CONTINUOUS
  0
LAYER
  5
2F
100
AcDbSymbolTableRecord
100
AcDbLayerTableRecord
  2
STUD
 70
    64
 62
     5
  6
CONTINUOUS
  0
LAYER
  5
30
100
AcDbSymbolTableRecord
100
AcDbLayerTableRecord
  2
TRACK
 70
    64
 62
     1
  6
CONTINUOUS
  0
LAYER
  5
34
100
AcDbSymbolTableRecord
100
AcDbLayerTableRecord
  2
STEEL
 70
    64
 62
   142
  6
CONTINUOUS
  0
LAYER
  5
37
100
AcDbSymbolTableRecord
100
AcDbLayerTableRecord
  2
FASTENER
 70
    64
 62
     7
  6
CONTINUOUS
  0
LAYER
  5
3B
100
AcDbSymbolTableRecord
100
AcDbLayerTableRecord
  2
_KTI_CONTROL
 70
     5
 62
     7
  6
CONTINUOUS
  0
LAYER
  5
2664
100
AcDbSymbolTableRecord
100
AcDbLayerTableRecord
  2
LINK
 70
    64
 62
     7
  6
CONTINUOUS
  0
LAYER
  5
2A62
100
AcDbSymbolTableRecord
100
AcDbLayerTableRecord
  2
D-TEXT
 70
    64
 62
    94
  6
CONTINUOUS
  0
LAYER
  5
2A63
100
AcDbSymbolTableRecord
100
AcDbLayerTableRecord
  2
LAYOUT
 70
    65
 62
    52
  6
CONTINUOUS
  0
ENDTAB
  0
TABLE
  2
STYLE
  5
3
100
AcDbSymbolTable
 70
     4
  0
STYLE
  5
10
100
AcDbSymbolTableRecord
100
AcDbTextStyleTableRecord
  2
STANDARD
 70
     0
 40
0.0
 41
1.0
 50
0.0
 71
     0
 42
12.0
  3
txt
  4

  0
STYLE
  5
72
100
AcDbSymbolTableRecord
100
AcDbTextStyleTableRecord
  2
ARCH
 70
    64
 40
1.0
 41
1.0
 50
0.0
 71
     0
 42
12.0
  3
F:\r13\com\fonts\Architxt.shx
  4

  0
STYLE
  5
23EF
100
AcDbSymbolTableRecord
100
AcDbTextStyleTableRecord
  2
BLOCK
 70
    64
 40
0.0
 41
1.0
 50
0.0
 71
     0
 42
3.0
  3
F:\r13\com\fonts\monos.ttf
  4

  0
STYLE
  5
2A6C
100
AcDbSymbolTableRecord
100
AcDbTextStyleTableRecord
  2
BLD
 70
    64
 40
0.0
 41
1.0
 50
0.0
 71
     0
 42
1.5
  3
F:\r13\com\fonts\monos.ttf
  4

  0
ENDTAB
  0
TABLE
  2
VIEW
  5
6
100
AcDbSymbolTable
 70
     1
  0
VIEW
  5
2624
100
AcDbSymbolTableRecord
100
AcDbViewTableRecord
  2
ALL
 70
     0
 40
83.363545
 10
47.670017
 20
41.674202
 41
85.490272
 11
0.0
 21
0.0
 31
1.0
 12
0.0
 22
0.0
 32
0.0
 42
50.0
 43
0.0
 44
0.0
 50
0.0
 71
     0
  0
ENDTAB
  0
TABLE
  2
UCS
  5
7
100
AcDbSymbolTable
 70
     0
  0
ENDTAB
  0
TABLE
  2
APPID
  5
9
100
AcDbSymbolTable
 70
     4
  0
APPID
  5
11
100
AcDbSymbolTableRecord
100
AcDbRegAppTableRecord
  2
ACAD
 70
     0
  0
APPID
  5
3A
100
AcDbSymbolTableRecord
100
AcDbRegAppTableRecord
  2
_KTI_ARCHT
 70
     0
  0
APPID
  5
263B
100
AcDbSymbolTableRecord
100
AcDbRegAppTableRecord
  2
PE_URL
 70
     0
  0
APPID
  5
2A6F
100
AcDbSymbolTableRecord
100
AcDbRegAppTableRecord
  2
ADE
 70
     0
  0
ENDTAB
  0
TABLE
  2
DIMSTYLE
  5
A
100
AcDbSymbolTable
 70
     2
  0
DIMSTYLE
105
1D
100
AcDbSymbolTableRecord
100
AcDbDimStyleTableRecord
  2
STANDARD
 70
     0
  3

  4

  5

  6

  7

 40
1.0
 41
0.18
 42
0.0625
 43
0.38
 44
0.18
 45
0.0
 46
0.0
 47
0.0
 48
0.0
140
0.18
141
0.09
142
0.0
143
25.4
144
1.0
145
0.0
146
1.0
147
0.09
 71
     0
 72
     0
 73
     1
 74
     1
 75
     0
 76
     0
 77
     0
 78
     0
170
     0
171
     2
172
     0
173
     0
174
     0
175
     0
176
     0
177
     0
178
     0
270
     2
271
     4
272
     4
273
     2
274
     2
340
10
275
     0
280
     0
281
     0
282
     0
283
     1
284
     0
285
     0
286
     0
287
     3
288
     0
  0
DIMSTYLE
105
18D3
100
AcDbSymbolTableRecord
100
AcDbDimStyleTableRecord
  2
LEADER
 70
     0
  3

  4

  5
OBLIQUE
  6
_OPEN90
  7
_OPEN90
 40
8.0
 41
0.1875
 42
0.0625
 43
0.375
 44
0.1875
 45
0.0
 46
0.0
 47
0.0
 48
0.0
140
0.125
141
0.1875
142
0.0
143
25.4
144
1.0
145
0.0
146
1.0
147
0.125
 71
     0
 72
     0
 73
     1
 74
     1
 75
     0
 76
     0
 77
     0
 78
     0
170
     0
171
     1
172
     0
173
     1
174
     0
175
     0
176
     0
177
     0
178
     0
270
     4
271
     4
272
     2
273
     2
274
     1
340
72
275
     0
280
     0
281
     0
282
     0
283
     0
284
     0
285
     0
286
     0
287
     1
288
     1
  0
ENDTAB
  0
TABLE
  2
BLOCK_RECORD
  5
1
100
AcDbSymbolTable
 70
     1
  0
BLOCK_RECORD
  5
1A
100
AcDbSymbolTableRecord
100
AcDbBlockTableRecord
  2
*MODEL_SPACE
  0
BLOCK_RECORD
  5
17
100
AcDbSymbolTableRecord
100
AcDbBlockTableRecord
  2
*PAPER_SPACE
  0
BLOCK_RECORD
  5
2A4D
100
AcDbSymbolTableRecord
100
AcDbBlockTableRecord
  2
DETAIL_TITLE
  0
ENDTAB
  0
ENDSEC
  0
SECTION
  2
BLOCKS
  0
BLOCK
  5
1B
100
AcDbEntity
  8
0
100
AcDbBlockBegin
  2
*MODEL_SPACE
 70
     0
 10
0.0
 20
0.0
 30
0.0
  3
*MODEL_SPACE
  1

  0
ENDBLK
  5
1C
100
AcDbEntity
  8
0
100
AcDbBlockEnd
  0
BLOCK
  5
18
100
AcDbEntity
 67
     1
  8
0
100
AcDbBlockBegin
  2
*PAPER_SPACE
 70
     0
 10
0.0
 20
0.0
 30
0.0
  3
*PAPER_SPACE
  1

  0
ENDBLK
  5
19
100
AcDbEntity
 67
     1
  8
0
100
AcDbBlockEnd
  0
BLOCK
  5
2A56
100
AcDbEntity
  8
0
100
AcDbBlockBegin
  2
DETAIL_TITLE
 70
    66
 10
0.0
 20
0.0
 30
0.0
  3
DETAIL_TITLE
  1

  0
ATTDEF
  5
2A4E
100
AcDbEntity
  8
D-TEXT
100
AcDbText
 10
1.163519
 20
0.650143
 30
0.0
 40
0.25
  1
TYP. 
  7
BLOCK
100
AcDbAttributeDefinition
  3
Enter the title of the detail
  2
DETAIL_DISCRIPTION
 70
     0
  0
POLYLINE
  5
2A4F
100
AcDbEntity
  8
D-TEXT
100
AcDb2dPolyline
 66
     1
 10
0.0
 20
0.0
 30
0.0
 40
0.05
 41
0.05
  0
VERTEX
  5
2A50
100
AcDbEntity
  8
D-TEXT
100
AcDbVertex
100
AcDb2dVertex
 10
1.038519
 20
0.51926
 30
0.0
  0
VERTEX
  5
2A51
100
AcDbEntity
  8
D-TEXT
100
AcDbVertex
100
AcDb2dVertex
 10
7.93
 20
0.51926
 30
0.0
  0
SEQEND
  5
2A52
100
AcDbEntity
  8
D-TEXT
  0
ATTDEF
  5
2A53
100
AcDbEntity
  8
D-TEXT
100
AcDbText
 10
0.189467
 20
0.39426
 30
0.0
 40
0.25
  1
D-#
  7
BLD
 72
     1
 11
0.51926
 21
0.51926
 31
0.0
100
AcDbAttributeDefinition
  3
Enter the Detail number
  2
DETAIL_NO
 70
     0
 74
     2
  0
ATTDEF
  5
2A54
100
AcDbEntity
  8
D-TEXT
100
AcDbText
 10
1.163519
 20
0.172049
 30
0.0
 40
0.1875
  1
N. T. Scale 1-1/2" = 1'0"
  7
BLOCK
100
AcDbAttributeDefinition
  3
Type the defanition of scale
  2
SCALE
 70
     0
  0
CIRCLE
  5
2A55
100
AcDbEntity
  8
D-TEXT
100
AcDbCircle
 10
0.51926
 20
0.51926
 30
0.0
 40
0.51926
  0
ENDBLK
  5
2A57
100
AcDbEntity
  8
0
100
AcDbBlockEnd
  0
ENDSEC
  0
SECTION
  2
ENTITIES
  0
LINE
  5
15B8
100
AcDbEntity
  8
STUD
100
AcDbLine
 10
57.726249
 20
46.333422
 30
0.0
 11
57.680774
 21
64.725765
 31
0.0
  0
LINE
  5
15BB
100
AcDbEntity
  8
STUD
100
AcDbLine
 10
53.367116
 20
45.851464
 30
0.0
 11
53.271086
 21
55.280316
 31
0.0
  0
LINE
  5
162B
100
AcDbEntity
  8
TRACK
100
AcDbLine
 10
54.793111
 20
46.613212
 30
0.0
 11
53.795105
 21
46.038935
 31
0.0
  0
LINE
  5
162C
100
AcDbEntity
  8
TRACK
100
AcDbLine
 10
37.415989
 20
33.016438
 30
0.0
 11
65.507747
 21
49.235222
 31
0.0
  0
LINE
  5
162D
100
AcDbEntity
  8
TRACK
100
AcDbLine
 10
59.556515
 20
47.390126
 30
0.0
 11
51.282663
 21
42.613216
 31
0.0
  0
LINE
  5
1731
100
AcDbEntity
  8
FASTENER
100
AcDbLine
 10
56.927285
 20
45.343033
 30
0.0
 11
57.145011
 21
45.465897
 31
0.0
  0
LINE
  5
1732
100
AcDbEntity
  8
FASTENER
100
AcDbLine
 10
57.036148
 20
45.529465
 30
0.0
 11
57.036148
 21
45.279465
 31
0.0
  0
ELLIPSE
  5
1733
100
AcDbEntity
  8
FASTENER
100
AcDbEllipse
 10
57.036148
 20
45.404465
 30
0.0
 11
-0.0765465544619742
 21
-0.1325825214724724
 31
0.0
210
0.0
220
0.0
230
1.0
 40
0.57735
 41
0.0000000000004347
 42
6.283185307180034
  0
LINE
  5
1759
100
AcDbEntity
  8
TRACK
100
AcDbLine
 10
64.575364
 20
50.247807
 30
0.0
 11
51.282663
 21
42.573263
 31
0.0
  0
LINE
  5
1867
100
AcDbEntity
  8
TRACK
100
AcDbLine
 10
57.726249
 20
49.958422
 30
0.0
 11
58.143591
 21
50.199374
 31
0.0
  0
LINE
  5
1869
100
AcDbEntity
  8
TRACK
100
AcDbLine
 10
57.726249
 20
49.998374
 30
0.0
 11
62.312853
 21
52.646451
 31
0.0
  0
POLYLINE
  5
189B
100
AcDbEntity
  8
STUD
100
AcDb2dPolyline
 66
     1
 10
0.0
 20
0.0
 30
0.0
  0
VERTEX
  5
189C
100
AcDbEntity
  8
STUD
100
AcDbVertex
100
AcDb2dVertex
 10
53.367116
 20
45.959717
 30
0.0
 42
0.57735
  0
VERTEX
  5
189D
100
AcDbEntity
  8
STUD
100
AcDbVertex
100
AcDb2dVertex
 10
53.367116
 20
45.851464
 30
0.0
  0
VERTEX
  5
189E
100
AcDbEntity
  8
STUD
100
AcDbVertex
100
AcDb2dVertex
 10
53.760505
 20
45.624341
 30
0.0
  0
VERTEX
  5
189F
100
AcDbEntity
  8
STUD
100
AcDbVertex
100
AcDb2dVertex
 10
53.795105
 20
45.644317
 30
0.0
  0
SEQEND
  5
18A0
100
AcDbEntity
  8
STUD
  0
LINE
  5
18A1
100
AcDbEntity
  8
TRACK
100
AcDbLine
 10
53.418127
 20
45.822012
 30
0.0
 11
51.282663
 21
44.593213
 31
0.0
  0
POLYLINE
  5
18A8
100
AcDbEntity
  8
STUD
100
AcDb2dPolyline
 66
     1
 10
0.0
 20
0.0
 30
0.0
  0
VERTEX
  5
18A9
100
AcDbEntity
  8
STUD
100
AcDbVertex
100
AcDb2dVertex
 10
53.795105
 20
46.166864
 30
0.0
  0
VERTEX
  5
18AA
100
AcDbEntity
  8
STUD
100
AcDbVertex
100
AcDb2dVertex
 10
54.666707
 20
46.670084
 30
0.0
 42
-0.267949
  0
VERTEX
  5
18AB
100
AcDbEntity
  8
STUD
100
AcDbVertex
100
AcDb2dVertex
 10
54.694607
 20
46.670084
 30
0.0
  0
VERTEX
  5
18AC
100
AcDbEntity
  8
STUD
100
AcDbVertex
100
AcDb2dVertex
 10
55.925569
 20
45.959388
 30
0.0
 42
-0.57735
  0
SEQEND
  5
18AD
100
AcDbEntity
  8
STUD
  0
POLYLINE
  5
18B7
100
AcDbEntity
  8
STUD
100
AcDb2dPolyline
 66
     1
 10
0.0
 20
0.0
 30
0.0
  0
VERTEX
  5
18B8
100
AcDbEntity
  8
STUD
100
AcDbVertex
100
AcDb2dVertex
 10
55.925569
 20
59.678364
 30
0.0
 42
0.392115
  0
VERTEX
  5
18B9
100
AcDbEntity
  8
STUD
100
AcDbVertex
100
AcDb2dVertex
 10
55.694559
 20
59.429086
 30
0.0
  0
VERTEX
  5
18BA
100
AcDbEntity
  8
STUD
100
AcDbVertex
100
AcDb2dVertex
 10
55.694559
 20
56.756436
 30
0.0
 42
0.267949
  0
VERTEX
  5
18BB
100
AcDbEntity
  8
STUD
100
AcDbVertex
100
AcDb2dVertex
 10
55.819559
 20
56.53993
 30
0.0
  0
VERTEX
  5
18BC
100
AcDbEntity
  8
STUD
100
AcDbVertex
100
AcDb2dVertex
 10
55.925569
 20
56.478725
 30
0.0
 42
0.57735
  0
SEQEND
  5
18BD
100
AcDbEntity
  8
STUD
  0
LEADER
  5
18D4
100
AcDbEntity
  8
D-TEXT
100
AcDbLeader
  3
LEADER
 72
     1
 73
     0
 40
2.0
 41
18.827586
 76
     3
 10
39.08133
 20
62.481818
 30
0.0
 10
36.113031
 20
63.940402
 30
0.0
 10
35.247005
 20
63.940402
 30
0.0
 77
   256
1001
ACAD
1000
DSTYLE
1002
{
1070
    77
1070
     0
1002
}
  0
MTEXT
  5
18D5
100
AcDbEntity
  8
D-TEXT
100
AcDbMText
 10
34.680018
 20
63.940402
 30
0.0
 40
1.5
 41
0.0
 71
     6
 72
     1
  1
{CEMCO }{STEEL STUD}
  7
ARCH
  0
LEADER
  5
18DB
100
AcDbEntity
  8
D-TEXT
100
AcDbLeader
  3
LEADER
 72
     1
 73
     0
 74
     0
 40
4.666667
 41
19.586207
 76
     3
 10
56.959602
 20
45.271883
 30
0.0
 10
61.286924
 20
42.713382
 30
0.0
 10
63.885001
 20
42.713382
 30
0.0
 77
   256
  0
MTEXT
  5
18DC
100
AcDbEntity
  8
D-TEXT
100
AcDbMText
 10
64.813128
 20
42.7489
 30
0.0
 40
1.5
 41
0.0
 71
     4
 72
     1
  1
{5/8" LOW PROFILE}\P{HEAD FRAMING }\P{SCREWS}{ AS REQUIRED}
  7
ARCH
  0
POLYLINE
  5
19F6
100
AcDbEntity
  8
STUD
100
AcDb2dPolyline
 66
     1
 10
0.0
 20
0.0
 30
0.0
  0
VERTEX
  5
19F7
100
AcDbEntity
  8
STUD
100
AcDbVertex
100
AcDb2dVertex
 10
42.069162
 20
51.678364
 30
0.0
 42
0.392115
  0
VERTEX
  5
19F8
100
AcDbEntity
  8
STUD
100
AcDbVertex
100
AcDb2dVertex
 10
41.838153
 20
51.429086
 30
0.0
  0
VERTEX
  5
19F9
100
AcDbEntity
  8
STUD
100
AcDbVertex
100
AcDb2dVertex
 10
41.838153
 20
48.756436
 30
0.0
 42
0.267949
  0
VERTEX
  5
19FA
100
AcDbEntity
  8
STUD
100
AcDbVertex
100
AcDb2dVertex
 10
41.963153
 20
48.53993
 30
0.0
  0
VERTEX
  5
19FB
100
AcDbEntity
  8
STUD
100
AcDbVertex
100
AcDb2dVertex
 10
42.069162
 20
48.478725
 30
0.0
 42
0.57735
  0
SEQEND
  5
19FC
100
AcDbEntity
  8
STUD
  0
LINE
  5
19FD
100
AcDbEntity
  8
STUD
100
AcDbLine
 10
39.510709
 20
37.851464
 30
0.0
 11
39.189391
 21
68.526715
 31
0.0
  0
LINE
  5
1A0B
100
AcDbEntity
  8
TRACK
100
AcDbLine
 10
39.561721
 20
37.822012
 30
0.0
 11
34.257672
 21
34.76579
 31
0.0
  0
LINE
  5
1A12
100
AcDbEntity
  8
TRACK
100
AcDbLine
 10
34.242047
 20
36.399811
 30
0.0
 11
39.510709
 21
39.441675
 31
0.0
  0
ELLIPSE
  5
1A13
100
AcDbEntity
  8
FASTENER
100
AcDbEllipse
 10
43.409248
 20
37.53697
 30
0.0
 11
-0.0765465544619742
 21
-0.1325825214724724
 31
0.0
210
0.0
220
0.0
230
1.0
 40
0.57735
 41
0.0000000000004347
 42
6.283185307180034
  0
LINE
  5
1A14
100
AcDbEntity
  8
FASTENER
100
AcDbLine
 10
43.409248
 20
37.66197
 30
0.0
 11
43.409248
 21
37.41197
 31
0.0
  0
LINE
  5
1A15
100
AcDbEntity
  8
FASTENER
100
AcDbLine
 10
43.300385
 20
37.475538
 30
0.0
 11
43.518111
 21
37.598402
 31
0.0
  0
POLYLINE
  5
1A1C
100
AcDbEntity
  8
TRACK
100
AcDb2dPolyline
 66
     1
 10
0.0
 20
0.0
 30
0.0
 70
     1
  0
VERTEX
  5
1A1D
100
AcDbEntity
  8
TRACK
100
AcDbVertex
100
AcDb2dVertex
 10
34.242047
 20
36.399811
 30
0.0
  0
VERTEX
  5
1A1E
100
AcDbEntity
  8
TRACK
100
AcDbVertex
100
AcDb2dVertex
 10
34.242047
 20
34.792854
 30
0.0
 42
0.267949
  0
VERTEX
  5
1A1F
100
AcDbEntity
  8
TRACK
100
AcDbVertex
100
AcDb2dVertex
 10
34.257672
 20
34.76579
 30
0.0
  0
VERTEX
  5
1A20
100
AcDbEntity
  8
TRACK
100
AcDbVertex
100
AcDb2dVertex
 10
37.334514
 20
32.989375
 30
0.0
 42
0.57735
  0
VERTEX
  5
1A21
100
AcDbEntity
  8
TRACK
100
AcDbVertex
100
AcDb2dVertex
 10
37.381389
 20
33.016438
 30
0.0
  0
VERTEX
  5
1A22
100
AcDbEntity
  8
TRACK
100
AcDbVertex
100
AcDb2dVertex
 10
37.381389
 20
34.587311
 30
0.0
  0
VERTEX
  5
1A23
100
AcDbEntity
  8
TRACK
100
AcDbVertex
100
AcDb2dVertex
 10
37.415989
 20
34.567335
 30
0.0
  0
VERTEX
  5
1A24
100
AcDbEntity
  8
TRACK
100
AcDbVertex
100
AcDb2dVertex
 10
37.415989
 20
33.016438
 30
0.0
 42
-0.57735
  0
VERTEX
  5
1A25
100
AcDbEntity
  8
TRACK
100
AcDbVertex
100
AcDb2dVertex
 10
37.317214
 20
32.95941
 30
0.0
  0
VERTEX
  5
1A26
100
AcDbEntity
  8
TRACK
100
AcDbVertex
100
AcDb2dVertex
 10
34.240372
 20
34.735826
 30
0.0
 42
-0.267949
  0
VERTEX
  5
1A27
100
AcDbEntity
  8
TRACK
100
AcDbVertex
100
AcDb2dVertex
 10
34.207447
 20
34.792854
 30
0.0
  0
VERTEX
  5
1A28
100
AcDbEntity
  8
TRACK
100
AcDbVertex
100
AcDb2dVertex
 10
34.207447
 20
36.419788
 30
0.0
  0
SEQEND
  5
1A29
100
AcDbEntity
  8
TRACK
  0
LINE
  5
1A2A
100
AcDbEntity
  8
TRACK
100
AcDbLine
 10
34.207447
 20
36.419788
 30
0.0
 11
39.510709
 21
39.481628
 31
0.0
  0
LINE
  5
1DD8
100
AcDbEntity
  8
FASTENER
100
AcDbLine
 10
44.582676
 20
38.21587
 30
0.0
 11
44.800402
 21
38.338734
 31
0.0
  0
LINE
  5
1DD9
100
AcDbEntity
  8
FASTENER
100
AcDbLine
 10
44.691539
 20
38.402302
 30
0.0
 11
44.691539
 21
38.152302
 31
0.0
  0
ELLIPSE
  5
1DDA
100
AcDbEntity
  8
FASTENER
100
AcDbEllipse
 10
44.691539
 20
38.277302
 30
0.0
 11
-0.0765465544619742
 21
-0.1325825214724724
 31
0.0
210
0.0
220
0.0
230
1.0
 40
0.57735
 41
0.0000000000004347
 42
6.283185307180034
  0
ELLIPSE
  5
1DFF
100
AcDbEntity
  8
FASTENER
100
AcDbEllipse
 10
45.97383
 20
39.017633
 30
0.0
 11
-0.0765465544619742
 21
-0.1325825214724724
 31
0.0
210
0.0
220
0.0
230
1.0
 40
0.57735
 41
0.0000000000004347
 42
6.283185307180034
  0
LINE
  5
1E00
100
AcDbEntity
  8
FASTENER
100
AcDbLine
 10
45.97383
 20
39.142633
 30
0.0
 11
45.97383
 21
38.892633
 31
0.0
  0
LINE
  5
1E01
100
AcDbEntity
  8
FASTENER
100
AcDbLine
 10
45.864967
 20
38.956201
 30
0.0
 11
46.082693
 21
39.079065
 31
0.0
  0
ELLIPSE
  5
1E02
100
AcDbEntity
  8
FASTENER
100
AcDbEllipse
 10
47.256122
 20
39.757964
 30
0.0
 11
-0.0765465544619742
 21
-0.1325825214724724
 31
0.0
210
0.0
220
0.0
230
1.0
 40
0.57735
 41
0.0000000000004347
 42
6.283185307180034
  0
LINE
  5
1E03
100
AcDbEntity
  8
FASTENER
100
AcDbLine
 10
47.256122
 20
39.882964
 30
0.0
 11
47.256122
 21
39.632964
 31
0.0
  0
LINE
  5
1E04
100
AcDbEntity
  8
FASTENER
100
AcDbLine
 10
47.147259
 20
39.696532
 30
0.0
 11
47.364984
 21
39.819396
 31
0.0
  0
ELLIPSE
  5
1E05
100
AcDbEntity
  8
FASTENER
100
AcDbEllipse
 10
48.538413
 20
40.498295
 30
0.0
 11
-0.0765465544619742
 21
-0.1325825214724724
 31
0.0
210
0.0
220
0.0
230
1.0
 40
0.57735
 41
0.0000000000004347
 42
6.283185307180034
  0
LINE
  5
1E06
100
AcDbEntity
  8
FASTENER
100
AcDbLine
 10
48.538413
 20
40.623295
 30
0.0
 11
48.538413
 21
40.373295
 31
0.0
  0
LINE
  5
1E07
100
AcDbEntity
  8
FASTENER
100
AcDbLine
 10
48.42955
 20
40.436863
 30
0.0
 11
48.647276
 21
40.559727
 31
0.0
  0
ELLIPSE
  5
1E08
100
AcDbEntity
  8
FASTENER
100
AcDbEllipse
 10
49.820704
 20
41.238627
 30
0.0
 11
-0.0765465544619742
 21
-0.1325825214724724
 31
0.0
210
0.0
220
0.0
230
1.0
 40
0.57735
 41
0.0000000000004347
 42
6.283185307180034
  0
LINE
  5
1E09
100
AcDbEntity
  8
FASTENER
100
AcDbLine
 10
49.820704
 20
41.363627
 30
0.0
 11
49.820704
 21
41.113627
 31
0.0
  0
LINE
  5
1E0A
100
AcDbEntity
  8
FASTENER
100
AcDbLine
 10
49.711841
 20
41.177195
 30
0.0
 11
49.929567
 21
41.300058
 31
0.0
  0
ELLIPSE
  5
1E0B
100
AcDbEntity
  8
FASTENER
100
AcDbEllipse
 10
44.691539
 20
46.777302
 30
0.0
 11
-0.0765465544619742
 21
-0.1325825214724724
 31
0.0
210
0.0
220
0.0
230
1.0
 40
0.57735
 41
0.0000000000004347
 42
6.283185307180034
  0
LINE
  5
1E0C
100
AcDbEntity
  8
FASTENER
100
AcDbLine
 10
44.691539
 20
46.902302
 30
0.0
 11
44.691539
 21
46.652302
 31
0.0
  0
LINE
  5
1E0D
100
AcDbEntity
  8
FASTENER
100
AcDbLine
 10
44.582676
 20
46.71587
 30
0.0
 11
44.800402
 21
46.838734
 31
0.0
  0
LINE
  5
1E0E
100
AcDbEntity
  8
FASTENER
100
AcDbLine
 10
43.300385
 20
45.975538
 30
0.0
 11
43.518111
 21
46.098402
 31
0.0
  0
LINE
  5
1E0F
100
AcDbEntity
  8
FASTENER
100
AcDbLine
 10
43.409248
 20
46.16197
 30
0.0
 11
43.409248
 21
45.91197
 31
0.0
  0
ELLIPSE
  5
1E10
100
AcDbEntity
  8
FASTENER
100
AcDbEllipse
 10
43.409248
 20
46.03697
 30
0.0
 11
-0.0765465544619742
 21
-0.1325825214724724
 31
0.0
210
0.0
220
0.0
230
1.0
 40
0.57735
 41
0.0000000000004347
 42
6.283185307180034
  0
ELLIPSE
  5
1E11
100
AcDbEntity
  8
FASTENER
100
AcDbEllipse
 10
43.409248
 20
46.03697
 30
0.0
 11
-0.0765465544619742
 21
-0.1325825214724724
 31
0.0
210
0.0
220
0.0
230
1.0
 40
0.57735
 41
0.0000000000004347
 42
6.283185307180034
  0
LINE
  5
1E12
100
AcDbEntity
  8
FASTENER
100
AcDbLine
 10
43.409248
 20
46.16197
 30
0.0
 11
43.409248
 21
45.91197
 31
0.0
  0
LINE
  5
1E13
100
AcDbEntity
  8
FASTENER
100
AcDbLine
 10
43.300385
 20
45.975538
 30
0.0
 11
43.518111
 21
46.098402
 31
0.0
  0
LINE
  5
1E14
100
AcDbEntity
  8
FASTENER
100
AcDbLine
 10
44.582676
 20
46.71587
 30
0.0
 11
44.800402
 21
46.838734
 31
0.0
  0
LINE
  5
1E15
100
AcDbEntity
  8
FASTENER
100
AcDbLine
 10
44.691539
 20
46.902302
 30
0.0
 11
44.691539
 21
46.652302
 31
0.0
  0
ELLIPSE
  5
1E16
100
AcDbEntity
  8
FASTENER
100
AcDbEllipse
 10
44.691539
 20
46.777302
 30
0.0
 11
-0.0765465544619742
 21
-0.1325825214724724
 31
0.0
210
0.0
220
0.0
230
1.0
 40
0.57735
 41
0.0000000000004347
 42
6.283185307180034
  0
ELLIPSE
  5
1E17
100
AcDbEntity
  8
FASTENER
100
AcDbEllipse
 10
43.409248
 20
45.03697
 30
0.0
 11
-0.0765465544619742
 21
-0.1325825214724724
 31
0.0
210
0.0
220
0.0
230
1.0
 40
0.57735
 41
0.0000000000004347
 42
6.283185307180034
  0
LINE
  5
1E18
100
AcDbEntity
  8
FASTENER
100
AcDbLine
 10
43.409248
 20
45.16197
 30
0.0
 11
43.409248
 21
44.91197
 31
0.0
  0
LINE
  5
1E19
100
AcDbEntity
  8
FASTENER
100
AcDbLine
 10
43.300385
 20
44.975538
 30
0.0
 11
43.518111
 21
45.098402
 31
0.0
  0
LINE
  5
1E1A
100
AcDbEntity
  8
FASTENER
100
AcDbLine
 10
44.582676
 20
45.71587
 30
0.0
 11
44.800402
 21
45.838734
 31
0.0
  0
LINE
  5
1E1B
100
AcDbEntity
  8
FASTENER
100
AcDbLine
 10
44.691539
 20
45.902302
 30
0.0
 11
44.691539
 21
45.652302
 31
0.0
  0
ELLIPSE
  5
1E1C
100
AcDbEntity
  8
FASTENER
100
AcDbEllipse
 10
44.691539
 20
45.777302
 30
0.0
 11
-0.0765465544619742
 21
-0.1325825214724724
 31
0.0
210
0.0
220
0.0
230
1.0
 40
0.57735
 41
0.0000000000004347
 42
6.283185307180034
  0
ELLIPSE
  5
1E1D
100
AcDbEntity
  8
FASTENER
100
AcDbEllipse
 10
43.409248
 20
44.03697
 30
0.0
 11
-0.0765465544619742
 21
-0.1325825214724724
 31
0.0
210
0.0
220
0.0
230
1.0
 40
0.57735
 41
0.0000000000004347
 42
6.283185307180034
  0
LINE
  5
1E1E
100
AcDbEntity
  8
FASTENER
100
AcDbLine
 10
43.409248
 20
44.16197
 30
0.0
 11
43.409248
 21
43.91197
 31
0.0
  0
LINE
  5
1E1F
100
AcDbEntity
  8
FASTENER
100
AcDbLine
 10
43.300385
 20
43.975538
 30
0.0
 11
43.518111
 21
44.098402
 31
0.0
  0
LINE
  5
1E20
100
AcDbEntity
  8
FASTENER
100
AcDbLine
 10
44.582676
 20
44.71587
 30
0.0
 11
44.800402
 21
44.838734
 31
0.0
  0
LINE
  5
1E21
100
AcDbEntity
  8
FASTENER
100
AcDbLine
 10
44.691539
 20
44.902302
 30
0.0
 11
44.691539
 21
44.652302
 31
0.0
  0
ELLIPSE
  5
1E22
100
AcDbEntity
  8
FASTENER
100
AcDbEllipse
 10
44.691539
 20
44.777302
 30
0.0
 11
-0.0765465544619742
 21
-0.1325825214724724
 31
0.0
210
0.0
220
0.0
230
1.0
 40
0.57735
 41
0.0000000000004347
 42
6.283185307180034
  0
ELLIPSE
  5
1E23
100
AcDbEntity
  8
FASTENER
100
AcDbEllipse
 10
43.409248
 20
43.03697
 30
0.0
 11
-0.0765465544619742
 21
-0.1325825214724724
 31
0.0
210
0.0
220
0.0
230
1.0
 40
0.57735
 41
0.0000000000004347
 42
6.283185307180034
  0
LINE
  5
1E24
100
AcDbEntity
  8
FASTENER
100
AcDbLine
 10
43.409248
 20
43.16197
 30
0.0
 11
43.409248
 21
42.91197
 31
0.0
  0
LINE
  5
1E25
100
AcDbEntity
  8
FASTENER
100
AcDbLine
 10
43.300385
 20
42.975538
 30
0.0
 11
43.518111
 21
43.098402
 31
0.0
  0
ELLIPSE
  5
1E29
100
AcDbEntity
  8
FASTENER
100
AcDbEllipse
 10
43.409248
 20
42.03697
 30
0.0
 11
-0.0765465544619742
 21
-0.1325825214724724
 31
0.0
210
0.0
220
0.0
230
1.0
 40
0.57735
 41
0.0000000000004347
 42
6.283185307180034
  0
LINE
  5
1E2A
100
AcDbEntity
  8
FASTENER
100
AcDbLine
 10
43.409248
 20
42.16197
 30
0.0
 11
43.409248
 21
41.91197
 31
0.0
  0
LINE
  5
1E2B
100
AcDbEntity
  8
FASTENER
100
AcDbLine
 10
43.300385
 20
41.975538
 30
0.0
 11
43.518111
 21
42.098402
 31
0.0
  0
LINE
  5
1E4F
100
AcDbEntity
  8
FASTENER
100
AcDbLine
 10
48.277517
 20
46.512671
 30
0.0
 11
48.495242
 21
46.635535
 31
0.0
  0
LINE
  5
1E50
100
AcDbEntity
  8
FASTENER
100
AcDbLine
 10
48.38638
 20
46.699103
 30
0.0
 11
48.38638
 21
46.449103
 31
0.0
  0
ELLIPSE
  5
1E51
100
AcDbEntity
  8
FASTENER
100
AcDbEllipse
 10
48.38638
 20
46.574103
 30
0.0
 11
-0.0765465544619742
 21
-0.1325825214724724
 31
0.0
210
0.0
220
0.0
230
1.0
 40
0.57735
 41
0.0000000000004347
 42
6.283185307180034
  0
LINE
  5
1E52
100
AcDbEntity
  8
FASTENER
100
AcDbLine
 10
46.918826
 20
47.148249
 30
0.0
 11
47.136552
 21
47.271113
 31
0.0
  0
LINE
  5
1E53
100
AcDbEntity
  8
FASTENER
100
AcDbLine
 10
47.027689
 20
47.334681
 30
0.0
 11
47.027689
 21
47.084681
 31
0.0
  0
ELLIPSE
  5
1E54
100
AcDbEntity
  8
FASTENER
100
AcDbEllipse
 10
47.027689
 20
47.209681
 30
0.0
 11
-0.0765465544619742
 21
-0.1325825214724724
 31
0.0
210
0.0
220
0.0
230
1.0
 40
0.57735
 41
0.0000000000004347
 42
6.283185307180034
  0
ELLIPSE
  5
1E55
100
AcDbEntity
  8
FASTENER
100
AcDbEllipse
 10
47.663267
 20
48.568371
 30
0.0
 11
-0.0765465544619742
 21
-0.1325825214724724
 31
0.0
210
0.0
220
0.0
230
1.0
 40
0.57735
 41
0.0000000000004347
 42
6.283185307180034
  0
LINE
  5
1E56
100
AcDbEntity
  8
FASTENER
100
AcDbLine
 10
47.663267
 20
48.693371
 30
0.0
 11
47.663267
 21
48.443371
 31
0.0
  0
LINE
  5
1E57
100
AcDbEntity
  8
FASTENER
100
AcDbLine
 10
47.554404
 20
48.506939
 30
0.0
 11
47.77213
 21
48.629803
 31
0.0
  0
ELLIPSE
  5
1E58
100
AcDbEntity
  8
FASTENER
100
AcDbEllipse
 10
49.021958
 20
47.932793
 30
0.0
 11
-0.0765465544619742
 21
-0.1325825214724724
 31
0.0
210
0.0
220
0.0
230
1.0
 40
0.57735
 41
0.0000000000004347
 42
6.283185307180034
  0
LINE
  5
1E59
100
AcDbEntity
  8
FASTENER
100
AcDbLine
 10
49.021958
 20
48.057793
 30
0.0
 11
49.021958
 21
47.807793
 31
0.0
  0
LINE
  5
1E5A
100
AcDbEntity
  8
FASTENER
100
AcDbLine
 10
48.913095
 20
47.871361
 30
0.0
 11
49.130821
 21
47.994225
 31
0.0
  0
ELLIPSE
  5
1E5E
100
AcDbEntity
  8
FASTENER
100
AcDbEllipse
 10
49.657536
 20
49.291484
 30
0.0
 11
-0.0765465544619742
 21
-0.1325825214724724
 31
0.0
210
0.0
220
0.0
230
1.0
 40
0.57735
 41
0.0000000000004347
 42
6.283185307180034
  0
LINE
  5
1E5F
100
AcDbEntity
  8
FASTENER
100
AcDbLine
 10
49.657536
 20
49.416484
 30
0.0
 11
49.657536
 21
49.166484
 31
0.0
  0
LINE
  5
1E60
100
AcDbEntity
  8
FASTENER
100
AcDbLine
 10
49.548673
 20
49.230052
 30
0.0
 11
49.766399
 21
49.352916
 31
0.0
  0
ELLIPSE
  5
1E61
100
AcDbEntity
  8
FASTENER
100
AcDbEllipse
 10
46.392111
 20
45.85099
 30
0.0
 11
-0.0765465544619742
 21
-0.1325825214724724
 31
0.0
210
0.0
220
0.0
230
1.0
 40
0.57735
 41
0.0000000000004347
 42
6.283185307180034
  0
LINE
  5
1E62
100
AcDbEntity
  8
FASTENER
100
AcDbLine
 10
46.392111
 20
45.97599
 30
0.0
 11
46.392111
 21
45.72599
 31
0.0
  0
LINE
  5
1E63
100
AcDbEntity
  8
FASTENER
100
AcDbLine
 10
46.283248
 20
45.789558
 30
0.0
 11
46.500974
 21
45.912422
 31
0.0
  0
ELLIPSE
  5
1E64
100
AcDbEntity
  8
FASTENER
100
AcDbEllipse
 10
47.750802
 20
45.215412
 30
0.0
 11
-0.0765465544619742
 21
-0.1325825214724724
 31
0.0
210
0.0
220
0.0
230
1.0
 40
0.57735
 41
0.0000000000004347
 42
6.283185307180034
  0
LINE
  5
1E65
100
AcDbEntity
  8
FASTENER
100
AcDbLine
 10
47.750802
 20
45.340412
 30
0.0
 11
47.750802
 21
45.090412
 31
0.0
  0
LINE
  5
1E66
100
AcDbEntity
  8
FASTENER
100
AcDbLine
 10
47.641939
 20
45.15398
 30
0.0
 11
47.859664
 21
45.276844
 31
0.0
  0
ELLIPSE
  5
1E67
100
AcDbEntity
  8
FASTENER
100
AcDbEllipse
 10
45.756533
 20
44.492299
 30
0.0
 11
-0.0765465544619742
 21
-0.1325825214724724
 31
0.0
210
0.0
220
0.0
230
1.0
 40
0.57735
 41
0.0000000000004347
 42
6.283185307180034
  0
LINE
  5
1E68
100
AcDbEntity
  8
FASTENER
100
AcDbLine
 10
45.756533
 20
44.617299
 30
0.0
 11
45.756533
 21
44.367299
 31
0.0
  0
LINE
  5
1E69
100
AcDbEntity
  8
FASTENER
100
AcDbLine
 10
45.64767
 20
44.430867
 30
0.0
 11
45.865395
 21
44.553731
 31
0.0
  0
ELLIPSE
  5
1E6A
100
AcDbEntity
  8
FASTENER
100
AcDbEllipse
 10
47.115223
 20
43.856721
 30
0.0
 11
-0.0765465544619742
 21
-0.1325825214724724
 31
0.0
210
0.0
220
0.0
230
1.0
 40
0.57735
 41
0.0000000000004347
 42
6.283185307180034
  0
LINE
  5
1E6B
100
AcDbEntity
  8
FASTENER
100
AcDbLine
 10
47.115223
 20
43.981721
 30
0.0
 11
47.115223
 21
43.731721
 31
0.0
  0
LINE
  5
1E6C
100
AcDbEntity
  8
FASTENER
100
AcDbLine
 10
47.006361
 20
43.795289
 30
0.0
 11
47.224086
 21
43.918153
 31
0.0
  0
ELLIPSE
  5
1E6D
100
AcDbEntity
  8
FASTENER
100
AcDbEllipse
 10
45.120955
 20
43.133609
 30
0.0
 11
-0.0765465544619742
 21
-0.1325825214724724
 31
0.0
210
0.0
220
0.0
230
1.0
 40
0.57735
 41
0.0000000000004347
 42
6.283185307180034
  0
LINE
  5
1E6E
100
AcDbEntity
  8
FASTENER
100
AcDbLine
 10
45.120955
 20
43.258609
 30
0.0
 11
45.120955
 21
43.008609
 31
0.0
  0
LINE
  5
1E6F
100
AcDbEntity
  8
FASTENER
100
AcDbLine
 10
45.012092
 20
43.072177
 30
0.0
 11
45.229817
 21
43.195041
 31
0.0
  0
ELLIPSE
  5
1E70
100
AcDbEntity
  8
FASTENER
100
AcDbEllipse
 10
46.479645
 20
42.49803
 30
0.0
 11
-0.0765465544619742
 21
-0.1325825214724724
 31
0.0
210
0.0
220
0.0
230
1.0
 40
0.57735
 41
0.0000000000004347
 42
6.283185307180034
  0
LINE
  5
1E71
100
AcDbEntity
  8
FASTENER
100
AcDbLine
 10
46.479645
 20
42.62303
 30
0.0
 11
46.479645
 21
42.37303
 31
0.0
  0
LINE
  5
1E72
100
AcDbEntity
  8
FASTENER
100
AcDbLine
 10
46.370782
 20
42.436599
 30
0.0
 11
46.588508
 21
42.559462
 31
0.0
  0
ELLIPSE
  5
1E73
100
AcDbEntity
  8
FASTENER
100
AcDbEllipse
 10
44.485376
 20
41.774918
 30
0.0
 11
-0.0765465544619742
 21
-0.1325825214724724
 31
0.0
210
0.0
220
0.0
230
1.0
 40
0.57735
 41
0.0000000000004347
 42
6.283185307180034
  0
LINE
  5
1E74
100
AcDbEntity
  8
FASTENER
100
AcDbLine
 10
44.485376
 20
41.899918
 30
0.0
 11
44.485376
 21
41.649918
 31
0.0
  0
LINE
  5
1E75
100
AcDbEntity
  8
FASTENER
100
AcDbLine
 10
44.376514
 20
41.713486
 30
0.0
 11
44.594239
 21
41.83635
 31
0.0
  0
ELLIPSE
  5
1E76
100
AcDbEntity
  8
FASTENER
100
AcDbEllipse
 10
45.844067
 20
41.13934
 30
0.0
 11
-0.0765465544619742
 21
-0.1325825214724724
 31
0.0
210
0.0
220
0.0
230
1.0
 40
0.57735
 41
0.0000000000004347
 42
6.283185307180034
  0
LINE
  5
1E77
100
AcDbEntity
  8
FASTENER
100
AcDbLine
 10
45.844067
 20
41.26434
 30
0.0
 11
45.844067
 21
41.01434
 31
0.0
  0
LINE
  5
1E78
100
AcDbEntity
  8
FASTENER
100
AcDbLine
 10
45.735204
 20
41.077908
 30
0.0
 11
45.95293
 21
41.200772
 31
0.0
  0
ELLIPSE
  5
1E79
100
AcDbEntity
  8
FASTENER
100
AcDbEllipse
 10
43.849798
 20
40.416227
 30
0.0
 11
-0.0765465544619742
 21
-0.1325825214724724
 31
0.0
210
0.0
220
0.0
230
1.0
 40
0.57735
 41
0.0000000000004347
 42
6.283185307180034
  0
LINE
  5
1E7A
100
AcDbEntity
  8
FASTENER
100
AcDbLine
 10
43.849798
 20
40.541227
 30
0.0
 11
43.849798
 21
40.291227
 31
0.0
  0
LINE
  5
1E7B
100
AcDbEntity
  8
FASTENER
100
AcDbLine
 10
43.740935
 20
40.354795
 30
0.0
 11
43.958661
 21
40.477659
 31
0.0
  0
ELLIPSE
  5
1E7C
100
AcDbEntity
  8
FASTENER
100
AcDbEllipse
 10
45.208489
 20
39.780649
 30
0.0
 11
-0.0765465544619742
 21
-0.1325825214724724
 31
0.0
210
0.0
220
0.0
230
1.0
 40
0.57735
 41
0.0000000000004347
 42
6.283185307180034
  0
LINE
  5
1E7D
100
AcDbEntity
  8
FASTENER
100
AcDbLine
 10
45.208489
 20
39.905649
 30
0.0
 11
45.208489
 21
39.655649
 31
0.0
  0
LINE
  5
1E7E
100
AcDbEntity
  8
FASTENER
100
AcDbLine
 10
45.099626
 20
39.719217
 30
0.0
 11
45.317352
 21
39.842081
 31
0.0
  0
LINE
  5
2190
100
AcDbEntity
  8
STUD
100
AcDbLine
 10
43.991069
 20
68.11135
 30
0.0
 11
43.991069
 21
46.812562
 31
0.0
  0
LINE
  5
2192
100
AcDbEntity
  8
STUD
100
AcDbLine
 10
45.379677
 20
69.010972
 30
0.0
 11
45.27336
 21
47.552893
 31
0.0
  0
LINE
  5
2193
100
AcDbEntity
  8
STUD
100
AcDbLine
 10
42.44686
 20
66.590446
 30
0.0
 11
42.525051
 21
37.557006
 31
0.0
  0
LINE
  5
2194
100
AcDbEntity
  8
STUD
100
AcDbLine
 10
42.587551
 20
66.671674
 30
0.0
 11
42.587551
 21
37.593091
 31
0.0
  0
LINE
  5
21A1
100
AcDbEntity
  8
STUD
100
AcDbLine
 10
42.005495
 20
70.941192
 30
0.0
 11
42.00809
 21
69.243879
 31
0.0
  0
LINE
  5
21AD
100
AcDbEntity
  8
STUD
100
AcDbLine
 10
40.583293
 20
70.120083
 30
0.0
 11
40.838201
 21
41.968569
 31
0.0
  0
LINE
  5
21AE
100
AcDbEntity
  8
STUD
100
AcDbLine
 10
39.626649
 20
68.222814
 30
0.0
 11
39.938699
 21
39.063736
 31
0.0
  0
LINE
  5
21AF
100
AcDbEntity
  8
STUD
100
AcDbLine
 10
39.58981
 20
68.201545
 30
0.0
 11
39.904099
 21
38.952
 31
0.0
  0
POLYLINE
  5
21DC
100
AcDbEntity
  8
STEEL
100
AcDb2dPolyline
 66
     1
 10
0.0
 20
0.0
 30
0.0
  0
VERTEX
  5
21DD
100
AcDbEntity
  8
STEEL
100
AcDbVertex
100
AcDb2dVertex
 10
216.677889
 20
326.933984
 30
0.0
  0
SEQEND
  5
21DE
100
AcDbEntity
  8
STEEL
  0
POLYLINE
  5
2202
100
AcDbEntity
  8
STEEL
100
AcDb2dPolyline
 66
     1
 10
0.0
 20
0.0
 30
0.0
  0
VERTEX
  5
2203
100
AcDbEntity
  8
STEEL
100
AcDbVertex
100
AcDb2dVertex
 10
46.762389
 20
48.412584
 30
0.0
  0
VERTEX
  5
2204
100
AcDbEntity
  8
STEEL
100
AcDbVertex
100
AcDb2dVertex
 10
42.622409
 20
46.022366
 30
0.0
  0
VERTEX
  5
2206
100
AcDbEntity
  8
STEEL
100
AcDbVertex
100
AcDb2dVertex
 10
42.622409
 20
36.022366
 30
0.0
  0
VERTEX
  5
2207
100
AcDbEntity
  8
STEEL
100
AcDbVertex
100
AcDb2dVertex
 10
51.282663
 20
41.022366
 30
0.0
  0
VERTEX
  5
2208
100
AcDbEntity
  8
STEEL
100
AcDbVertex
100
AcDb2dVertex
 10
51.282663
 20
50.995516
 30
0.0
  0
SEQEND
  5
2209
100
AcDbEntity
  8
STEEL
  0
LINE
  5
220A
100
AcDbEntity
  8
STUD
100
AcDbLine
 10
43.869843
 20
46.742572
 30
0.0
 11
43.869843
 21
68.124683
 31
0.0
  0
LINE
  5
220D
100
AcDbEntity
  8
TRACK
100
AcDbLine
 10
42.622409
 20
37.573263
 30
0.0
 11
37.415989
 21
34.567335
 31
0.0
  0
LINE
  5
220E
100
AcDbEntity
  8
TRACK
100
AcDbLine
 10
42.622409
 20
37.613216
 30
0.0
 11
37.381389
 21
34.587311
 31
0.0
  0
LINE
  5
2211
100
AcDbEntity
  8
TRACK
100
AcDbLine
 10
51.282663
 20
46.238216
 30
0.0
 11
53.367116
 21
47.441675
 31
0.0
  0
LINE
  5
2212
100
AcDbEntity
  8
TRACK
100
AcDbLine
 10
51.282663
 20
46.278168
 30
0.0
 11
53.367116
 21
47.481628
 31
0.0
  0
LINE
  5
2246
100
AcDbEntity
  8
STUD
100
AcDbLine
 10
53.448824
 20
76.819363
 30
0.0
 11
53.586884
 21
63.001473
 31
0.0
  0
LINE
  5
2247
100
AcDbEntity
  8
STUD
100
AcDbLine
 10
56.443958
 20
62.076535
 30
0.0
 11
56.443958
 21
45.593091
 31
0.0
  0
LINE
  5
2249
100
AcDbEntity
  8
STUD
100
AcDbLine
 10
54.443355
 20
77.932757
 30
0.0
 11
54.546862
 21
65.053641
 31
0.0
  0
LINE
  5
224A
100
AcDbEntity
  8
STUD
100
AcDbLine
 10
53.485663
 20
76.840631
 30
0.0
 11
53.622188
 21
63.076942
 31
0.0
  0
LINE
  5
224B
100
AcDbEntity
  8
STUD
100
AcDbLine
 10
55.75395
 20
75.488498
 30
0.0
 11
55.798056
 21
67.728349
 31
0.0
  0
LINE
  5
224C
100
AcDbEntity
  8
STUD
100
AcDbLine
 10
56.381458
 20
61.942661
 30
0.0
 11
56.381458
 21
45.557006
 31
0.0
  0
LINE
  5
2324
100
AcDbEntity
  8
TRACK
100
AcDbLine
 10
63.370101
 20
51.557097
 30
0.0
 11
57.726249
 21
48.309484
 31
0.0
  0
LINE
  5
233E
100
AcDbEntity
  8
STEEL
100
AcDbLine
 10
42.069162
 20
47.766034
 30
0.0
 11
41.195547
 21
48.270416
 31
0.0
  0
LINE
  5
2340
100
AcDbEntity
  8
STEEL
100
AcDbLine
 10
41.195547
 20
38.46377
 30
0.0
 11
39.513761
 21
37.500106
 31
0.0
  0
LINE
  5
2345
100
AcDbEntity
  8
STEEL
100
AcDbLine
 10
39.463496
 20
37.529126
 30
0.0
 11
40.970129
 21
36.659271
 31
0.0
  0
ELLIPSE
  5
2349
100
AcDbEntity
  8
STEEL
100
AcDbEllipse
 10
41.062236
 20
37.549626
 30
0.0
 11
-0.9185586535436916
 21
0.0
 31
0.0
210
0.0
220
0.0
230
1.0
 40
0.57735
 41
-0.0616573342455959
 42
3.203249987835845
  0
LINE
  5
234C
100
AcDbEntity
  8
STEEL
100
AcDbLine
 10
39.513761
 20
37.500106
 30
0.0
 11
41.245812
 21
43.093554
 31
0.0
  0
LINE
  5
234E
100
AcDbEntity
  8
0
100
AcDbLine
 10
41.195547
 20
43.122575
 30
0.0
 11
41.245812
 21
43.093554
 31
0.0
  0
LINE
  5
234F
100
AcDbEntity
  8
STEEL
100
AcDbLine
 10
41.195547
 20
42.931229
 30
0.0
 11
41.195547
 21
38.46377
 31
0.0
  0
ELLIPSE
  5
2359
100
AcDbEntity
  8
STEEL
100
AcDbEllipse
 10
41.062236
 20
37.614982
 30
0.0
 11
-0.9185586535436916
 21
0.0
 31
0.0
210
0.0
220
0.0
230
1.0
 40
0.57735
 41
-1.084101371720143
 42
4.225694025310051
  0
ELLIPSE
  5
235A
100
AcDbEntity
  8
STEEL
100
AcDbEllipse
 10
41.062236
 20
37.614982
 30
0.0
 11
-0.4592793267718459
 21
0.0
 31
0.0
210
0.0
220
0.0
230
1.0
 40
0.57735
 41
0.0
 42
3.141592653589793
  0
ELLIPSE
  5
235B
100
AcDbEntity
  8
STEEL
100
AcDbEllipse
 10
41.062236
 20
37.989982
 30
0.0
 11
-0.4592793267718459
 21
0.0
 31
0.0
210
0.0
220
0.0
230
1.0
 40
0.57735
 41
0.0
 42
6.2831853071796
  0
LINE
  5
235C
100
AcDbEntity
  8
STEEL
100
AcDbLine
 10
40.602957
 20
37.989982
 30
0.0
 11
40.602957
 21
37.614982
 31
0.0
  0
LINE
  5
235D
100
AcDbEntity
  8
STEEL
100
AcDbLine
 10
41.521516
 20
37.989982
 30
0.0
 11
41.521516
 21
37.614982
 31
0.0
  0
LINE
  5
235E
100
AcDbEntity
  8
STEEL
  6
CENTER
100
AcDbLine
 10
41.062236
 20
37.989982
 30
0.0
 11
41.062236
 21
29.656968
 31
0.0
  0
LINE
  5
2362
100
AcDbEntity
  8
STEEL
  6
HIDDEN
100
AcDbLine
 10
40.602957
 20
37.614982
 30
0.0
 11
40.602957
 21
30.909029
 31
0.0
  0
LINE
  5
2363
100
AcDbEntity
  8
STEEL
  6
HIDDEN
100
AcDbLine
 10
41.521516
 20
37.614982
 30
0.0
 11
41.521516
 21
31.053301
 31
0.0
  0
POLYLINE
  5
2365
100
AcDbEntity
  8
STEEL
100
AcDb2dPolyline
 66
     1
 10
0.0
 20
0.0
 30
0.0
  0
VERTEX
  5
236A
100
AcDbEntity
  8
STEEL
100
AcDbVertex
100
AcDb2dVertex
 10
42.069162
 20
47.83139
 30
0.0
  0
VERTEX
  5
2369
100
AcDbEntity
  8
STEEL
100
AcDbVertex
100
AcDb2dVertex
 10
41.252147
 20
48.303094
 30
0.0
  0
VERTEX
  5
2366
100
AcDbEntity
  8
STEEL
100
AcDbVertex
100
AcDb2dVertex
 10
41.195547
 20
48.270416
 30
0.0
  0
VERTEX
  5
2367
100
AcDbEntity
  8
STEEL
100
AcDbVertex
100
AcDb2dVertex
 10
41.195547
 20
43.122575
 30
0.0
  0
VERTEX
  5
236B
100
AcDbEntity
  8
STEEL
100
AcDbVertex
100
AcDb2dVertex
 10
39.463496
 20
37.529126
 30
0.0
  0
VERTEX
  5
236C
100
AcDbEntity
  8
STEEL
100
AcDbVertex
100
AcDb2dVertex
 10
39.463496
 20
37.46377
 30
0.0
  0
VERTEX
  5
236D
100
AcDbEntity
  8
STEEL
100
AcDbVertex
100
AcDb2dVertex
 10
40.913529
 20
36.626593
 30
0.0
  0
SEQEND
  5
2368
100
AcDbEntity
  8
STEEL
  0
LINE
  5
236F
100
AcDbEntity
  8
FASTENER
100
AcDbLine
 10
54.166462
 20
47.186279
 30
0.0
 11
54.166462
 21
46.936279
 31
0.0
  0
LINE
  5
2370
100
AcDbEntity
  8
FASTENER
100
AcDbLine
 10
54.057599
 20
46.999847
 30
0.0
 11
54.275325
 21
47.122711
 31
0.0
  0
ELLIPSE
  5
2384
100
AcDbEntity
  8
FASTENER
100
AcDbEllipse
 10
41.388998
 20
47.658726
 30
0.0
 11
0.0765465544619687
 21
-0.1325825214724809
 31
0.0
210
0.0
220
0.0
230
1.0
 40
0.57735
 41
-0.0000000000000837
 42
6.283185307179516
  0
LINE
  5
2385
100
AcDbEntity
  8
FASTENER
100
AcDbLine
 10
41.497251
 20
47.596226
 30
0.0
 11
41.280745
 21
47.721226
 31
0.0
  0
LINE
  5
2386
100
AcDbEntity
  8
FASTENER
100
AcDbLine
 10
41.388998
 20
47.783726
 30
0.0
 11
41.388998
 21
47.533726
 31
0.0
  0
LINE
  5
238D
100
AcDbEntity
  8
FASTENER
100
AcDbLine
 10
42.038517
 20
47.408726
 30
0.0
 11
42.038517
 21
47.158726
 31
0.0
  0
LINE
  5
238E
100
AcDbEntity
  8
FASTENER
100
AcDbLine
 10
42.069162
 20
47.266034
 30
0.0
 11
41.930264
 21
47.346226
 31
0.0
  0
ELLIPSE
  5
238F
100
AcDbEntity
  8
FASTENER
100
AcDbEllipse
 10
42.038517
 20
47.283726
 30
0.0
 11
0.0765465544619687
 21
-0.1325825214724809
 31
0.0
210
0.0
220
0.0
230
1.0
 40
0.57735
 41
2.069182917689761
 42
5.784798716284812
  0
ELLIPSE
  5
23CC
100
AcDbEntity
  8
FASTENER
100
AcDbEllipse
 10
42.038517
 20
46.033726
 30
0.0
 11
0.0765465544619687
 21
-0.1325825214724809
 31
0.0
210
0.0
220
0.0
230
1.0
 40
0.57735
 41
2.069182917689916
 42
5.784798716284812
  0
LINE
  5
23CD
100
AcDbEntity
  8
FASTENER
100
AcDbLine
 10
42.069162
 20
46.016034
 30
0.0
 11
41.930264
 21
46.096226
 31
0.0
  0
LINE
  5
23CE
100
AcDbEntity
  8
FASTENER
100
AcDbLine
 10
42.038517
 20
46.158726
 30
0.0
 11
42.038517
 21
45.908726
 31
0.0
  0
LINE
  5
23CF
100
AcDbEntity
  8
FASTENER
100
AcDbLine
 10
41.388998
 20
46.533726
 30
0.0
 11
41.388998
 21
46.283726
 31
0.0
  0
LINE
  5
23D0
100
AcDbEntity
  8
FASTENER
100
AcDbLine
 10
41.497251
 20
46.346226
 30
0.0
 11
41.280745
 21
46.471226
 31
0.0
  0
ELLIPSE
  5
23D1
100
AcDbEntity
  8
FASTENER
100
AcDbEllipse
 10
41.388998
 20
46.408726
 30
0.0
 11
0.0765465544619687
 21
-0.1325825214724809
 31
0.0
210
0.0
220
0.0
230
1.0
 40
0.57735
 41
-0.0000000000000837
 42
6.283185307179516
  0
ELLIPSE
  5
23D2
100
AcDbEntity
  8
FASTENER
100
AcDbEllipse
 10
42.038517
 20
44.783726
 30
0.0
 11
0.0765465544619687
 21
-0.1325825214724809
 31
0.0
210
0.0
220
0.0
230
1.0
 40
0.57735
 41
2.069182917689916
 42
5.784798716284941
  0
LINE
  5
23D3
100
AcDbEntity
  8
FASTENER
100
AcDbLine
 10
42.069162
 20
44.766034
 30
0.0
 11
41.930264
 21
44.846226
 31
0.0
  0
LINE
  5
23D4
100
AcDbEntity
  8
FASTENER
100
AcDbLine
 10
42.038517
 20
44.908726
 30
0.0
 11
42.038517
 21
44.658726
 31
0.0
  0
LINE
  5
23D5
100
AcDbEntity
  8
FASTENER
100
AcDbLine
 10
41.388998
 20
45.283726
 30
0.0
 11
41.388998
 21
45.033726
 31
0.0
  0
LINE
  5
23D6
100
AcDbEntity
  8
FASTENER
100
AcDbLine
 10
41.497251
 20
45.096226
 30
0.0
 11
41.280745
 21
45.221226
 31
0.0
  0
ELLIPSE
  5
23D7
100
AcDbEntity
  8
FASTENER
100
AcDbEllipse
 10
41.388998
 20
45.158726
 30
0.0
 11
0.0765465544619687
 21
-0.1325825214724809
 31
0.0
210
0.0
220
0.0
230
1.0
 40
0.57735
 41
-0.0000000000000837
 42
6.283185307179516
  0
ELLIPSE
  5
23D8
100
AcDbEntity
  8
FASTENER
100
AcDbEllipse
 10
42.038517
 20
43.533726
 30
0.0
 11
0.0765465544619687
 21
-0.1325825214724809
 31
0.0
210
0.0
220
0.0
230
1.0
 40
0.57735
 41
2.0691829176899
 42
5.784798716284941
  0
LINE
  5
23D9
100
AcDbEntity
  8
FASTENER
100
AcDbLine
 10
42.069162
 20
43.516034
 30
0.0
 11
41.930264
 21
43.596226
 31
0.0
  0
LINE
  5
23DA
100
AcDbEntity
  8
FASTENER
100
AcDbLine
 10
42.038517
 20
43.658726
 30
0.0
 11
42.038517
 21
43.408726
 31
0.0
  0
LINE
  5
23DB
100
AcDbEntity
  8
FASTENER
100
AcDbLine
 10
41.388998
 20
44.033726
 30
0.0
 11
41.388998
 21
43.783726
 31
0.0
  0
LINE
  5
23DC
100
AcDbEntity
  8
FASTENER
100
AcDbLine
 10
41.497251
 20
43.846226
 30
0.0
 11
41.280745
 21
43.971226
 31
0.0
  0
ELLIPSE
  5
23DD
100
AcDbEntity
  8
FASTENER
100
AcDbEllipse
 10
41.388998
 20
43.908726
 30
0.0
 11
0.0765465544619687
 21
-0.1325825214724809
 31
0.0
210
0.0
220
0.0
230
1.0
 40
0.57735
 41
0.0000000000001359
 42
6.283185307179736
  0
ELLIPSE
  5
23DE
100
AcDbEntity
  8
FASTENER
100
AcDbEllipse
 10
42.038517
 20
42.283726
 30
0.0
 11
0.0765465544619687
 21
-0.1325825214724809
 31
0.0
210
0.0
220
0.0
230
1.0
 40
0.57735
 41
2.0691829176899
 42
5.784798716284941
  0
LINE
  5
23DF
100
AcDbEntity
  8
FASTENER
100
AcDbLine
 10
42.069162
 20
42.266034
 30
0.0
 11
41.930264
 21
42.346226
 31
0.0
  0
LINE
  5
23E0
100
AcDbEntity
  8
FASTENER
100
AcDbLine
 10
42.038517
 20
42.408726
 30
0.0
 11
42.038517
 21
42.158726
 31
0.0
  0
LINE
  5
23E1
100
AcDbEntity
  8
FASTENER
100
AcDbLine
 10
41.388998
 20
42.783726
 30
0.0
 11
41.388998
 21
42.533726
 31
0.0
  0
LINE
  5
23E2
100
AcDbEntity
  8
FASTENER
100
AcDbLine
 10
41.497251
 20
42.596226
 30
0.0
 11
41.280745
 21
42.721226
 31
0.0
  0
ELLIPSE
  5
23E3
100
AcDbEntity
  8
FASTENER
100
AcDbEllipse
 10
41.388998
 20
42.658726
 30
0.0
 11
0.0765465544619687
 21
-0.1325825214724809
 31
0.0
210
0.0
220
0.0
230
1.0
 40
0.57735
 41
0.0000000000001359
 42
6.283185307179736
  0
ELLIPSE
  5
23E4
100
AcDbEntity
  8
FASTENER
100
AcDbEllipse
 10
42.038517
 20
41.033726
 30
0.0
 11
0.0765465544619687
 21
-0.1325825214724809
 31
0.0
210
0.0
220
0.0
230
1.0
 40
0.57735
 41
2.0691829176899
 42
5.784798716284941
  0
LINE
  5
23E5
100
AcDbEntity
  8
FASTENER
100
AcDbLine
 10
42.069162
 20
41.016034
 30
0.0
 11
41.930264
 21
41.096226
 31
0.0
  0
LINE
  5
23E6
100
AcDbEntity
  8
FASTENER
100
AcDbLine
 10
42.038517
 20
41.158726
 30
0.0
 11
42.038517
 21
40.908726
 31
0.0
  0
LINE
  5
23E7
100
AcDbEntity
  8
FASTENER
100
AcDbLine
 10
41.388998
 20
41.533726
 30
0.0
 11
41.388998
 21
41.283726
 31
0.0
  0
LINE
  5
23E8
100
AcDbEntity
  8
FASTENER
100
AcDbLine
 10
41.497251
 20
41.346226
 30
0.0
 11
41.280745
 21
41.471226
 31
0.0
  0
ELLIPSE
  5
23E9
100
AcDbEntity
  8
FASTENER
100
AcDbEllipse
 10
41.388998
 20
41.408726
 30
0.0
 11
0.0765465544619687
 21
-0.1325825214724809
 31
0.0
210
0.0
220
0.0
230
1.0
 40
0.57735
 41
0.0000000000001359
 42
6.283185307179736
  0
POLYLINE
  5
23EA
100
AcDbEntity
  8
STUD
100
AcDb2dPolyline
 66
     1
 10
0.0
 20
0.0
 30
0.0
  0
VERTEX
  5
23EB
100
AcDbEntity
  8
STUD
100
AcDbVertex
100
AcDb2dVertex
 10
39.510709
 20
37.959717
 30
0.0
 42
0.57735
  0
VERTEX
  5
23EC
100
AcDbEntity
  8
STUD
100
AcDbVertex
100
AcDb2dVertex
 10
39.510709
 20
37.851464
 30
0.0
  0
VERTEX
  5
23ED
100
AcDbEntity
  8
STUD
100
AcDbVertex
100
AcDb2dVertex
 10
39.555332
 20
37.825701
 30
0.0
  0
SEQEND
  5
23EE
100
AcDbEntity
  8
STUD
  0
MTEXT
  5
23F2
100
AcDbEntity
  8
D-TEXT
  6
CONTINUOUS
100
AcDbMText
 10
0.897167
 20
29.75
 30
0.0
 40
1.5
 41
67.5
 71
     1
 72
     1
  1
{NOTE:}\P{STRAP FORCES MAY REQUIRE ADDITIONAL STIFFENING OF THE BOTTOM TRACK}\P{CROSS BRACING TO BE INSTALLED AFTER LOADING.}
  7
ARCH
  0
LEADER
  5
23F3
100
AcDbEntity
  8
D-TEXT
  6
CONTINUOUS
100
AcDbLeader
  3
LEADER
 72
     1
 73
     0
 74
     0
 40
2.666667
 41
33.068966
 76
     3
 10
44.652632
 20
36.733341
 30
0.0
 10
48.601963
 20
34.453193
 30
0.0
 10
53.68768
 20
34.480425
 30
0.0
 77
   256
  0
MTEXT
  5
23F4
100
AcDbEntity
  8
D-TEXT
  6
CONTINUOUS
100
AcDbMText
 10
54.68768
 20
34.480425
 30
0.0
 40
1.5
 41
0.0
 71
     4
 72
     1
  1
{GUSSET PLATE AND SCREW }\P{PATTERN }{AS SPECIFIED }\P{BY ENGINEER}
  7
ARCH
  0
LEADER
  5
23F5
100
AcDbEntity
  8
D-TEXT
  6
CONTINUOUS
100
AcDbLeader
  3
LEADER
 73
     0
 40
2.666667
 41
22.517241
 76
     2
 10
51.78634
 20
56.298009
 30
0.0
 10
36.381776
 20
56.221564
 30
0.0
 77
   256
  0
MTEXT
  5
23F6
100
AcDbEntity
  8
D-TEXT
  6
CONTINUOUS
100
AcDbMText
 10
35.381776
 20
56.221564
 30
0.0
 40
1.5
 41
0.0
 71
     6
 72
     1
  1
LATERAL STABILITY STRAP\PAS REQUIRED BY DESIGN
  7
ARCH
  0
POLYLINE
  5
2481
100
AcDbEntity
  8
STUD
100
AcDb2dPolyline
 66
     1
 10
0.0
 20
0.0
 30
0.0
  0
VERTEX
  5
2482
100
AcDbEntity
  8
STUD
100
AcDbVertex
100
AcDb2dVertex
 10
56.012551
 20
77.384645
 30
0.0
  0
VERTEX
  5
2483
100
AcDbEntity
  8
STUD
100
AcDbVertex
100
AcDb2dVertex
 10
56.012551
 20
77.026781
 30
0.0
  0
VERTEX
  5
2484
100
AcDbEntity
  8
STUD
100
AcDbVertex
100
AcDb2dVertex
 10
57.6527
 20
76.079841
 30
0.0
 42
-0.57735
  0
VERTEX
  5
2485
100
AcDbEntity
  8
STUD
100
AcDbVertex
100
AcDb2dVertex
 10
57.6527
 20
76.02839
 30
0.0
  0
VERTEX
  5
2486
100
AcDbEntity
  8
STUD
100
AcDbVertex
100
AcDb2dVertex
 10
56.287455
 20
75.240166
 30
0.0
 42
-0.267949
  0
VERTEX
  5
2487
100
AcDbEntity
  8
STUD
100
AcDbVertex
100
AcDb2dVertex
 10
56.25775
 20
75.240166
 30
0.0
  0
VERTEX
  5
2488
100
AcDbEntity
  8
STUD
100
AcDbVertex
100
AcDb2dVertex
 10
55.790788
 20
75.509767
 30
0.0
  0
VERTEX
  5
2489
100
AcDbEntity
  8
STUD
100
AcDbVertex
100
AcDb2dVertex
 10
55.75395
 20
75.488498
 30
0.0
  0
VERTEX
  5
248A
100
AcDbEntity
  8
STUD
100
AcDbVertex
100
AcDb2dVertex
 10
56.239331
 20
75.208263
 30
0.0
 42
0.267949
  0
VERTEX
  5
248B
100
AcDbEntity
  8
STUD
100
AcDbVertex
100
AcDb2dVertex
 10
56.305874
 20
75.208263
 30
0.0
  0
VERTEX
  5
248C
100
AcDbEntity
  8
STUD
100
AcDbVertex
100
AcDb2dVertex
 10
57.671119
 20
75.996487
 30
0.0
 42
0.57735
  0
VERTEX
  5
248D
100
AcDbEntity
  8
STUD
100
AcDbVertex
100
AcDb2dVertex
 10
57.671119
 20
76.111744
 30
0.0
  0
VERTEX
  5
248E
100
AcDbEntity
  8
STUD
100
AcDbVertex
100
AcDb2dVertex
 10
56.049389
 20
77.04805
 30
0.0
  0
VERTEX
  5
248F
100
AcDbEntity
  8
STUD
100
AcDbVertex
100
AcDb2dVertex
 10
56.049389
 20
77.448171
 30
0.0
  0
VERTEX
  5
2490
100
AcDbEntity
  8
STUD
100
AcDbVertex
100
AcDb2dVertex
 10
55.61915
 20
76.706244
 30
0.0
  0
VERTEX
  5
2491
100
AcDbEntity
  8
STUD
100
AcDbVertex
100
AcDb2dVertex
 10
55.61915
 20
77.296449
 30
0.0
  0
VERTEX
  5
2492
100
AcDbEntity
  8
STUD
100
AcDbVertex
100
AcDb2dVertex
 10
54.461774
 20
77.96466
 30
0.0
 42
0.267949
  0
VERTEX
  5
2493
100
AcDbEntity
  8
STUD
100
AcDbVertex
100
AcDb2dVertex
 10
54.395231
 20
77.96466
 30
0.0
  0
VERTEX
  5
2494
100
AcDbEntity
  8
STUD
100
AcDbVertex
100
AcDb2dVertex
 10
53.029986
 20
77.176435
 30
0.0
 42
0.57735
  0
VERTEX
  5
2495
100
AcDbEntity
  8
STUD
100
AcDbVertex
100
AcDb2dVertex
 10
53.029986
 20
77.061179
 30
0.0
  0
VERTEX
  5
2496
100
AcDbEntity
  8
STUD
100
AcDbVertex
100
AcDb2dVertex
 10
53.448824
 20
76.819363
 30
0.0
  0
VERTEX
  5
2497
100
AcDbEntity
  8
STUD
100
AcDbVertex
100
AcDb2dVertex
 10
53.485663
 20
76.840631
 30
0.0
  0
VERTEX
  5
2498
100
AcDbEntity
  8
STUD
100
AcDbVertex
100
AcDb2dVertex
 10
53.048405
 20
77.093082
 30
0.0
 42
-0.57735
  0
VERTEX
  5
2499
100
AcDbEntity
  8
STUD
100
AcDbVertex
100
AcDb2dVertex
 10
53.048405
 20
77.144532
 30
0.0
  0
VERTEX
  5
249A
100
AcDbEntity
  8
STUD
100
AcDbVertex
100
AcDb2dVertex
 10
54.41365
 20
77.932757
 30
0.0
 42
-0.267949
  0
VERTEX
  5
249B
100
AcDbEntity
  8
STUD
100
AcDbVertex
100
AcDb2dVertex
 10
54.443355
 20
77.932757
 30
0.0
  0
VERTEX
  5
249C
100
AcDbEntity
  8
STUD
100
AcDbVertex
100
AcDb2dVertex
 10
55.582312
 20
77.27518
 30
0.0
  0
VERTEX
  5
249D
100
AcDbEntity
  8
STUD
100
AcDbVertex
100
AcDb2dVertex
 10
55.582312
 20
76.684975
 30
0.0
  0
VERTEX
  5
249E
100
AcDbEntity
  8
STUD
100
AcDbVertex
100
AcDb2dVertex
 10
55.61915
 20
76.706244
 30
0.0
  0
SEQEND
  5
249F
100
AcDbEntity
  8
STUD
  0
LINE
  5
24A0
100
AcDbEntity
  8
STUD
100
AcDbLine
 10
44.924178
 20
69.273955
 30
0.0
 11
44.924178
 21
68.694393
 31
0.0
  0
POLYLINE
  5
24A3
100
AcDbEntity
  8
STUD
100
AcDb2dPolyline
 66
     1
 10
0.0
 20
0.0
 30
0.0
  0
VERTEX
  5
24A4
100
AcDbEntity
  8
STUD
100
AcDbVertex
100
AcDb2dVertex
 10
42.291868
 20
68.707246
 30
0.0
  0
VERTEX
  5
24A5
100
AcDbEntity
  8
STUD
100
AcDbVertex
100
AcDb2dVertex
 10
42.291868
 20
69.080039
 30
0.0
  0
VERTEX
  5
24A6
100
AcDbEntity
  8
STUD
100
AcDbVertex
100
AcDb2dVertex
 10
40.583293
 20
70.066486
 30
0.0
 42
-0.57735
  0
VERTEX
  5
24A7
100
AcDbEntity
  8
STUD
100
AcDbVertex
100
AcDb2dVertex
 10
40.583293
 20
70.120083
 30
0.0
  0
VERTEX
  5
24A8
100
AcDbEntity
  8
STUD
100
AcDbVertex
100
AcDb2dVertex
 10
42.005495
 20
70.941192
 30
0.0
 42
-0.267949
  0
VERTEX
  5
24A9
100
AcDbEntity
  8
STUD
100
AcDbVertex
100
AcDb2dVertex
 10
42.036439
 20
70.941192
 30
0.0
  0
VERTEX
  5
24AA
100
AcDbEntity
  8
STUD
100
AcDbVertex
100
AcDb2dVertex
 10
42.522883
 20
70.660343
 30
0.0
  0
VERTEX
  5
24AB
100
AcDbEntity
  8
STUD
100
AcDbVertex
100
AcDb2dVertex
 10
42.561259
 20
70.682499
 30
0.0
  0
VERTEX
  5
24AC
100
AcDbEntity
  8
STUD
100
AcDbVertex
100
AcDb2dVertex
 10
42.055627
 20
70.974426
 30
0.0
 42
0.267949
  0
VERTEX
  5
24AD
100
AcDbEntity
  8
STUD
100
AcDbVertex
100
AcDb2dVertex
 10
41.986308
 20
70.974426
 30
0.0
  0
VERTEX
  5
24AE
100
AcDbEntity
  8
STUD
100
AcDbVertex
100
AcDb2dVertex
 10
40.564105
 20
70.153317
 30
0.0
 42
0.57735
  0
VERTEX
  5
24AF
100
AcDbEntity
  8
STUD
100
AcDbVertex
100
AcDb2dVertex
 10
40.564105
 20
70.033252
 30
0.0
  0
VERTEX
  5
24B0
100
AcDbEntity
  8
STUD
100
AcDbVertex
100
AcDb2dVertex
 10
42.253493
 20
69.057883
 30
0.0
  0
VERTEX
  5
24B1
100
AcDbEntity
  8
STUD
100
AcDbVertex
100
AcDb2dVertex
 10
42.253493
 20
68.641069
 30
0.0
  0
VERTEX
  5
24B2
100
AcDbEntity
  8
STUD
100
AcDbVertex
100
AcDb2dVertex
 10
42.701682
 20
69.41395
 30
0.0
  0
VERTEX
  5
24B3
100
AcDbEntity
  8
STUD
100
AcDbVertex
100
AcDb2dVertex
 10
42.701682
 20
68.799121
 30
0.0
  0
VERTEX
  5
24B4
100
AcDbEntity
  8
STUD
100
AcDbVertex
100
AcDb2dVertex
 10
43.907343
 20
68.103033
 30
0.0
 42
0.267949
  0
VERTEX
  5
24B5
100
AcDbEntity
  8
STUD
100
AcDbVertex
100
AcDb2dVertex
 10
43.976662
 20
68.103033
 30
0.0
  0
VERTEX
  5
24B6
100
AcDbEntity
  8
STUD
100
AcDbVertex
100
AcDb2dVertex
 10
45.398865
 20
68.924142
 30
0.0
 42
0.57735
  0
VERTEX
  5
24B7
100
AcDbEntity
  8
STUD
100
AcDbVertex
100
AcDb2dVertex
 10
45.398865
 20
69.044206
 30
0.0
  0
VERTEX
  5
24B8
100
AcDbEntity
  8
STUD
100
AcDbVertex
100
AcDb2dVertex
 10
44.962553
 20
69.296111
 30
0.0
  0
VERTEX
  5
24B9
100
AcDbEntity
  8
STUD
100
AcDbVertex
100
AcDb2dVertex
 10
44.924178
 20
69.273955
 30
0.0
  0
VERTEX
  5
24BA
100
AcDbEntity
  8
STUD
100
AcDbVertex
100
AcDb2dVertex
 10
45.379677
 20
69.010972
 30
0.0
 42
-0.57735
  0
VERTEX
  5
24BB
100
AcDbEntity
  8
STUD
100
AcDbVertex
100
AcDb2dVertex
 10
45.379677
 20
68.957375
 30
0.0
  0
VERTEX
  5
24BC
100
AcDbEntity
  8
STUD
100
AcDbVertex
100
AcDb2dVertex
 10
43.957475
 20
68.136266
 30
0.0
 42
-0.267949
  0
VERTEX
  5
24BD
100
AcDbEntity
  8
STUD
100
AcDbVertex
100
AcDb2dVertex
 10
43.926531
 20
68.136266
 30
0.0
  0
VERTEX
  5
24BE
100
AcDbEntity
  8
STUD
100
AcDbVertex
100
AcDb2dVertex
 10
42.740057
 20
68.821277
 30
0.0
  0
VERTEX
  5
24BF
100
AcDbEntity
  8
STUD
100
AcDbVertex
100
AcDb2dVertex
 10
42.740057
 20
69.436106
 30
0.0
  0
VERTEX
  5
24C0
100
AcDbEntity
  8
STUD
100
AcDbVertex
100
AcDb2dVertex
 10
42.701682
 20
69.41395
 30
0.0
  0
SEQEND
  5
24C1
100
AcDbEntity
  8
STUD
  0
LINE
  5
24CC
100
AcDbEntity
  8
STUD
100
AcDbLine
 10
42.660843
 20
66.954316
 30
0.0
 11
42.660843
 21
66.756526
 31
0.0
  0
LINE
  5
24CD
100
AcDbEntity
  8
STUD
100
AcDbLine
 10
42.626243
 20
66.974292
 30
0.0
 11
42.626243
 21
66.73655
 31
0.0
  0
LINE
  5
24CE
100
AcDbEntity
  8
STUD
100
AcDbLine
 10
42.187654
 20
67.224904
 30
0.0
 11
42.187654
 21
66.744217
 31
0.0
  0
LINE
  5
24D0
100
AcDbEntity
  8
STUD
100
AcDbLine
 10
42.868973
 20
66.834152
 30
0.0
 11
42.217815
 21
67.210098
 31
0.0
  0
ARC
  5
24D1
100
AcDbEntity
  8
STUD
100
AcDbCircle
 10
42.092815
 20
66.993592
 30
0.0
 40
0.25
100
AcDbArc
 50
60.0
 51
180.0
  0
LINE
  5
24D2
100
AcDbEntity
  8
STUD
100
AcDbLine
 10
41.842815
 20
66.993592
 30
0.0
 11
41.842815
 21
64.320942
 31
0.0
  0
ARC
  5
24D3
100
AcDbEntity
  8
STUD
100
AcDbCircle
 10
42.092815
 20
64.320942
 30
0.0
 40
0.25
100
AcDbArc
 50
180.0
 51
240.0
  0
ARC
  5
24E3
100
AcDbEntity
  8
STUD
100
AcDbCircle
 10
55.435921
 20
74.807022
 30
0.0
 40
0.130014
100
AcDbArc
 50
77.024375
 51
173.423236
  0
LINE
  5
24E4
100
AcDbEntity
  8
STUD
100
AcDbLine
 10
55.306762
 20
72.358692
 30
0.0
 11
55.306762
 21
74.821913
 31
0.0
  0
ARC
  5
24E5
100
AcDbEntity
  8
STUD
100
AcDbCircle
 10
55.409212
 20
72.358692
 30
0.0
 40
0.10245
100
AcDbArc
 50
180.0
 51
243.434949
  0
LINE
  5
24E6
100
AcDbEntity
  8
STUD
100
AcDbLine
 10
55.75395
 20
72.071781
 30
0.0
 11
55.363395
 21
72.267058
 31
0.0
  0
LINE
  5
24E7
100
AcDbEntity
  8
STUD
100
AcDbLine
 10
55.35331
 20
72.246889
 30
0.0
 11
55.75395
 21
72.046569
 31
0.0
  0
ARC
  5
24E8
100
AcDbEntity
  8
STUD
100
AcDbCircle
 10
55.409212
 20
72.358692
 30
0.0
 40
0.125
100
AcDbArc
 50
180.0
 51
243.434949
  0
LINE
  5
24E9
100
AcDbEntity
  8
STUD
100
AcDbLine
 10
55.284212
 20
74.821913
 30
0.0
 11
55.284212
 21
72.358692
 31
0.0
  0
ARC
  5
24EA
100
AcDbEntity
  8
STUD
100
AcDbCircle
 10
55.409212
 20
74.821913
 30
0.0
 40
0.125
100
AcDbArc
 50
63.434949
 51
180.0
  0
LINE
  5
24EB
100
AcDbEntity
  8
STUD
100
AcDbLine
 10
55.75395
 20
74.789298
 30
0.0
 11
55.465113
 21
74.933716
 31
0.0
  0
POLYLINE
  5
2570
100
AcDbEntity
  8
STUD
100
AcDb2dPolyline
 66
     1
 10
0.0
 20
0.0
 30
0.0
  0
VERTEX
  5
2571
100
AcDbEntity
  8
STUD
100
AcDbVertex
100
AcDb2dVertex
 10
42.153537
 20
68.766827
 30
0.0
  0
VERTEX
  5
2572
100
AcDbEntity
  8
STUD
100
AcDbVertex
100
AcDb2dVertex
 10
42.153537
 20
68.408964
 30
0.0
  0
VERTEX
  5
2573
100
AcDbEntity
  8
STUD
100
AcDbVertex
100
AcDb2dVertex
 10
43.793686
 20
67.462023
 30
0.0
 42
-0.57735
  0
VERTEX
  5
2574
100
AcDbEntity
  8
STUD
100
AcDbVertex
100
AcDb2dVertex
 10
43.793686
 20
67.410573
 30
0.0
  0
VERTEX
  5
2575
100
AcDbEntity
  8
STUD
100
AcDbVertex
100
AcDb2dVertex
 10
42.428441
 20
66.622348
 30
0.0
 42
-0.267949
  0
VERTEX
  5
2576
100
AcDbEntity
  8
STUD
100
AcDbVertex
100
AcDb2dVertex
 10
42.398736
 20
66.622348
 30
0.0
  0
VERTEX
  5
2577
100
AcDbEntity
  8
STUD
100
AcDbVertex
100
AcDb2dVertex
 10
41.931774
 20
66.891949
 30
0.0
  0
VERTEX
  5
2578
100
AcDbEntity
  8
STUD
100
AcDbVertex
100
AcDb2dVertex
 10
41.894936
 20
66.870681
 30
0.0
  0
VERTEX
  5
2579
100
AcDbEntity
  8
STUD
100
AcDbVertex
100
AcDb2dVertex
 10
42.380317
 20
66.590446
 30
0.0
 42
0.267949
  0
VERTEX
  5
257A
100
AcDbEntity
  8
STUD
100
AcDbVertex
100
AcDb2dVertex
 10
42.44686
 20
66.590446
 30
0.0
  0
VERTEX
  5
257B
100
AcDbEntity
  8
STUD
100
AcDbVertex
100
AcDb2dVertex
 10
43.812105
 20
67.37867
 30
0.0
 42
0.57735
  0
VERTEX
  5
257C
100
AcDbEntity
  8
STUD
100
AcDbVertex
100
AcDb2dVertex
 10
43.812105
 20
67.493926
 30
0.0
  0
VERTEX
  5
257D
100
AcDbEntity
  8
STUD
100
AcDbVertex
100
AcDb2dVertex
 10
42.190375
 20
68.430233
 30
0.0
  0
VERTEX
  5
257E
100
AcDbEntity
  8
STUD
100
AcDbVertex
100
AcDb2dVertex
 10
42.190375
 20
68.830353
 30
0.0
  0
VERTEX
  5
257F
100
AcDbEntity
  8
STUD
100
AcDbVertex
100
AcDb2dVertex
 10
41.760136
 20
68.088426
 30
0.0
  0
VERTEX
  5
2580
100
AcDbEntity
  8
STUD
100
AcDbVertex
100
AcDb2dVertex
 10
41.760136
 20
68.678631
 30
0.0
  0
VERTEX
  5
2581
100
AcDbEntity
  8
STUD
100
AcDbVertex
100
AcDb2dVertex
 10
40.60276
 20
69.346843
 30
0.0
 42
0.267949
  0
VERTEX
  5
2582
100
AcDbEntity
  8
STUD
100
AcDbVertex
100
AcDb2dVertex
 10
40.536217
 20
69.346843
 30
0.0
  0
VERTEX
  5
2583
100
AcDbEntity
  8
STUD
100
AcDbVertex
100
AcDb2dVertex
 10
39.170972
 20
68.558618
 30
0.0
 42
0.57735
  0
VERTEX
  5
2584
100
AcDbEntity
  8
STUD
100
AcDbVertex
100
AcDb2dVertex
 10
39.170972
 20
68.443362
 30
0.0
  0
VERTEX
  5
2585
100
AcDbEntity
  8
STUD
100
AcDbVertex
100
AcDb2dVertex
 10
39.58981
 20
68.201545
 30
0.0
  0
VERTEX
  5
2586
100
AcDbEntity
  8
STUD
100
AcDbVertex
100
AcDb2dVertex
 10
39.626649
 20
68.222814
 30
0.0
  0
VERTEX
  5
2587
100
AcDbEntity
  8
STUD
100
AcDbVertex
100
AcDb2dVertex
 10
39.189391
 20
68.475265
 30
0.0
 42
-0.57735
  0
VERTEX
  5
2588
100
AcDbEntity
  8
STUD
100
AcDbVertex
100
AcDb2dVertex
 10
39.189391
 20
68.526715
 30
0.0
  0
VERTEX
  5
2589
100
AcDbEntity
  8
STUD
100
AcDbVertex
100
AcDb2dVertex
 10
40.554636
 20
69.31494
 30
0.0
 42
-0.267949
  0
VERTEX
  5
258A
100
AcDbEntity
  8
STUD
100
AcDbVertex
100
AcDb2dVertex
 10
40.584341
 20
69.31494
 30
0.0
  0
VERTEX
  5
258B
100
AcDbEntity
  8
STUD
100
AcDbVertex
100
AcDb2dVertex
 10
41.723298
 20
68.657363
 30
0.0
  0
VERTEX
  5
258C
100
AcDbEntity
  8
STUD
100
AcDbVertex
100
AcDb2dVertex
 10
41.723298
 20
68.067158
 30
0.0
  0
VERTEX
  5
258D
100
AcDbEntity
  8
STUD
100
AcDbVertex
100
AcDb2dVertex
 10
41.760136
 20
68.088426
 30
0.0
  0
SEQEND
  5
258E
100
AcDbEntity
  8
STUD
  0
POLYLINE
  5
258F
100
AcDbEntity
  8
STUD
100
AcDb2dPolyline
 66
     1
 10
0.0
 20
0.0
 30
0.0
  0
VERTEX
  5
2590
100
AcDbEntity
  8
STUD
100
AcDbVertex
100
AcDb2dVertex
 10
42.917523
 20
66.862182
 30
0.0
  0
VERTEX
  5
2591
100
AcDbEntity
  8
STUD
100
AcDbVertex
100
AcDb2dVertex
 10
42.221165
 20
67.264225
 30
0.0
 42
0.57735
  0
VERTEX
  5
2592
100
AcDbEntity
  8
STUD
100
AcDbVertex
100
AcDb2dVertex
 10
41.846165
 20
67.047718
 30
0.0
  0
VERTEX
  5
2593
100
AcDbEntity
  8
STUD
100
AcDbVertex
100
AcDb2dVertex
 10
41.846165
 20
64.375069
 30
0.0
 42
0.160164
  0
VERTEX
  5
2594
100
AcDbEntity
  8
STUD
100
AcDbVertex
100
AcDb2dVertex
 10
41.894936
 20
64.226722
 30
0.0
  0
SEQEND
  5
2595
100
AcDbEntity
  8
STUD
  0
LINE
  5
259B
100
AcDbEntity
  8
STUD
100
AcDbLine
 10
41.894936
 20
66.870681
 30
0.0
 11
42.069162
 21
37.293798
 31
0.0
  0
LINE
  5
259C
100
AcDbEntity
  8
STUD
100
AcDbLine
 10
42.522883
 20
70.660343
 30
0.0
 11
42.525254
 21
69.109708
 31
0.0
  0
LINE
  5
259D
100
AcDbEntity
  8
STUD
100
AcDbLine
 10
42.561259
 20
70.682499
 30
0.0
 11
42.563562
 21
69.175768
 31
0.0
  0
LINE
  5
25A0
100
AcDbEntity
  8
FASTENER
100
AcDbLine
 10
56.723349
 20
66.134963
 30
0.0
 11
56.941074
 21
66.257827
 31
0.0
  0
LINE
  5
25A1
100
AcDbEntity
  8
FASTENER
100
AcDbLine
 10
56.832212
 20
66.321395
 30
0.0
 11
56.832212
 21
66.071395
 31
0.0
  0
ELLIPSE
  5
25A2
100
AcDbEntity
  8
FASTENER
100
AcDbEllipse
 10
56.832212
 20
66.196395
 30
0.0
 11
-0.0765465544619742
 21
-0.1325825214724724
 31
0.0
210
0.0
220
0.0
230
1.0
 40
0.57735
 41
0.0000000000002554
 42
6.283185307179856
  0
POLYLINE
  5
25B4
100
AcDbEntity
  8
STEEL
100
AcDb2dPolyline
 66
     1
 10
0.0
 20
0.0
 30
0.0
 70
     1
  0
VERTEX
  5
25C1
100
AcDbEntity
  8
STEEL
100
AcDbVertex
100
AcDb2dVertex
 10
60.246124
 20
76.326518
 30
0.0
  0
VERTEX
  5
25C0
100
AcDbEntity
  8
STEEL
100
AcDbVertex
100
AcDb2dVertex
 10
64.804451
 20
77.965685
 30
0.0
  0
VERTEX
  5
25BC
100
AcDbEntity
  8
STEEL
100
AcDbVertex
100
AcDb2dVertex
 10
62.55018
 20
76.664181
 30
0.0
  0
VERTEX
  5
25B5
100
AcDbEntity
  8
STEEL
100
AcDbVertex
100
AcDb2dVertex
 10
62.620324
 20
75.306168
 30
0.0
  0
VERTEX
  5
25B6
100
AcDbEntity
  8
STEEL
100
AcDbVertex
100
AcDb2dVertex
 10
45.252256
 20
38.104169
 30
0.0
  0
VERTEX
  5
25B7
100
AcDbEntity
  8
STEEL
100
AcDbVertex
100
AcDb2dVertex
 10
42.534875
 20
39.375326
 30
0.0
  0
VERTEX
  5
25B8
100
AcDbEntity
  8
STEEL
100
AcDbVertex
100
AcDb2dVertex
 10
62.294419
 20
81.615782
 30
0.0
  0
VERTEX
  5
25B9
100
AcDbEntity
  8
STEEL
100
AcDbVertex
100
AcDb2dVertex
 10
62.500396
 20
77.628022
 30
0.0
  0
SEQEND
  5
25BA
100
AcDbEntity
  8
STEEL
  0
SPLINE
  5
25C2
100
AcDbEntity
  8
D-TEXT
100
AcDbSpline
210
0.0
220
0.0
230
-1.0
 70
     8
 71
     3
 72
     8
 73
     4
 74
     0
 42
0.0000001
 43
0.0000001
 40
48.57467065765677
 40
48.57467065765677
 40
48.57467065765677
 40
48.57467065765677
 40
50.09725532790472
 40
50.09725532790472
 40
50.09725532790472
 40
50.09725532790472
 10
64.35150175064459
 20
50.49411231087157
 30
0.0
 10
64.8269103756655
 20
49.96888740060132
 30
0.0
 10
65.32001341518569
 20
49.43831692187188
 30
0.0
 10
66.49674582759073
 20
48.16649286257768
 30
0.0
  0
POLYLINE
  5
25C3
100
AcDbEntity
  8
D-TEXT
100
AcDb2dPolyline
 66
     1
 10
0.0
 20
0.0
 30
0.0
  0
VERTEX
  5
25CB
100
AcDbEntity
  8
D-TEXT
100
AcDbVertex
100
AcDb2dVertex
 10
61.643251
 20
53.336388
 30
0.0
  0
VERTEX
  5
25C4
100
AcDbEntity
  8
D-TEXT
100
AcDbVertex
100
AcDb2dVertex
 10
63.76856
 20
51.146537
 30
0.0
  0
VERTEX
  5
25C5
100
AcDbEntity
  8
D-TEXT
100
AcDbVertex
100
AcDb2dVertex
 10
61.650449
 20
49.923645
 30
0.0
  0
VERTEX
  5
25C6
100
AcDbEntity
  8
D-TEXT
100
AcDbVertex
100
AcDb2dVertex
 10
66.208776
 20
51.562812
 30
0.0
  0
VERTEX
  5
25C7
100
AcDbEntity
  8
D-TEXT
100
AcDbVertex
100
AcDb2dVertex
 10
64.340525
 20
50.484177
 30
0.0
  0
SEQEND
  5
25C8
100
AcDbEntity
  8
D-TEXT
  0
LINE
  5
25D5
100
AcDbEntity
  8
STUD
100
AcDbLine
 10
55.837562
 20
60.777649
 30
0.0
 11
55.925569
 21
45.293798
 31
0.0
  0
LINE
  5
25D6
100
AcDbEntity
  8
STUD
100
AcDbLine
 10
53.69061
 20
56.178928
 30
0.0
 11
53.795105
 21
45.644317
 31
0.0
  0
LINE
  5
25D7
100
AcDbEntity
  8
STUD
100
AcDbLine
 10
54.602489
 20
58.13215
 30
0.0
 11
54.694607
 21
46.670084
 31
0.0
  0
LINE
  5
25D8
100
AcDbEntity
  8
STUD
100
AcDbLine
 10
53.655796
 20
56.104355
 30
0.0
 11
53.760505
 21
45.624341
 31
0.0
  0
LINE
  5
25D9
100
AcDbEntity
  8
STUD
100
AcDbLine
 10
53.200853
 20
62.176245
 30
0.0
 11
53.048405
 21
77.144532
 31
0.0
  0
LINE
  5
25DA
100
AcDbEntity
  8
STUD
100
AcDbLine
 10
57.66349
 20
71.716131
 30
0.0
 11
57.6527
 21
76.079841
 31
0.0
  0
LINE
  5
25DB
100
AcDbEntity
  8
STUD
100
AcDbLine
 10
56.239331
 20
75.208263
 30
0.0
 11
56.276037
 21
68.750141
 31
0.0
  0
LEADER
  5
25DC
100
AcDbEntity
  8
D-TEXT
  6
CONTINUOUS
100
AcDbLeader
  3
LEADER
 72
     1
 73
     0
 40
3.0
 41
34.896552
 76
     3
 10
39.993203
 20
39.048405
 30
0.0
 10
36.115136
 20
42.401891
 30
0.0
 10
31.602719
 20
42.401891
 30
0.0
 77
   256
  0
MTEXT
  5
25DD
100
AcDbEntity
  8
D-TEXT
  6
CONTINUOUS
100
AcDbMText
 10
30.602719
 20
42.401891
 30
0.0
 40
1.5
 41
0.0
 71
     6
 72
     1
  1
{HOLD DOWN MAY BE }\P{LOCATED ON}{ OPPOSITE}\P{ SIDE OF DBL. STUD}
  7
ARCH
  0
MTEXT
  5
25DE
100
AcDbEntity
  8
D-TEXT
100
AcDbMText
 10
35.542482
 20
71.021959
 30
0.0
 40
1.5
 41
0.0
 71
     6
 72
     1
  1
{MULTIPLE MEMBERS AS}\P{REQUIRED AT ENDS}
  7
ARCH
  0
LEADER
  5
25DF
100
AcDbEntity
  8
D-TEXT
100
AcDbLeader
  3
LEADER
 72
     1
 73
     0
 40
2.0
 41
18.827586
 76
     3
 10
39.943794
 20
69.563376
 30
0.0
 10
36.975495
 20
71.021959
 30
0.0
 10
36.10947
 20
71.021959
 30
0.0
 77
   256
1001
ACAD
1000
DSTYLE
1002
{
1070
    77
1070
     0
1002
}
  0
LEADER
  5
25E0
100
AcDbEntity
  8
D-TEXT
  6
CONTINUOUS
100
AcDbLeader
  3
LEADER
 72
     1
 73
     0
 74
     0
 40
3.0
 41
11.724138
 76
     3
 10
57.533001
 20
66.031931
 30
0.0
 10
60.839115
 20
64.242906
 30
0.0
 10
63.929612
 20
64.317449
 30
0.0
 77
   256
  0
MTEXT
  5
25E1
100
AcDbEntity
  8
D-TEXT
  6
CONTINUOUS
100
AcDbMText
 10
64.929612
 20
64.317449
 30
0.0
 40
1.5
 41
0.0
 71
     4
 72
     1
  1
SCREW STRAP\PTO EACH STUD
  7
ARCH
  0
LINE
  5
2602
100
AcDbEntity
  8
D-TEXT
  6
CONTINUOUS
100
AcDbLine
 10
41.195547
 20
38.46377
 30
0.0
 11
42.065228
 21
37.961659
 31
0.0
  0
MTEXT
  5
2688
100
AcDbEntity
  8
LINK
100
AcDbMText
 10
-13.979979
 20
3.461831
 30
0.0
 40
2.0
 41
0.0
 71
     4
 72
     1
  1
BACK\PBUTTON
  7
ARCH
1001
PE_URL
1000
6020-010.dwf
  0
LEADER
  5
2689
100
AcDbEntity
  8
LINK
100
AcDbLeader
  3
LEADER
 72
     1
 73
     0
 74
     0
 40
5.333333
 41
11.655172
 76
     7
 10
-0.472645
 20
10.033177
 30
0.0
 10
-7.734952
 20
12.848867
 30
0.0
 10
-15.193539
 20
13.224292
 30
0.0
 10
-17.090899
 20
12.223158
 30
0.0
 10
-19.464625
 20
8.415287
 30
0.0
 10
-18.63901
 20
4.289264
 30
0.0
 10
-14.285763
 20
3.38904
 30
0.0
 77
   256
1001
PE_URL
1000
6020-010.dwf
  0
TEXT
  5
2AA3
100
AcDbEntity
  8
LINK
 62
     1
100
AcDbText
 10
-21.82204
 20
23.008004
 30
0.0
 40
1.5
  1
drawing list
  7
BLOCK
 72
     1
 11
-14.04
 21
23.008004
 31
0.0
100
AcDbText
1001
PE_URL
1000
Cemco_drawings.htm
  0
TEXT
  5
2AA4
100
AcDbEntity
  8
LINK
 62
     1
100
AcDbText
 10
-16.66263
 20
11.008004
 30
0.0
 40
1.5
  1
home
  7
BLOCK
 72
     1
 11
-14.04
 21
11.008004
 31
0.0
100
AcDbText
1001
PE_URL
1000
Cemco_drawings.htm
  0
TEXT
  5
2AA5
100
AcDbEntity
  8
LINK
 62
     1
100
AcDbText
 10
-26.371285
 20
17.008004
 30
0.0
 40
1.5
  1
Assembly drawing 10
  7
BLOCK
 72
     1
 11
-14.04
 21
17.008004
 31
0.0
100
AcDbText
1001
PE_URL
1000
6020-010.dwf
  0
TEXT
  5
2AA6
100
AcDbEntity
  8
LINK
 62
     1
100
AcDbText
 10
-25.718985
 20
14.008004
 30
0.0
 40
1.5
  1
Cemco drawing list
  7
BLOCK
 72
     1
 11
-14.04
 21
14.008004
 31
0.0
100
AcDbText
1001
PE_URL
1000
Cemco_drawings.htm
  0
TEXT
  5
2AB5
100
AcDbEntity
  8
LINK
 62
     1
100
AcDbText
 10
-25.727412
 20
20.008004
 30
0.0
 40
1.5
  1
Assembly drawing 9
  7
BLOCK
 72
     1
 11
-14.04
 21
20.008004
 31
0.0
100
AcDbText
1001
PE_URL
1000
Cemco_drawings.htm
  0
INSERT
  5
2ABC
100
AcDbEntity
  8
D-TEXT
100
AcDbBlockReference
 66
     1
  2
DETAIL_TITLE
 10
0.0
 20
0.0
 30
0.0
 41
12.0
 42
12.0
 43
12.0
1001
PE_URL
1000
6020-010.dwf
  0
ATTRIB
  5
2ABD
100
AcDbEntity
  8
D-TEXT
100
AcDbText
 10
13.962231
 20
7.801712
 30
0.0
 40
3.0
  1
SHEAR WALL HOLD DOWN AT CROSS BRACE
  7
BLOCK
100
AcDbAttribute
  2
DETAIL_DISCRIPTION
 70
     0
  0
ATTRIB
  5
2ABE
100
AcDbEntity
  8
D-TEXT
100
AcDbText
 10
1.356642
 20
4.731115
 30
0.0
 40
3.0
  1
D-11
  7
BLD
 72
     1
 11
6.231115
 21
6.231115
 31
0.0
100
AcDbAttribute
  2
DETAIL_NO
 70
     0
 74
     2
  0
ATTRIB
  5
2ABF
100
AcDbEntity
  8
D-TEXT
100
AcDbText
 10
13.962231
 20
2.064588
 30
0.0
 40
2.25
  1
N. T. Scale 1" = 1'0"
  7
BLOCK
100
AcDbAttribute
  2
SCALE
 70
     0
  0
SEQEND
  5
2AC0
100
AcDbEntity
  8
D-TEXT
  0
POLYLINE
  5
2ACF
100
AcDbEntity
  8
D-TEXT
100
AcDb2dPolyline
 66
     1
 10
0.0
 20
0.0
 30
0.0
 40
0.625
 41
0.625
  0
VERTEX
  5
2AD0
100
AcDbEntity
  8
D-TEXT
100
AcDbVertex
100
AcDb2dVertex
 10
95.16
 20
6.231115
 30
0.0
  0
VERTEX
  5
2AD1
100
AcDbEntity
  8
D-TEXT
100
AcDbVertex
100
AcDb2dVertex
 10
105.113812
 20
6.231115
 30
0.0
  0
SEQEND
  5
2AD2
100
AcDbEntity
  8
D-TEXT
  0
POLYLINE
  5
2ADF
100
AcDbEntity
  8
LAYOUT
  6
CONTINUOUS
100
AcDb2dPolyline
 66
     1
 10
0.0
 20
0.0
 30
0.0
 70
     1
  0
VERTEX
  5
2AE0
100
AcDbEntity
  8
LAYOUT
  6
CONTINUOUS
100
AcDbVertex
100
AcDb2dVertex
 10
0.0
 20
0.0
 30
0.0
  0
VERTEX
  5
2AE1
100
AcDbEntity
  8
LAYOUT
  6
CONTINUOUS
100
AcDbVertex
100
AcDb2dVertex
 10
123.24
 20
0.0
 30
0.0
  0
VERTEX
  5
2AE2
100
AcDbEntity
  8
LAYOUT
  6
CONTINUOUS
100
AcDbVertex
100
AcDb2dVertex
 10
123.24
 20
95.16
 30
0.0
  0
VERTEX
  5
2AE3
100
AcDbEntity
  8
LAYOUT
  6
CONTINUOUS
100
AcDbVertex
100
AcDb2dVertex
 10
95.16
 20
95.16
 30
0.0
  0
VERTEX
  5
2AE4
100
AcDbEntity
  8
LAYOUT
  6
CONTINUOUS
100
AcDbVertex
100
AcDb2dVertex
 10
95.16
 20
123.24
 30
0.0
  0
VERTEX
  5
2AE5
100
AcDbEntity
  8
LAYOUT
  6
CONTINUOUS
100
AcDbVertex
100
AcDb2dVertex
 10
0.0
 20
123.24
 30
0.0
  0
SEQEND
  5
2AE6
100
AcDbEntity
  8
LAYOUT
  6
CONTINUOUS
  0
TEXT
  5
2B5E
100
AcDbEntity
  8
LINK
  6
CONTINUOUS
100
AcDbText
 10
-24.791691
 20
0.403298
 30
0.0
 40
3.0
  1
12
  7
BLOCK
 11
-24.791691
 21
0.403298
 31
0.0
100
AcDbText
 73
     1
  0
TEXT
  5
2B6C
100
AcDbEntity
  8
LINK
 62
     1
100
AcDbText
 10
-22.516475
 20
29.008004
 30
0.0
 40
1.5
  1
drawing D-11b
  7
BLOCK
 72
     1
 11
-14.04
 21
29.008004
 31
0.0
100
AcDbText
1001
PE_URL
1000
6020-011_b.dwf
  0
POLYLINE
  5
2B9D
100
AcDbEntity
  8
_KTI_CONTROL
 60
     1
100
AcDb3dPolyline
 66
     1
 10
0.0
 20
0.0
 30
0.0
 70
     8
1001
_KTI_ARCHT
1070
 12000
1000
ENVIRONMENT
1070
 10003
1000
6020-011
1070
 20000
1000
standard
1070
 20001
1000
f:\archt
1070
 20003
1000
j:\archt
1070
 20002
1000
f:\archt\tmp
1070
 20004
1002
{
1000
f:\archt\blks
1000
f:\archt\blks3d
1000
h:\archt\blks
1000
h:\archt\blks3d
1000
j:\archt\blks
1000
j:\archt\blks3d
1002
}
1070
 20005
1002
{
1000
f:\archt\slds
1002
}
1070
 20006
1002
{
1000
f:\archt\dclswin
1002
}
1070
 20007
1002
{
1000
f:\archt\docs
1002
}
1070
 20008
1002
{
1000
f:\archt\help
1002
}
  0
VERTEX
  5
2B9E
100
AcDbEntity
  8
_KTI_CONTROL
100
AcDbVertex
100
AcDb3dPolylineVertex
 10
0.0
 20
0.0
 30
0.0
 70
    32
  0
VERTEX
  5
2B9F
100
AcDbEntity
  8
_KTI_CONTROL
100
AcDbVertex
100
AcDb3dPolylineVertex
 10
0.0
 20
0.0
 30
0.0
 70
    32
  0
SEQEND
  5
2BA0
100
AcDbEntity
  8
_KTI_CONTROL
  0
POLYLINE
  5
2BA1
100
AcDbEntity
  8
_KTI_CONTROL
 60
     1
100
AcDb3dPolyline
 66
     1
 10
0.0
 20
0.0
 30
0.0
 70
     8
1001
_KTI_ARCHT
1070
 12000
1000
ARCHTVARS
1070
 10003
1000
6020-011
1070
 12030
1000
in
1070
 12020
1070
     1
1070
 12021
1070
     0
1070
 12070
1070
     0
1070
 12071
1070
     1
1070
 12907
1070
     0
1070
 12072
1070
     2
1070
 12073
1070
    48
1070
 12074
1070
     0
1070
 12080
1070
     1
1070
 12092
1070
     1
1070
 12096
1070
     0
1070
 12095
1070
     0
1070
 12081
1070
     1
1070
 12082
1070
     1
1070
 12083
1070
     1
1070
 12084
1070
     1
1070
 12085
1070
     0
1070
 12086
1070
     1
1070
 12087
1070
     0
1070
 12088
1070
     0
1070
 12097
1070
     1
1070
 12089
1070
     4
1070
 12090
1070
     6
1070
 12091
1070
     1
1070
 12045
1000
standard
1070
 12046
1000

1070
 12047
1000
standard
1070
 12048
1000

1070
 12049
1000

1070
 12093
1070
     1
1070
 12094
1070
     1
1070
 12908
1070
     0
1070
 12909
1070
     0
1070
 12911
1070
     0
1070
 12910
1070
     0
1070
 12912
1070
     0
1070
 12098
1070
   640
1070
 12060
1002
{
1000

1000

1000

1000

1002
}
1070
 12904
1002
{
1070
     0
1070
     0
1070
     0
1070
     0
1070
     0
1002
}
1070
 12905
1002
{
1040
0.0
1040
0.0
1040
0.0
1040
0.0
1040
0.0
1002
}
1070
 12906
1002
{
1000

1000

1000

1000

1000

1002
}
1070
 12040
1002
{
1002
}
  0
VERTEX
  5
2BA2
100
AcDbEntity
  8
_KTI_CONTROL
100
AcDbVertex
100
AcDb3dPolylineVertex
 10
0.0
 20
0.0
 30
0.0
 70
    32
  0
VERTEX
  5
2BA3
100
AcDbEntity
  8
_KTI_CONTROL
100
AcDbVertex
100
AcDb3dPolylineVertex
 10
0.0
 20
0.0
 30
0.0
 70
    32
  0
SEQEND
  5
2BA4
100
AcDbEntity
  8
_KTI_CONTROL
  0
ENDSEC
  0
SECTION
  2
OBJECTS
  0
DICTIONARY
  5
C
100
AcDbDictionary
  3
ACAD_GROUP
350
D
  3
ACAD_MLINESTYLE
350
E
  0
DICTIONARY
  5
D
102
{ACAD_REACTORS
330
C
102
}
100
AcDbDictionary
  3
STUD_3P625X1P625X96_WOLEENCHALA
350
2174
  0
DICTIONARY
  5
E
102
{ACAD_REACTORS
330
C
102
}
100
AcDbDictionary
  3
STANDARD
350
13
  0
GROUP
  5
2174
102
{ACAD_REACTORS
330
D
102
}
100
AcDbGroup
300
stud_3p625x1p625x96_woleEnchala
 70
     0
 71
     1
  0
MLINESTYLE
  5
13
102
{ACAD_REACTORS
330
E
102
}
100
AcDbMlineStyle
  2
STANDARD
 70
     0
  3

 62
     0
 51
90.0
 52
90.0
 71
     2
 49
0.5
 62
   256
  6
BYLAYER
 49
-0.5
 62
   256
  6
BYLAYER
  0
ENDSEC
  0
EOF
