  0
SECTION
  2
HEADER
  9
$ACADVER
  1
AC1012
  9
$DWGCODEPAGE
  3
ansi_1252
  9
$INSBASE
 10
0.0
 20
0.0
 30
0.0
  9
$EXTMIN
 10
-52.74257
 20
0.0
 30
0.0
  9
$EXTMAX
 10
190.32
 20
148.172328
 30
0.0
  9
$LIMMIN
 10
0.0
 20
0.0
  9
$LIMMAX
 10
179.615773
 20
212.321709
  9
$ORTHOMODE
 70
     0
  9
$REGENMODE
 70
     1
  9
$FILLMODE
 70
     1
  9
$QTEXTMODE
 70
     0
  9
$MIRRTEXT
 70
     1
  9
$DRAGMODE
 70
     2
  9
$LTSCALE
 40
12.0
  9
$OSMODE
 70
    39
  9
$ATTMODE
 70
     1
  9
$TEXTSIZE
 40
6.0
  9
$TRACEWID
 40
3.0
  9
$TEXTSTYLE
  7
RIGHT
  9
$CLAYER
  8
D-TEXT
  9
$CELTYPE
  6
BYLAYER
  9
$CECOLOR
 62
   256
  9
$CELTSCALE
 40
1.0
  9
$DELOBJ
 70
     1
  9
$DISPSILH
 70
     0
  9
$DIMSCALE
 40
16.0
  9
$DIMASZ
 40
0.1875
  9
$DIMEXO
 40
0.0625
  9
$DIMDLI
 40
0.375
  9
$DIMRND
 40
0.0
  9
$DIMDLE
 40
0.0
  9
$DIMEXE
 40
0.1875
  9
$DIMTP
 40
0.0
  9
$DIMTM
 40
0.0
  9
$DIMTXT
 40
0.125
  9
$DIMCEN
 40
0.1875
  9
$DIMTSZ
 40
0.0
  9
$DIMTOL
 70
     0
  9
$DIMLIM
 70
     0
  9
$DIMTIH
 70
     1
  9
$DIMTOH
 70
     1
  9
$DIMSE1
 70
     0
  9
$DIMSE2
 70
     0
  9
$DIMTAD
 70
     0
  9
$DIMZIN
 70
     0
  9
$DIMBLK
  1
OBLIQUE
  9
$DIMASO
 70
     1
  9
$DIMSHO
 70
     1
  9
$DIMPOST
  1

  9
$DIMAPOST
  1

  9
$DIMALT
 70
     0
  9
$DIMALTD
 70
     1
  9
$DIMALTF
 40
25.4
  9
$DIMLFAC
 40
1.0
  9
$DIMTOFL
 70
     0
  9
$DIMTVP
 40
0.0
  9
$DIMTIX
 70
     0
  9
$DIMSOXD
 70
     0
  9
$DIMSAH
 70
     1
  9
$DIMBLK1
  1
_OPEN90
  9
$DIMBLK2
  1
_OPEN90
  9
$DIMSTYLE
  2
LEADER
  9
$DIMCLRD
 70
     0
  9
$DIMCLRE
 70
     0
  9
$DIMCLRT
 70
     0
  9
$DIMTFAC
 40
1.0
  9
$DIMGAP
 40
0.125
  9
$DIMJUST
 70
     0
  9
$DIMSD1
 70
     0
  9
$DIMSD2
 70
     0
  9
$DIMTOLJ
 70
     0
  9
$DIMTZIN
 70
     0
  9
$DIMALTZ
 70
     0
  9
$DIMALTTZ
 70
     0
  9
$DIMFIT
 70
     1
  9
$DIMUPT
 70
     1
  9
$DIMUNIT
 70
     4
  9
$DIMDEC
 70
     4
  9
$DIMTDEC
 70
     2
  9
$DIMALTU
 70
     2
  9
$DIMALTTD
 70
     1
  9
$DIMTXSTY
  7
ARCH
  9
$DIMAUNIT
 70
     0
  9
$LUNITS
 70
     4
  9
$LUPREC
 70
     4
  9
$SKETCHINC
 40
12.0
  9
$FILLETRAD
 40
0.125
  9
$AUNITS
 70
     0
  9
$AUPREC
 70
     0
  9
$MENU
  1
.
  9
$ELEVATION
 40
0.0
  9
$PELEVATION
 40
0.0
  9
$THICKNESS
 40
0.0
  9
$LIMCHECK
 70
     0
  9
$BLIPMODE
 70
     1
  9
$CHAMFERA
 40
24.0
  9
$CHAMFERB
 40
24.0
  9
$CHAMFERC
 40
24.0
  9
$CHAMFERD
 40
0.785398
  9
$SKPOLY
 70
     0
  9
$TDCREATE
 40
2451085.175693518
  9
$TDUPDATE
 40
2451105.679036111
  9
$TDINDWG
 40
0.1316592593
  9
$TDUSRTIMER
 40
0.1316592593
  9
$USRTIMER
 70
     1
  9
$ANGBASE
 50
0.0
  9
$ANGDIR
 70
     0
  9
$PDMODE
 70
     0
  9
$PDSIZE
 40
0.0
  9
$PLINEWID
 40
0.125
  9
$COORDS
 70
     2
  9
$SPLFRAME
 70
     0
  9
$SPLINETYPE
 70
     6
  9
$SPLINESEGS
 70
     8
  9
$ATTDIA
 70
     0
  9
$ATTREQ
 70
     1
  9
$HANDLING
 70
     1
  9
$HANDSEED
  5
7032
  9
$SURFTAB1
 70
     6
  9
$SURFTAB2
 70
     6
  9
$SURFTYPE
 70
     6
  9
$SURFU
 70
     6
  9
$SURFV
 70
     6
  9
$UCSNAME
  2

  9
$UCSORG
 10
0.0
 20
0.0
 30
0.0
  9
$UCSXDIR
 10
1.0
 20
0.0
 30
0.0
  9
$UCSYDIR
 10
0.0
 20
1.0
 30
0.0
  9
$PUCSNAME
  2

  9
$PUCSORG
 10
0.0
 20
0.0
 30
0.0
  9
$PUCSXDIR
 10
1.0
 20
0.0
 30
0.0
  9
$PUCSYDIR
 10
0.0
 20
1.0
 30
0.0
  9
$USERI1
 70
     0
  9
$USERI2
 70
     0
  9
$USERI3
 70
     0
  9
$USERI4
 70
     0
  9
$USERI5
 70
     0
  9
$USERR1
 40
0.0
  9
$USERR2
 40
0.0
  9
$USERR3
 40
0.0
  9
$USERR4
 40
0.0
  9
$USERR5
 40
0.0
  9
$WORLDVIEW
 70
     1
  9
$SHADEDGE
 70
     3
  9
$SHADEDIF
 70
    70
  9
$TILEMODE
 70
     1
  9
$MAXACTVP
 70
    16
  9
$PINSBASE
 10
0.0
 20
0.0
 30
0.0
  9
$PLIMCHECK
 70
     0
  9
$PEXTMIN
 10
1.000000E+20
 20
1.000000E+20
 30
1.000000E+20
  9
$PEXTMAX
 10
-1.000000E+20
 20
-1.000000E+20
 30
-1.000000E+20
  9
$PLIMMIN
 10
0.0
 20
0.0
  9
$PLIMMAX
 10
12.0
 20
9.0
  9
$UNITMODE
 70
     0
  9
$VISRETAIN
 70
     0
  9
$PLINEGEN
 70
     0
  9
$PSLTSCALE
 70
     1
  9
$TREEDEPTH
 70
  3020
  9
$PICKSTYLE
 70
     1
  9
$CMLSTYLE
  2
STANDARD
  9
$CMLJUST
 70
     0
  9
$CMLSCALE
 40
1.0
  9
$SAVEIMAGES
 70
     0
  0
ENDSEC
  0
SECTION
  2
CLASSES
  0
ENDSEC
  0
SECTION
  2
TABLES
  0
TABLE
  2
VPORT
  5
8
100
AcDbSymbolTable
 70
     3
  0
VPORT
  5
7031
100
AcDbSymbolTableRecord
100
AcDbViewportTableRecord
  2
*ACTIVE
 70
     0
 10
0.0
 20
0.0
 11
1.0
 21
1.0
 12
68.788715
 22
74.573829
 13
0.0
 23
0.0
 14
0.433013
 24
0.125
 15
20.78461
 25
6.0
 16
0.0
 26
0.0
 36
1.0
 17
0.0
 27
0.0
 37
0.0
 40
149.147658
 41
1.629677
 42
50.0
 43
0.0
 44
0.0
 50
0.0
 51
0.0
 71
     0
 72
   100
 73
     1
 74
     0
 75
     0
 76
     0
 77
     1
 78
     2
  0
ENDTAB
  0
TABLE
  2
LTYPE
  5
5
100
AcDbSymbolTable
 70
     3
  0
LTYPE
  5
14
100
AcDbSymbolTableRecord
100
AcDbLinetypeTableRecord
  2
BYBLOCK
 70
     0
  3

 72
    65
 73
     0
 40
0.0
  0
LTYPE
  5
15
100
AcDbSymbolTableRecord
100
AcDbLinetypeTableRecord
  2
BYLAYER
 70
     0
  3

 72
    65
 73
     0
 40
0.0
  0
LTYPE
  5
16
100
AcDbSymbolTableRecord
100
AcDbLinetypeTableRecord
  2
CONTINUOUS
 70
    64
  3
Solid line
 72
    65
 73
     0
 40
0.0
  0
LTYPE
  5
20
100
AcDbSymbolTableRecord
100
AcDbLinetypeTableRecord
  2
CENTER
 70
    64
  3
____ _ ____ _ ____ _ ____ _ ____ _ ____ _ ____ 
 72
    65
 73
     4
 40
2.0
 49
1.25
 74
     0
 49
-0.25
 74
     0
 49
0.25
 74
     0
 49
-0.25
 74
     0
  0
LTYPE
  5
25
100
AcDbSymbolTableRecord
100
AcDbLinetypeTableRecord
  2
HIDDEN
 70
    64
  3
__ __ __ __ __ __ __ __ __ __ __ __ __ __ __ __
 72
    65
 73
     2
 40
0.375
 49
0.25
 74
     0
 49
-0.125
 74
     0
  0
ENDTAB
  0
TABLE
  2
LAYER
  5
2
100
AcDbSymbolTable
 70
    14
  0
LAYER
  5
F
100
AcDbSymbolTableRecord
100
AcDbLayerTableRecord
  2
0
 70
     0
 62
     7
  6
CONTINUOUS
  0
LAYER
  5
2F
100
AcDbSymbolTableRecord
100
AcDbLayerTableRecord
  2
STUD
 70
    64
 62
     5
  6
CONTINUOUS
  0
LAYER
  5
30
100
AcDbSymbolTableRecord
100
AcDbLayerTableRecord
  2
TRACK
 70
    64
 62
     1
  6
CONTINUOUS
  0
LAYER
  5
31
100
AcDbSymbolTableRecord
100
AcDbLayerTableRecord
  2
BLACK_IRON
 70
    64
 62
   172
  6
CONTINUOUS
  0
LAYER
  5
34
100
AcDbSymbolTableRecord
100
AcDbLayerTableRecord
  2
STEEL
 70
    64
 62
   144
  6
CONTINUOUS
  0
LAYER
  5
36
100
AcDbSymbolTableRecord
100
AcDbLayerTableRecord
  2
TIE_WIRE
 70
    64
 62
   134
  6
CONTINUOUS
  0
LAYER
  5
37
100
AcDbSymbolTableRecord
100
AcDbLayerTableRecord
  2
FASTENER
 70
    64
 62
     7
  6
CONTINUOUS
  0
LAYER
  5
39
100
AcDbSymbolTableRecord
100
AcDbLayerTableRecord
  2
CLIP
 70
    64
 62
     6
  6
CONTINUOUS
  0
LAYER
  5
3B
100
AcDbSymbolTableRecord
100
AcDbLayerTableRecord
  2
_KTI_CONTROL
 70
     5
 62
     7
  6
CONTINUOUS
  0
LAYER
  5
47
100
AcDbSymbolTableRecord
100
AcDbLayerTableRecord
  2
TEXT
 70
    64
 62
    94
  6
CONTINUOUS
  0
LAYER
  5
5D12
100
AcDbSymbolTableRecord
100
AcDbLayerTableRecord
  2
DETAIL_NO
 70
    64
 62
   174
  6
CONTINUOUS
  0
LAYER
  5
6A48
100
AcDbSymbolTableRecord
100
AcDbLayerTableRecord
  2
LINK
 70
    64
 62
     7
  6
CONTINUOUS
  0
LAYER
  5
6F53
100
AcDbSymbolTableRecord
100
AcDbLayerTableRecord
  2
D-TEXT
 70
    64
 62
    94
  6
CONTINUOUS
  0
LAYER
  5
6F54
100
AcDbSymbolTableRecord
100
AcDbLayerTableRecord
  2
LAYOUT
 70
    65
 62
    52
  6
CONTINUOUS
  0
ENDTAB
  0
TABLE
  2
STYLE
  5
3
100
AcDbSymbolTable
 70
     5
  0
STYLE
  5
10
100
AcDbSymbolTableRecord
100
AcDbTextStyleTableRecord
  2
STANDARD
 70
     0
 40
0.0
 41
1.0
 50
0.0
 71
     0
 42
12.0
  3
txt
  4

  0
STYLE
  5
72
100
AcDbSymbolTableRecord
100
AcDbTextStyleTableRecord
  2
ARCH
 70
    64
 40
1.0
 41
1.0
 50
0.0
 71
     0
 42
12.0
  3
F:\r13\com\fonts\Architxt.shx
  4

  0
STYLE
  5
6193
100
AcDbSymbolTableRecord
100
AcDbTextStyleTableRecord
  2
BLOCK
 70
    64
 40
0.0
 41
1.0
 50
0.0
 71
     0
 42
2.0
  3
F:\r13\com\fonts\monos.ttf
  4

  0
STYLE
  5
6A77
100
AcDbSymbolTableRecord
100
AcDbTextStyleTableRecord
  2
RIGHT
 70
    64
 40
0.0
 41
1.0
 50
30.0
 71
     0
 42
6.0
  3
F:\r13\com\fonts\Architxt.shx
  4

  0
STYLE
  5
6F5D
100
AcDbSymbolTableRecord
100
AcDbTextStyleTableRecord
  2
BLD
 70
    64
 40
0.0
 41
1.0
 50
0.0
 71
     0
 42
1.5
  3
F:\r13\com\fonts\monos.ttf
  4

  0
ENDTAB
  0
TABLE
  2
VIEW
  5
6
100
AcDbSymbolTable
 70
     1
  0
VIEW
  5
62F2
100
AcDbSymbolTableRecord
100
AcDbViewTableRecord
  2
ALL
 70
     0
 40
209.757022
 10
90.456958
 20
104.878511
 41
180.913916
 11
0.0
 21
0.0
 31
1.0
 12
0.0
 22
0.0
 32
0.0
 42
50.0
 43
0.0
 44
0.0
 50
0.0
 71
     0
  0
ENDTAB
  0
TABLE
  2
UCS
  5
7
100
AcDbSymbolTable
 70
     0
  0
ENDTAB
  0
TABLE
  2
APPID
  5
9
100
AcDbSymbolTable
 70
     5
  0
APPID
  5
11
100
AcDbSymbolTableRecord
100
AcDbRegAppTableRecord
  2
ACAD
 70
     0
  0
APPID
  5
3A
100
AcDbSymbolTableRecord
100
AcDbRegAppTableRecord
  2
_KTI_ARCHT
 70
     0
  0
APPID
  5
280D
100
AcDbSymbolTableRecord
100
AcDbRegAppTableRecord
  2
AVE_FINISH
 70
     0
  0
APPID
  5
280E
100
AcDbSymbolTableRecord
100
AcDbRegAppTableRecord
  2
ADE
 70
     0
  0
APPID
  5
6318
100
AcDbSymbolTableRecord
100
AcDbRegAppTableRecord
  2
PE_URL
 70
     0
  0
ENDTAB
  0
TABLE
  2
DIMSTYLE
  5
A
100
AcDbSymbolTable
 70
     2
  0
DIMSTYLE
105
1D
100
AcDbSymbolTableRecord
100
AcDbDimStyleTableRecord
  2
STANDARD
 70
     0
  3

  4

  5

  6

  7

 40
1.0
 41
0.18
 42
0.0625
 43
0.38
 44
0.18
 45
0.0
 46
0.0
 47
0.0
 48
0.0
140
0.18
141
0.09
142
0.0
143
25.4
144
1.0
145
0.0
146
1.0
147
0.09
 71
     0
 72
     0
 73
     1
 74
     1
 75
     0
 76
     0
 77
     0
 78
     0
170
     0
171
     2
172
     0
173
     0
174
     0
175
     0
176
     0
177
     0
178
     0
270
     2
271
     4
272
     4
273
     2
274
     2
340
10
275
     0
280
     0
281
     0
282
     0
283
     1
284
     0
285
     0
286
     0
287
     3
288
     0
  0
DIMSTYLE
105
18D3
100
AcDbSymbolTableRecord
100
AcDbDimStyleTableRecord
  2
LEADER
 70
     0
  3

  4

  5
OBLIQUE
  6
_OPEN90
  7
_OPEN90
 40
16.0
 41
0.1875
 42
0.0625
 43
0.375
 44
0.1875
 45
0.0
 46
0.0
 47
0.0
 48
0.0
140
0.125
141
0.1875
142
0.0
143
25.4
144
1.0
145
0.0
146
1.0
147
0.125
 71
     0
 72
     0
 73
     1
 74
     1
 75
     0
 76
     0
 77
     0
 78
     0
170
     0
171
     1
172
     0
173
     1
174
     0
175
     0
176
     0
177
     0
178
     0
270
     4
271
     4
272
     2
273
     2
274
     1
340
72
275
     0
280
     0
281
     0
282
     0
283
     0
284
     0
285
     0
286
     0
287
     1
288
     1
  0
ENDTAB
  0
TABLE
  2
BLOCK_RECORD
  5
1
100
AcDbSymbolTable
 70
     3
  0
BLOCK_RECORD
  5
1A
100
AcDbSymbolTableRecord
100
AcDbBlockTableRecord
  2
*MODEL_SPACE
  0
BLOCK_RECORD
  5
17
100
AcDbSymbolTableRecord
100
AcDbBlockTableRecord
  2
*PAPER_SPACE
  0
BLOCK_RECORD
  5
4C7A
100
AcDbSymbolTableRecord
100
AcDbBlockTableRecord
  2
CEMCO_BLANK
  0
BLOCK_RECORD
  5
4C85
100
AcDbSymbolTableRecord
100
AcDbBlockTableRecord
  2
DETAIL_MARK
  0
BLOCK_RECORD
  5
6F41
100
AcDbSymbolTableRecord
100
AcDbBlockTableRecord
  2
DETAIL_TITLE
  0
ENDTAB
  0
ENDSEC
  0
SECTION
  2
BLOCKS
  0
BLOCK
  5
1B
100
AcDbEntity
  8
0
100
AcDbBlockBegin
  2
*MODEL_SPACE
 70
     0
 10
0.0
 20
0.0
 30
0.0
  3
*MODEL_SPACE
  1

  0
ENDBLK
  5
1C
100
AcDbEntity
  8
0
100
AcDbBlockEnd
  0
BLOCK
  5
18
100
AcDbEntity
 67
     1
  8
0
100
AcDbBlockBegin
  2
*PAPER_SPACE
 70
     0
 10
0.0
 20
0.0
 30
0.0
  3
*PAPER_SPACE
  1

  0
ENDBLK
  5
19
100
AcDbEntity
 67
     1
  8
0
100
AcDbBlockEnd
  0
BLOCK
  5
4C83
100
AcDbEntity
  8
0
100
AcDbBlockBegin
  2
CEMCO_BLANK
 70
     0
 10
0.0
 20
0.0
 30
0.0
  3
CEMCO_BLANK
  1

  0
POLYLINE
  5
4C7B
100
AcDbEntity
  8
_KTI_CONTROL
 60
     1
100
AcDb3dPolyline
 66
     1
 10
0.0
 20
0.0
 30
0.0
 70
     8
1001
_KTI_ARCHT
1070
 12000
1000
ENVIRONMENT
1070
 10003
1000
cemco_blank
1070
 20000
1000
standard
1070
 20001
1000
f:\archt
1070
 20003
1000
h:\archt
1070
 20002
1000
f:\archt\tmp
1070
 20004
1002
{
1000
f:\archt\blks
1000
f:\archt\blks3d
1000
h:\archt\blks
1000
h:\archt\blks3d
1002
}
1070
 20005
1002
{
1000
f:\archt\slds
1002
}
1070
 20006
1002
{
1000
f:\archt\dclswin
1002
}
1070
 20007
1002
{
1000
f:\archt\docs
1002
}
1070
 20008
1002
{
1000
f:\archt\help
1002
}
  0
VERTEX
  5
4C7C
100
AcDbEntity
  8
_KTI_CONTROL
100
AcDbVertex
100
AcDb3dPolylineVertex
 10
0.0
 20
0.0
 30
0.0
 70
    32
  0
VERTEX
  5
4C7D
100
AcDbEntity
  8
_KTI_CONTROL
100
AcDbVertex
100
AcDb3dPolylineVertex
 10
0.0
 20
0.0
 30
0.0
 70
    32
  0
SEQEND
  5
4C7E
100
AcDbEntity
  8
_KTI_CONTROL
  0
POLYLINE
  5
4C7F
100
AcDbEntity
  8
_KTI_CONTROL
 60
     1
100
AcDb3dPolyline
 66
     1
 10
0.0
 20
0.0
 30
0.0
 70
     8
1001
_KTI_ARCHT
1070
 12000
1000
ARCHTVARS
1070
 10003
1000
cemco_blank
1070
 12030
1000
in
1070
 12020
1070
     1
1070
 12021
1070
     0
1070
 12070
1070
     0
1070
 12071
1070
     1
1070
 12907
1070
     0
1070
 12072
1070
     2
1070
 12073
1070
    48
1070
 12074
1070
     0
1070
 12080
1070
     1
1070
 12092
1070
     1
1070
 12096
1070
     0
1070
 12095
1070
     0
1070
 12081
1070
     1
1070
 12082
1070
     1
1070
 12083
1070
     1
1070
 12084
1070
     1
1070
 12085
1070
     0
1070
 12086
1070
     1
1070
 12087
1070
     0
1070
 12088
1070
     0
1070
 12097
1070
     1
1070
 12089
1070
     4
1070
 12090
1070
     6
1070
 12091
1070
     1
1070
 12045
1000
standard
1070
 12046
1000

1070
 12047
1000
standard
1070
 12048
1000

1070
 12049
1000

1070
 12093
1070
     1
1070
 12094
1070
     1
1070
 12908
1070
     0
1070
 12909
1070
     0
1070
 12911
1070
     0
1070
 12910
1070
     0
1070
 12912
1070
     0
1070
 12098
1070
   640
1070
 12060
1002
{
1000

1000

1000

1000

1002
}
1070
 12904
1002
{
1070
     0
1070
     0
1070
     0
1070
     0
1070
     0
1002
}
1070
 12905
1002
{
1040
0.0
1040
0.0
1040
0.0
1040
0.0
1040
0.0
1002
}
1070
 12906
1002
{
1000

1000

1000

1000

1000

1002
}
1070
 12040
1002
{
1002
}
  0
VERTEX
  5
4C80
100
AcDbEntity
  8
_KTI_CONTROL
100
AcDbVertex
100
AcDb3dPolylineVertex
 10
0.0
 20
0.0
 30
0.0
 70
    32
  0
VERTEX
  5
4C81
100
AcDbEntity
  8
_KTI_CONTROL
100
AcDbVertex
100
AcDb3dPolylineVertex
 10
0.0
 20
0.0
 30
0.0
 70
    32
  0
SEQEND
  5
4C82
100
AcDbEntity
  8
_KTI_CONTROL
  0
ENDBLK
  5
4C84
100
AcDbEntity
  8
0
100
AcDbBlockEnd
  0
BLOCK
  5
4C8A
100
AcDbEntity
  8
0
100
AcDbBlockBegin
  2
DETAIL_MARK
 70
    66
 10
0.0
 20
0.0
 30
0.0
  3
DETAIL_MARK
  1

  0
CIRCLE
  5
4C86
100
AcDbEntity
  8
0
100
AcDbCircle
 10
0.0
 20
0.0
 30
0.0
 40
4.937896
  0
LINE
  5
4C87
100
AcDbEntity
  8
0
100
AcDbLine
 10
-4.937896
 20
0.0
 30
0.0
 11
4.937896
 21
0.0
 31
0.0
  0
ATTDEF
  5
4C88
100
AcDbEntity
  8
0
100
AcDbText
 10
-0.655172
 20
0.965517
 30
0.0
 40
2.0
  1
#
  7
ARCH
 72
     1
 11
0.0
 21
0.0
 31
0.0
100
AcDbAttributeDefinition
  3
Enter detail #
  2
DETAIL_#
 70
     0
 74
     1
  0
ATTDEF
  5
4C89
100
AcDbEntity
  8
0
100
AcDbText
 10
-2.62069
 20
-2.784483
 30
0.0
 40
2.0
  1
S-5
  7
ARCH
 72
     1
 11
0.0
 21
-3.75
 31
0.0
100
AcDbAttributeDefinition
  3
Enter Detail page #
  2
DETAIL_PAGE
 70
     0
 74
     1
  0
ENDBLK
  5
4C8B
100
AcDbEntity
  8
0
100
AcDbBlockEnd
  0
BLOCK
  5
6F4A
100
AcDbEntity
  8
0
100
AcDbBlockBegin
  2
DETAIL_TITLE
 70
    66
 10
0.0
 20
0.0
 30
0.0
  3
DETAIL_TITLE
  1

  0
ATTDEF
  5
6F42
100
AcDbEntity
  8
D-TEXT
100
AcDbText
 10
1.163519
 20
0.650143
 30
0.0
 40
0.25
  1
TYP. 
  7
BLOCK
100
AcDbAttributeDefinition
  3
Enter the title of the detail
  2
DETAIL_DISCRIPTION
 70
     0
  0
POLYLINE
  5
6F43
100
AcDbEntity
  8
D-TEXT
100
AcDb2dPolyline
 66
     1
 10
0.0
 20
0.0
 30
0.0
 40
0.05
 41
0.05
  0
VERTEX
  5
6F44
100
AcDbEntity
  8
D-TEXT
100
AcDbVertex
100
AcDb2dVertex
 10
1.038519
 20
0.51926
 30
0.0
  0
VERTEX
  5
6F45
100
AcDbEntity
  8
D-TEXT
100
AcDbVertex
100
AcDb2dVertex
 10
7.93
 20
0.51926
 30
0.0
  0
SEQEND
  5
6F46
100
AcDbEntity
  8
D-TEXT
  0
ATTDEF
  5
6F47
100
AcDbEntity
  8
D-TEXT
100
AcDbText
 10
0.189467
 20
0.39426
 30
0.0
 40
0.25
  1
D-#
  7
BLD
 72
     1
 11
0.51926
 21
0.51926
 31
0.0
100
AcDbAttributeDefinition
  3
Enter the Detail number
  2
DETAIL_NO
 70
     0
 74
     2
  0
ATTDEF
  5
6F48
100
AcDbEntity
  8
D-TEXT
100
AcDbText
 10
1.163519
 20
0.172049
 30
0.0
 40
0.1875
  1
N. T. Scale 1-1/2" = 1'0"
  7
BLOCK
100
AcDbAttributeDefinition
  3
Type the defanition of scale
  2
SCALE
 70
     0
  0
CIRCLE
  5
6F49
100
AcDbEntity
  8
D-TEXT
100
AcDbCircle
 10
0.51926
 20
0.51926
 30
0.0
 40
0.51926
  0
ENDBLK
  5
6F4B
100
AcDbEntity
  8
0
100
AcDbBlockEnd
  0
ENDSEC
  0
SECTION
  2
ENTITIES
  0
LINE
  5
1460
100
AcDbEntity
  8
TRACK
100
AcDbLine
 10
131.511221
 20
78.857793
 30
0.0
 11
118.091008
 21
71.109629
 31
0.0
  0
LINE
  5
15B8
100
AcDbEntity
  8
STUD
100
AcDbLine
 10
88.594539
 20
54.119788
 30
0.0
 11
88.594539
 21
72.609539
 31
0.0
  0
LINE
  5
15BB
100
AcDbEntity
  8
STUD
100
AcDbLine
 10
84.235406
 20
53.63783
 30
0.0
 11
84.235406
 21
63.272376
 31
0.0
  0
LINE
  5
15CC
100
AcDbEntity
  8
STUD
100
AcDbLine
 10
98.091812
 20
61.746083
 30
0.0
 11
98.091812
 21
87.00191
 31
0.0
  0
LINE
  5
15CF
100
AcDbEntity
  8
STUD
100
AcDbLine
 10
102.450946
 20
62.148212
 30
0.0
 11
102.450946
 21
82.742799
 31
0.0
  0
LINE
  5
161C
100
AcDbEntity
  8
FASTENER
100
AcDbLine
 10
102.48602
 20
63.225508
 30
0.0
 11
102.450946
 21
63.246221
 31
0.0
  0
LINE
  5
161D
100
AcDbEntity
  8
FASTENER
100
AcDbLine
 10
102.450946
 20
63.330962
 30
0.0
 11
102.486641
 21
63.35157
 31
0.0
  0
ELLIPSE
  5
161E
100
AcDbEntity
  8
FASTENER
100
AcDbEllipse
 10
102.378387
 20
63.28907
 30
0.0
 11
0.153093108923944
 21
-0.0000000000000026
 31
0.0
210
0.0
220
0.0
230
1.0
 40
0.57735
 41
-1.077025098309525
 42
1.077025098309635
  0
LINE
  5
162B
100
AcDbEntity
  8
TRACK
100
AcDbLine
 10
85.661402
 20
54.399578
 30
0.0
 11
84.663395
 21
53.825301
 31
0.0
  0
LINE
  5
162C
100
AcDbEntity
  8
TRACK
100
AcDbLine
 10
58.773527
 20
35.311769
 30
0.0
 11
109.430754
 21
64.558732
 31
0.0
  0
LINE
  5
162D
100
AcDbEntity
  8
TRACK
100
AcDbLine
 10
109.430754
 20
66.149582
 30
0.0
 11
82.150953
 21
50.399582
 31
0.0
  0
LINE
  5
1731
100
AcDbEntity
  8
FASTENER
100
AcDbLine
 10
87.795576
 20
53.129399
 30
0.0
 11
88.013301
 21
53.252263
 31
0.0
  0
LINE
  5
1732
100
AcDbEntity
  8
FASTENER
100
AcDbLine
 10
87.904438
 20
53.315831
 30
0.0
 11
87.904438
 21
53.065831
 31
0.0
  0
ELLIPSE
  5
1733
100
AcDbEntity
  8
FASTENER
100
AcDbEllipse
 10
87.904438
 20
53.190831
 30
0.0
 11
-0.0765465544619742
 21
-0.1325825214724724
 31
0.0
210
0.0
220
0.0
230
1.0
 40
0.57735
 41
0.0000000000006143
 42
6.283185307180215
  0
LINE
  5
1734
100
AcDbEntity
  8
FASTENER
100
AcDbLine
 10
101.661736
 20
61.112311
 30
0.0
 11
101.879462
 21
61.235175
 31
0.0
  0
LINE
  5
1735
100
AcDbEntity
  8
FASTENER
100
AcDbLine
 10
101.770599
 20
61.298743
 30
0.0
 11
101.770599
 21
61.048743
 31
0.0
  0
ELLIPSE
  5
1736
100
AcDbEntity
  8
FASTENER
100
AcDbEllipse
 10
101.770599
 20
61.173743
 30
0.0
 11
-0.0765465544619743
 21
-0.1325825214724723
 31
0.0
210
0.0
220
0.0
230
1.0
 40
0.57735
 41
0.0000000000006153
 42
6.283185307180215
  0
LINE
  5
1758
100
AcDbEntity
  8
TRACK
100
AcDbLine
 10
131.476621
 20
78.877769
 30
0.0
 11
118.091008
 21
71.149582
 31
0.0
  0
LINE
  5
1759
100
AcDbEntity
  8
TRACK
100
AcDbLine
 10
109.430754
 20
66.109629
 30
0.0
 11
82.150953
 21
50.359629
 31
0.0
  0
POLYLINE
  5
17BE
100
AcDbEntity
  8
STUD
100
AcDb2dPolyline
 66
     1
 10
0.0
 20
0.0
 30
0.0
  0
VERTEX
  5
17BF
100
AcDbEntity
  8
STUD
100
AcDbVertex
100
AcDb2dVertex
 10
100.650265
 20
75.46473
 30
0.0
 42
0.392115
  0
VERTEX
  5
17C0
100
AcDbEntity
  8
STUD
100
AcDbVertex
100
AcDb2dVertex
 10
100.419256
 20
75.215452
 30
0.0
  0
VERTEX
  5
17C1
100
AcDbEntity
  8
STUD
100
AcDbVertex
100
AcDb2dVertex
 10
100.419256
 20
72.542803
 30
0.0
 42
0.267949
  0
VERTEX
  5
17C2
100
AcDbEntity
  8
STUD
100
AcDbVertex
100
AcDb2dVertex
 10
100.544256
 20
72.326296
 30
0.0
  0
VERTEX
  5
17C3
100
AcDbEntity
  8
STUD
100
AcDbVertex
100
AcDb2dVertex
 10
100.650265
 20
72.265092
 30
0.0
 42
0.57735
  0
SEQEND
  5
17C4
100
AcDbEntity
  8
STUD
  0
LINE
  5
1867
100
AcDbEntity
  8
TRACK
100
AcDbLine
 10
88.594539
 20
57.744788
 30
0.0
 11
98.091812
 21
63.228041
 31
0.0
  0
LINE
  5
1869
100
AcDbEntity
  8
TRACK
100
AcDbLine
 10
88.594539
 20
57.78474
 30
0.0
 11
98.091812
 21
63.267994
 31
0.0
  0
POLYLINE
  5
189B
100
AcDbEntity
  8
STUD
100
AcDb2dPolyline
 66
     1
 10
0.0
 20
0.0
 30
0.0
  0
VERTEX
  5
189C
100
AcDbEntity
  8
STUD
100
AcDbVertex
100
AcDb2dVertex
 10
84.235406
 20
53.746083
 30
0.0
 42
0.57735
  0
VERTEX
  5
189D
100
AcDbEntity
  8
STUD
100
AcDbVertex
100
AcDb2dVertex
 10
84.235406
 20
53.63783
 30
0.0
  0
VERTEX
  5
189E
100
AcDbEntity
  8
STUD
100
AcDbVertex
100
AcDb2dVertex
 10
84.628795
 20
53.410707
 30
0.0
  0
VERTEX
  5
189F
100
AcDbEntity
  8
STUD
100
AcDbVertex
100
AcDb2dVertex
 10
84.663395
 20
53.430683
 30
0.0
  0
SEQEND
  5
18A0
100
AcDbEntity
  8
STUD
  0
LINE
  5
18A1
100
AcDbEntity
  8
TRACK
100
AcDbLine
 10
84.286418
 20
53.608379
 30
0.0
 11
82.150953
 21
52.379579
 31
0.0
  0
POLYLINE
  5
18A8
100
AcDbEntity
  8
STUD
100
AcDb2dPolyline
 66
     1
 10
0.0
 20
0.0
 30
0.0
  0
VERTEX
  5
18A9
100
AcDbEntity
  8
STUD
100
AcDbVertex
100
AcDb2dVertex
 10
84.663395
 20
53.95323
 30
0.0
  0
VERTEX
  5
18AA
100
AcDbEntity
  8
STUD
100
AcDbVertex
100
AcDb2dVertex
 10
85.534997
 20
54.45645
 30
0.0
 42
-0.267949
  0
VERTEX
  5
18AB
100
AcDbEntity
  8
STUD
100
AcDbVertex
100
AcDb2dVertex
 10
85.562897
 20
54.45645
 30
0.0
  0
VERTEX
  5
18AC
100
AcDbEntity
  8
STUD
100
AcDbVertex
100
AcDb2dVertex
 10
86.793859
 20
53.745754
 30
0.0
 42
-0.57735
  0
SEQEND
  5
18AD
100
AcDbEntity
  8
STUD
  0
POLYLINE
  5
18B7
100
AcDbEntity
  8
STUD
100
AcDb2dPolyline
 66
     1
 10
0.0
 20
0.0
 30
0.0
  0
VERTEX
  5
18B8
100
AcDbEntity
  8
STUD
100
AcDbVertex
100
AcDb2dVertex
 10
86.793859
 20
67.46473
 30
0.0
 42
0.392115
  0
VERTEX
  5
18B9
100
AcDbEntity
  8
STUD
100
AcDbVertex
100
AcDb2dVertex
 10
86.562849
 20
67.215452
 30
0.0
  0
VERTEX
  5
18BA
100
AcDbEntity
  8
STUD
100
AcDbVertex
100
AcDb2dVertex
 10
86.562849
 20
64.542803
 30
0.0
 42
0.267949
  0
VERTEX
  5
18BB
100
AcDbEntity
  8
STUD
100
AcDbVertex
100
AcDb2dVertex
 10
86.687849
 20
64.326296
 30
0.0
  0
VERTEX
  5
18BC
100
AcDbEntity
  8
STUD
100
AcDbVertex
100
AcDb2dVertex
 10
86.793859
 20
64.265092
 30
0.0
 42
0.57735
  0
SEQEND
  5
18BD
100
AcDbEntity
  8
STUD
  0
POLYLINE
  5
1905
100
AcDbEntity
  8
STUD
100
AcDb2dPolyline
 66
     1
 10
0.0
 20
0.0
 30
0.0
  0
VERTEX
  5
1906
100
AcDbEntity
  8
STUD
100
AcDbVertex
100
AcDb2dVertex
 10
86.793859
 20
115.46473
 30
0.0
 42
0.392115
  0
VERTEX
  5
1907
100
AcDbEntity
  8
STUD
100
AcDbVertex
100
AcDb2dVertex
 10
86.562849
 20
115.215452
 30
0.0
  0
VERTEX
  5
1908
100
AcDbEntity
  8
STUD
100
AcDbVertex
100
AcDb2dVertex
 10
86.562849
 20
112.542803
 30
0.0
 42
0.267949
  0
VERTEX
  5
1909
100
AcDbEntity
  8
STUD
100
AcDbVertex
100
AcDb2dVertex
 10
86.687849
 20
112.326296
 30
0.0
  0
VERTEX
  5
190A
100
AcDbEntity
  8
STUD
100
AcDbVertex
100
AcDb2dVertex
 10
86.793859
 20
112.265092
 30
0.0
 42
0.57735
  0
SEQEND
  5
190B
100
AcDbEntity
  8
STUD
  0
POLYLINE
  5
190C
100
AcDbEntity
  8
STUD
100
AcDb2dPolyline
 66
     1
 10
0.0
 20
0.0
 30
0.0
  0
VERTEX
  5
190D
100
AcDbEntity
  8
STUD
100
AcDbVertex
100
AcDb2dVertex
 10
100.650265
 20
123.46473
 30
0.0
 42
0.392115
  0
VERTEX
  5
190E
100
AcDbEntity
  8
STUD
100
AcDbVertex
100
AcDb2dVertex
 10
100.419256
 20
123.215452
 30
0.0
  0
VERTEX
  5
190F
100
AcDbEntity
  8
STUD
100
AcDbVertex
100
AcDb2dVertex
 10
100.419256
 20
120.542803
 30
0.0
 42
0.267949
  0
VERTEX
  5
1910
100
AcDbEntity
  8
STUD
100
AcDbVertex
100
AcDb2dVertex
 10
100.544256
 20
120.326296
 30
0.0
  0
VERTEX
  5
1911
100
AcDbEntity
  8
STUD
100
AcDbVertex
100
AcDb2dVertex
 10
100.650265
 20
120.265092
 30
0.0
 42
0.57735
  0
SEQEND
  5
1912
100
AcDbEntity
  8
STUD
  0
POLYLINE
  5
19AF
100
AcDbEntity
  8
STUD
100
AcDb2dPolyline
 66
     1
 10
0.0
 20
0.0
 30
0.0
  0
VERTEX
  5
19B0
100
AcDbEntity
  8
STUD
100
AcDbVertex
100
AcDb2dVertex
 10
114.506672
 20
83.46473
 30
0.0
 42
0.392115
  0
VERTEX
  5
19B1
100
AcDbEntity
  8
STUD
100
AcDbVertex
100
AcDb2dVertex
 10
114.275662
 20
83.215452
 30
0.0
  0
VERTEX
  5
19B2
100
AcDbEntity
  8
STUD
100
AcDbVertex
100
AcDb2dVertex
 10
114.275662
 20
80.542803
 30
0.0
 42
0.267949
  0
VERTEX
  5
19B3
100
AcDbEntity
  8
STUD
100
AcDbVertex
100
AcDb2dVertex
 10
114.400662
 20
80.326296
 30
0.0
  0
VERTEX
  5
19B4
100
AcDbEntity
  8
STUD
100
AcDbVertex
100
AcDb2dVertex
 10
114.506672
 20
80.265092
 30
0.0
 42
0.57735
  0
SEQEND
  5
19B5
100
AcDbEntity
  8
STUD
  0
LINE
  5
19B6
100
AcDbEntity
  8
TRACK
100
AcDbLine
 10
102.450946
 20
65.744788
 30
0.0
 11
109.430754
 21
69.774582
 31
0.0
  0
ELLIPSE
  5
19BB
100
AcDbEntity
  8
FASTENER
100
AcDbEllipse
 10
115.938623
 20
69.353655
 30
0.0
 11
-0.0765465544619743
 21
-0.1325825214724723
 31
0.0
210
0.0
220
0.0
230
1.0
 40
0.57735
 41
0.0000000000006153
 42
6.283185307180215
  0
LINE
  5
19BC
100
AcDbEntity
  8
FASTENER
100
AcDbLine
 10
115.938623
 20
69.478655
 30
0.0
 11
115.938623
 21
69.228655
 31
0.0
  0
LINE
  5
19BD
100
AcDbEntity
  8
FASTENER
100
AcDbLine
 10
115.829761
 20
69.292223
 30
0.0
 11
116.047486
 21
69.415087
 31
0.0
  0
LINE
  5
19E4
100
AcDbEntity
  8
TRACK
100
AcDbLine
 10
102.450946
 20
65.784741
 30
0.0
 11
109.430754
 21
69.814534
 31
0.0
  0
LINE
  5
19E5
100
AcDbEntity
  8
TRACK
100
AcDbLine
 10
109.430754
 20
68.120505
 30
0.0
 11
102.450946
 21
64.10415
 31
0.0
  0
POLYLINE
  5
19F6
100
AcDbEntity
  8
STUD
100
AcDb2dPolyline
 66
     1
 10
0.0
 20
0.0
 30
0.0
  0
VERTEX
  5
19F7
100
AcDbEntity
  8
STUD
100
AcDbVertex
100
AcDb2dVertex
 10
72.937452
 20
59.46473
 30
0.0
 42
0.392115
  0
VERTEX
  5
19F8
100
AcDbEntity
  8
STUD
100
AcDbVertex
100
AcDb2dVertex
 10
72.706443
 20
59.215452
 30
0.0
  0
VERTEX
  5
19F9
100
AcDbEntity
  8
STUD
100
AcDbVertex
100
AcDb2dVertex
 10
72.706443
 20
56.542803
 30
0.0
 42
0.267949
  0
VERTEX
  5
19FA
100
AcDbEntity
  8
STUD
100
AcDbVertex
100
AcDb2dVertex
 10
72.831443
 20
56.326296
 30
0.0
  0
VERTEX
  5
19FB
100
AcDbEntity
  8
STUD
100
AcDbVertex
100
AcDb2dVertex
 10
72.937452
 20
56.265092
 30
0.0
 42
0.57735
  0
SEQEND
  5
19FC
100
AcDbEntity
  8
STUD
  0
LINE
  5
19FD
100
AcDbEntity
  8
STUD
100
AcDbLine
 10
70.379
 20
45.63783
 30
0.0
 11
70.379
 21
78.393631
 31
0.0
  0
LINE
  5
1A0B
100
AcDbEntity
  8
TRACK
100
AcDbLine
 10
70.430011
 20
45.608379
 30
0.0
 11
55.61521
 21
37.061121
 31
0.0
  0
LINE
  5
1A12
100
AcDbEntity
  8
TRACK
100
AcDbLine
 10
55.599585
 20
38.695142
 30
0.0
 11
70.379
 21
47.228041
 31
0.0
  0
ELLIPSE
  5
1A13
100
AcDbEntity
  8
FASTENER
100
AcDbEllipse
 10
74.277538
 20
45.323337
 30
0.0
 11
-0.0765465544619742
 21
-0.1325825214724724
 31
0.0
210
0.0
220
0.0
230
1.0
 40
0.57735
 41
0.0000000000006143
 42
6.283185307180215
  0
LINE
  5
1A14
100
AcDbEntity
  8
FASTENER
100
AcDbLine
 10
74.277538
 20
45.448337
 30
0.0
 11
74.277538
 21
45.198337
 31
0.0
  0
LINE
  5
1A15
100
AcDbEntity
  8
FASTENER
100
AcDbLine
 10
74.168675
 20
45.261905
 30
0.0
 11
74.386401
 21
45.384768
 31
0.0
  0
POLYLINE
  5
1A1C
100
AcDbEntity
  8
TRACK
100
AcDb2dPolyline
 66
     1
 10
0.0
 20
0.0
 30
0.0
 70
     1
  0
VERTEX
  5
1A1D
100
AcDbEntity
  8
TRACK
100
AcDbVertex
100
AcDb2dVertex
 10
55.599585
 20
38.695142
 30
0.0
  0
VERTEX
  5
1A1E
100
AcDbEntity
  8
TRACK
100
AcDbVertex
100
AcDb2dVertex
 10
55.599585
 20
37.088184
 30
0.0
 42
0.267949
  0
VERTEX
  5
1A1F
100
AcDbEntity
  8
TRACK
100
AcDbVertex
100
AcDb2dVertex
 10
55.61521
 20
37.061121
 30
0.0
  0
VERTEX
  5
1A20
100
AcDbEntity
  8
TRACK
100
AcDbVertex
100
AcDb2dVertex
 10
58.692052
 20
35.284706
 30
0.0
 42
0.57735
  0
VERTEX
  5
1A21
100
AcDbEntity
  8
TRACK
100
AcDbVertex
100
AcDb2dVertex
 10
58.738927
 20
35.311769
 30
0.0
  0
VERTEX
  5
1A22
100
AcDbEntity
  8
TRACK
100
AcDbVertex
100
AcDb2dVertex
 10
58.738927
 20
36.882642
 30
0.0
  0
VERTEX
  5
1A23
100
AcDbEntity
  8
TRACK
100
AcDbVertex
100
AcDb2dVertex
 10
58.773527
 20
36.862666
 30
0.0
  0
VERTEX
  5
1A24
100
AcDbEntity
  8
TRACK
100
AcDbVertex
100
AcDb2dVertex
 10
58.773527
 20
35.311769
 30
0.0
 42
-0.57735
  0
VERTEX
  5
1A25
100
AcDbEntity
  8
TRACK
100
AcDbVertex
100
AcDb2dVertex
 10
58.674752
 20
35.254741
 30
0.0
  0
VERTEX
  5
1A26
100
AcDbEntity
  8
TRACK
100
AcDbVertex
100
AcDb2dVertex
 10
55.59791
 20
37.031157
 30
0.0
 42
-0.267949
  0
VERTEX
  5
1A27
100
AcDbEntity
  8
TRACK
100
AcDbVertex
100
AcDb2dVertex
 10
55.564985
 20
37.088184
 30
0.0
  0
VERTEX
  5
1A28
100
AcDbEntity
  8
TRACK
100
AcDbVertex
100
AcDb2dVertex
 10
55.564985
 20
38.715119
 30
0.0
  0
SEQEND
  5
1A29
100
AcDbEntity
  8
TRACK
  0
LINE
  5
1A2A
100
AcDbEntity
  8
TRACK
100
AcDbLine
 10
55.564985
 20
38.715119
 30
0.0
 11
70.379
 21
47.267994
 31
0.0
  0
POLYLINE
  5
1A33
100
AcDbEntity
  8
STUD
100
AcDb2dPolyline
 66
     1
 10
0.0
 20
0.0
 30
0.0
  0
VERTEX
  5
1A34
100
AcDbEntity
  8
STUD
100
AcDbVertex
100
AcDb2dVertex
 10
72.937452
 20
107.46473
 30
0.0
 42
0.392115
  0
VERTEX
  5
1A35
100
AcDbEntity
  8
STUD
100
AcDbVertex
100
AcDb2dVertex
 10
72.706443
 20
107.215452
 30
0.0
  0
VERTEX
  5
1A36
100
AcDbEntity
  8
STUD
100
AcDbVertex
100
AcDb2dVertex
 10
72.706443
 20
104.542803
 30
0.0
 42
0.267949
  0
VERTEX
  5
1A37
100
AcDbEntity
  8
STUD
100
AcDbVertex
100
AcDb2dVertex
 10
72.831443
 20
104.326296
 30
0.0
  0
VERTEX
  5
1A38
100
AcDbEntity
  8
STUD
100
AcDbVertex
100
AcDb2dVertex
 10
72.937452
 20
104.265092
 30
0.0
 42
0.57735
  0
SEQEND
  5
1A39
100
AcDbEntity
  8
STUD
  0
LINE
  5
1B14
100
AcDbEntity
  8
TRACK
100
AcDbLine
 10
128.370262
 20
79.046227
 30
0.0
 11
118.091008
 21
73.131289
 31
0.0
  0
LINE
  5
1B17
100
AcDbEntity
  8
TRACK
100
AcDbLine
 10
118.091008
 20
74.814534
 30
0.0
 11
128.302679
 21
80.710246
 31
0.0
  0
LINE
  5
1BAB
100
AcDbEntity
  8
TRACK
100
AcDbLine
 10
118.091008
 20
74.774582
 30
0.0
 11
128.337279
 21
80.690269
 31
0.0
  0
POLYLINE
  5
1BBE
100
AcDbEntity
  8
TRACK
100
AcDb2dPolyline
 66
     1
 10
0.0
 20
0.0
 30
0.0
  0
VERTEX
  5
1BBF
100
AcDbEntity
  8
TRACK
100
AcDbVertex
100
AcDb2dVertex
 10
128.337279
 20
80.690269
 30
0.0
  0
VERTEX
  5
1BC0
100
AcDbEntity
  8
TRACK
100
AcDbVertex
100
AcDb2dVertex
 10
128.337279
 20
79.083312
 30
0.0
 42
0.267949
  0
VERTEX
  5
1BC1
100
AcDbEntity
  8
TRACK
100
AcDbVertex
100
AcDb2dVertex
 10
128.352904
 20
79.056248
 30
0.0
  0
VERTEX
  5
1BC2
100
AcDbEntity
  8
TRACK
100
AcDbVertex
100
AcDb2dVertex
 10
130.06933
 20
78.065269
 30
0.0
 42
0.57735
  0
SEQEND
  5
1BC3
100
AcDbEntity
  8
TRACK
  0
POLYLINE
  5
1BC4
100
AcDbEntity
  8
TRACK
100
AcDb2dPolyline
 66
     1
 10
0.0
 20
0.0
 30
0.0
  0
VERTEX
  5
1BC5
100
AcDbEntity
  8
TRACK
100
AcDbVertex
100
AcDb2dVertex
 10
131.476621
 20
78.877769
 30
0.0
  0
VERTEX
  5
1BC6
100
AcDbEntity
  8
TRACK
100
AcDbVertex
100
AcDb2dVertex
 10
131.511221
 20
78.857793
 30
0.0
  0
VERTEX
  5
1BC7
100
AcDbEntity
  8
TRACK
100
AcDbVertex
100
AcDb2dVertex
 10
131.511221
 20
77.306896
 30
0.0
 42
-0.57735
  0
VERTEX
  5
1BC8
100
AcDbEntity
  8
TRACK
100
AcDbVertex
100
AcDb2dVertex
 10
131.412446
 20
77.249868
 30
0.0
  0
SEQEND
  5
1BC9
100
AcDbEntity
  8
TRACK
  0
LINE
  5
1C00
100
AcDbEntity
  8
TRACK
100
AcDbLine
 10
59.178276
 20
104.990758
 30
0.0
 11
132.982327
 21
147.268204
 31
0.0
  0
LINE
  5
1C01
100
AcDbEntity
  8
TRACK
100
AcDbLine
 10
59.211201
 20
104.933731
 30
0.0
 11
133.012643
 21
147.21573
 31
0.0
  0
LINE
  5
1C04
100
AcDbEntity
  8
TRACK
100
AcDbLine
 10
56.037259
 20
105.139273
 30
0.0
 11
57.449314
 21
105.949023
 31
0.0
  0
POLYLINE
  5
1C08
100
AcDbEntity
  8
TRACK
100
AcDb2dPolyline
 66
     1
 10
0.0
 20
0.0
 30
0.0
 70
     1
  0
VERTEX
  5
1C09
100
AcDbEntity
  8
TRACK
100
AcDbVertex
100
AcDb2dVertex
 10
59.176601
 20
103.326773
 30
0.0
  0
VERTEX
  5
1C0A
100
AcDbEntity
  8
TRACK
100
AcDbVertex
100
AcDb2dVertex
 10
59.176601
 20
104.933731
 30
0.0
 42
0.267949
  0
VERTEX
  5
1C0B
100
AcDbEntity
  8
TRACK
100
AcDbVertex
100
AcDb2dVertex
 10
59.160976
 20
104.960794
 30
0.0
  0
VERTEX
  5
1C0C
100
AcDbEntity
  8
TRACK
100
AcDbVertex
100
AcDb2dVertex
 10
56.084134
 20
106.737209
 30
0.0
 42
0.57735
  0
VERTEX
  5
1C0D
100
AcDbEntity
  8
TRACK
100
AcDbVertex
100
AcDb2dVertex
 10
56.037259
 20
106.710146
 30
0.0
  0
VERTEX
  5
1C0E
100
AcDbEntity
  8
TRACK
100
AcDbVertex
100
AcDb2dVertex
 10
56.037259
 20
105.139273
 30
0.0
  0
VERTEX
  5
1C0F
100
AcDbEntity
  8
TRACK
100
AcDbVertex
100
AcDb2dVertex
 10
56.002659
 20
105.159249
 30
0.0
  0
VERTEX
  5
1C10
100
AcDbEntity
  8
TRACK
100
AcDbVertex
100
AcDb2dVertex
 10
56.002659
 20
106.710146
 30
0.0
 42
-0.57735
  0
VERTEX
  5
1C11
100
AcDbEntity
  8
TRACK
100
AcDbVertex
100
AcDb2dVertex
 10
56.101434
 20
106.767174
 30
0.0
  0
VERTEX
  5
1C12
100
AcDbEntity
  8
TRACK
100
AcDbVertex
100
AcDb2dVertex
 10
59.178276
 20
104.990758
 30
0.0
 42
-0.267949
  0
VERTEX
  5
1C13
100
AcDbEntity
  8
TRACK
100
AcDbVertex
100
AcDb2dVertex
 10
59.211201
 20
104.933731
 30
0.0
  0
VERTEX
  5
1C14
100
AcDbEntity
  8
TRACK
100
AcDbVertex
100
AcDb2dVertex
 10
59.211201
 20
103.306796
 30
0.0
  0
SEQEND
  5
1C15
100
AcDbEntity
  8
TRACK
  0
LINE
  5
1DD8
100
AcDbEntity
  8
FASTENER
100
AcDbLine
 10
75.450966
 20
46.002236
 30
0.0
 11
75.668692
 21
46.1251
 31
0.0
  0
LINE
  5
1DD9
100
AcDbEntity
  8
FASTENER
100
AcDbLine
 10
75.559829
 20
46.188668
 30
0.0
 11
75.559829
 21
45.938668
 31
0.0
  0
ELLIPSE
  5
1DDA
100
AcDbEntity
  8
FASTENER
100
AcDbEllipse
 10
75.559829
 20
46.063668
 30
0.0
 11
-0.0765465544619742
 21
-0.1325825214724724
 31
0.0
210
0.0
220
0.0
230
1.0
 40
0.57735
 41
0.0000000000006143
 42
6.283185307180215
  0
ELLIPSE
  5
1DFF
100
AcDbEntity
  8
FASTENER
100
AcDbEllipse
 10
76.84212
 20
46.803999
 30
0.0
 11
-0.0765465544619742
 21
-0.1325825214724724
 31
0.0
210
0.0
220
0.0
230
1.0
 40
0.57735
 41
0.0000000000006143
 42
6.283185307180215
  0
LINE
  5
1E00
100
AcDbEntity
  8
FASTENER
100
AcDbLine
 10
76.84212
 20
46.928999
 30
0.0
 11
76.84212
 21
46.678999
 31
0.0
  0
LINE
  5
1E01
100
AcDbEntity
  8
FASTENER
100
AcDbLine
 10
76.733258
 20
46.742567
 30
0.0
 11
76.950983
 21
46.865431
 31
0.0
  0
ELLIPSE
  5
1E02
100
AcDbEntity
  8
FASTENER
100
AcDbEllipse
 10
78.124412
 20
47.54433
 30
0.0
 11
-0.0765465544619742
 21
-0.1325825214724724
 31
0.0
210
0.0
220
0.0
230
1.0
 40
0.57735
 41
0.0000000000006143
 42
6.283185307180215
  0
LINE
  5
1E03
100
AcDbEntity
  8
FASTENER
100
AcDbLine
 10
78.124412
 20
47.66933
 30
0.0
 11
78.124412
 21
47.41933
 31
0.0
  0
LINE
  5
1E04
100
AcDbEntity
  8
FASTENER
100
AcDbLine
 10
78.015549
 20
47.482898
 30
0.0
 11
78.233274
 21
47.605762
 31
0.0
  0
ELLIPSE
  5
1E05
100
AcDbEntity
  8
FASTENER
100
AcDbEllipse
 10
79.406703
 20
48.284661
 30
0.0
 11
-0.0765465544619742
 21
-0.1325825214724724
 31
0.0
210
0.0
220
0.0
230
1.0
 40
0.57735
 41
0.0000000000006143
 42
6.283185307180215
  0
LINE
  5
1E06
100
AcDbEntity
  8
FASTENER
100
AcDbLine
 10
79.406703
 20
48.409661
 30
0.0
 11
79.406703
 21
48.159661
 31
0.0
  0
LINE
  5
1E07
100
AcDbEntity
  8
FASTENER
100
AcDbLine
 10
79.29784
 20
48.223229
 30
0.0
 11
79.515566
 21
48.346093
 31
0.0
  0
ELLIPSE
  5
1E08
100
AcDbEntity
  8
FASTENER
100
AcDbEllipse
 10
80.688994
 20
49.024993
 30
0.0
 11
-0.0765465544619742
 21
-0.1325825214724724
 31
0.0
210
0.0
220
0.0
230
1.0
 40
0.57735
 41
0.0000000000006143
 42
6.283185307180215
  0
LINE
  5
1E09
100
AcDbEntity
  8
FASTENER
100
AcDbLine
 10
80.688994
 20
49.149993
 30
0.0
 11
80.688994
 21
48.899993
 31
0.0
  0
LINE
  5
1E0A
100
AcDbEntity
  8
FASTENER
100
AcDbLine
 10
80.580131
 20
48.963561
 30
0.0
 11
80.797857
 21
49.086425
 31
0.0
  0
ELLIPSE
  5
1E0B
100
AcDbEntity
  8
FASTENER
100
AcDbEllipse
 10
75.559829
 20
54.563668
 30
0.0
 11
-0.0765465544619742
 21
-0.1325825214724724
 31
0.0
210
0.0
220
0.0
230
1.0
 40
0.57735
 41
0.0000000000006143
 42
6.283185307180215
  0
LINE
  5
1E0C
100
AcDbEntity
  8
FASTENER
100
AcDbLine
 10
75.559829
 20
54.688668
 30
0.0
 11
75.559829
 21
54.438668
 31
0.0
  0
LINE
  5
1E0D
100
AcDbEntity
  8
FASTENER
100
AcDbLine
 10
75.450966
 20
54.502236
 30
0.0
 11
75.668692
 21
54.6251
 31
0.0
  0
LINE
  5
1E0E
100
AcDbEntity
  8
FASTENER
100
AcDbLine
 10
74.168675
 20
53.761905
 30
0.0
 11
74.386401
 21
53.884768
 31
0.0
  0
LINE
  5
1E0F
100
AcDbEntity
  8
FASTENER
100
AcDbLine
 10
74.277538
 20
53.948337
 30
0.0
 11
74.277538
 21
53.698337
 31
0.0
  0
ELLIPSE
  5
1E10
100
AcDbEntity
  8
FASTENER
100
AcDbEllipse
 10
74.277538
 20
53.823337
 30
0.0
 11
-0.0765465544619742
 21
-0.1325825214724724
 31
0.0
210
0.0
220
0.0
230
1.0
 40
0.57735
 41
0.0000000000006143
 42
6.283185307180215
  0
ELLIPSE
  5
1E11
100
AcDbEntity
  8
FASTENER
100
AcDbEllipse
 10
74.277538
 20
53.823337
 30
0.0
 11
-0.0765465544619742
 21
-0.1325825214724724
 31
0.0
210
0.0
220
0.0
230
1.0
 40
0.57735
 41
0.0000000000006143
 42
6.283185307180215
  0
LINE
  5
1E12
100
AcDbEntity
  8
FASTENER
100
AcDbLine
 10
74.277538
 20
53.948337
 30
0.0
 11
74.277538
 21
53.698337
 31
0.0
  0
LINE
  5
1E13
100
AcDbEntity
  8
FASTENER
100
AcDbLine
 10
74.168675
 20
53.761905
 30
0.0
 11
74.386401
 21
53.884768
 31
0.0
  0
LINE
  5
1E14
100
AcDbEntity
  8
FASTENER
100
AcDbLine
 10
75.450966
 20
54.502236
 30
0.0
 11
75.668692
 21
54.6251
 31
0.0
  0
LINE
  5
1E15
100
AcDbEntity
  8
FASTENER
100
AcDbLine
 10
75.559829
 20
54.688668
 30
0.0
 11
75.559829
 21
54.438668
 31
0.0
  0
ELLIPSE
  5
1E16
100
AcDbEntity
  8
FASTENER
100
AcDbEllipse
 10
75.559829
 20
54.563668
 30
0.0
 11
-0.0765465544619742
 21
-0.1325825214724724
 31
0.0
210
0.0
220
0.0
230
1.0
 40
0.57735
 41
0.0000000000006143
 42
6.283185307180215
  0
ELLIPSE
  5
1E17
100
AcDbEntity
  8
FASTENER
100
AcDbEllipse
 10
74.277538
 20
52.823337
 30
0.0
 11
-0.0765465544619742
 21
-0.1325825214724724
 31
0.0
210
0.0
220
0.0
230
1.0
 40
0.57735
 41
0.0000000000006143
 42
6.283185307180215
  0
LINE
  5
1E18
100
AcDbEntity
  8
FASTENER
100
AcDbLine
 10
74.277538
 20
52.948337
 30
0.0
 11
74.277538
 21
52.698337
 31
0.0
  0
LINE
  5
1E19
100
AcDbEntity
  8
FASTENER
100
AcDbLine
 10
74.168675
 20
52.761905
 30
0.0
 11
74.386401
 21
52.884768
 31
0.0
  0
LINE
  5
1E1A
100
AcDbEntity
  8
FASTENER
100
AcDbLine
 10
75.450966
 20
53.502236
 30
0.0
 11
75.668692
 21
53.6251
 31
0.0
  0
LINE
  5
1E1B
100
AcDbEntity
  8
FASTENER
100
AcDbLine
 10
75.559829
 20
53.688668
 30
0.0
 11
75.559829
 21
53.438668
 31
0.0
  0
ELLIPSE
  5
1E1C
100
AcDbEntity
  8
FASTENER
100
AcDbEllipse
 10
75.559829
 20
53.563668
 30
0.0
 11
-0.0765465544619742
 21
-0.1325825214724724
 31
0.0
210
0.0
220
0.0
230
1.0
 40
0.57735
 41
0.0000000000006143
 42
6.283185307180215
  0
ELLIPSE
  5
1E1D
100
AcDbEntity
  8
FASTENER
100
AcDbEllipse
 10
74.277538
 20
51.823337
 30
0.0
 11
-0.0765465544619742
 21
-0.1325825214724724
 31
0.0
210
0.0
220
0.0
230
1.0
 40
0.57735
 41
0.0000000000006143
 42
6.283185307180215
  0
LINE
  5
1E1E
100
AcDbEntity
  8
FASTENER
100
AcDbLine
 10
74.277538
 20
51.948337
 30
0.0
 11
74.277538
 21
51.698337
 31
0.0
  0
LINE
  5
1E1F
100
AcDbEntity
  8
FASTENER
100
AcDbLine
 10
74.168675
 20
51.761905
 30
0.0
 11
74.386401
 21
51.884768
 31
0.0
  0
LINE
  5
1E20
100
AcDbEntity
  8
FASTENER
100
AcDbLine
 10
75.450966
 20
52.502236
 30
0.0
 11
75.668692
 21
52.6251
 31
0.0
  0
LINE
  5
1E21
100
AcDbEntity
  8
FASTENER
100
AcDbLine
 10
75.559829
 20
52.688668
 30
0.0
 11
75.559829
 21
52.438668
 31
0.0
  0
ELLIPSE
  5
1E22
100
AcDbEntity
  8
FASTENER
100
AcDbEllipse
 10
75.559829
 20
52.563668
 30
0.0
 11
-0.0765465544619742
 21
-0.1325825214724724
 31
0.0
210
0.0
220
0.0
230
1.0
 40
0.57735
 41
0.0000000000006143
 42
6.283185307180215
  0
ELLIPSE
  5
1E23
100
AcDbEntity
  8
FASTENER
100
AcDbEllipse
 10
74.277538
 20
50.823337
 30
0.0
 11
-0.0765465544619742
 21
-0.1325825214724724
 31
0.0
210
0.0
220
0.0
230
1.0
 40
0.57735
 41
0.0000000000006143
 42
6.283185307180215
  0
LINE
  5
1E24
100
AcDbEntity
  8
FASTENER
100
AcDbLine
 10
74.277538
 20
50.948337
 30
0.0
 11
74.277538
 21
50.698337
 31
0.0
  0
LINE
  5
1E25
100
AcDbEntity
  8
FASTENER
100
AcDbLine
 10
74.168675
 20
50.761905
 30
0.0
 11
74.386401
 21
50.884768
 31
0.0
  0
ELLIPSE
  5
1E29
100
AcDbEntity
  8
FASTENER
100
AcDbEllipse
 10
74.277538
 20
49.823337
 30
0.0
 11
-0.0765465544619742
 21
-0.1325825214724724
 31
0.0
210
0.0
220
0.0
230
1.0
 40
0.57735
 41
0.0000000000006143
 42
6.283185307180215
  0
LINE
  5
1E2A
100
AcDbEntity
  8
FASTENER
100
AcDbLine
 10
74.277538
 20
49.948337
 30
0.0
 11
74.277538
 21
49.698337
 31
0.0
  0
LINE
  5
1E2B
100
AcDbEntity
  8
FASTENER
100
AcDbLine
 10
74.168675
 20
49.761905
 30
0.0
 11
74.386401
 21
49.884768
 31
0.0
  0
LINE
  5
1E4F
100
AcDbEntity
  8
FASTENER
100
AcDbLine
 10
79.145807
 20
54.299037
 30
0.0
 11
79.363533
 21
54.421901
 31
0.0
  0
LINE
  5
1E50
100
AcDbEntity
  8
FASTENER
100
AcDbLine
 10
79.25467
 20
54.485469
 30
0.0
 11
79.25467
 21
54.235469
 31
0.0
  0
ELLIPSE
  5
1E51
100
AcDbEntity
  8
FASTENER
100
AcDbEllipse
 10
79.25467
 20
54.360469
 30
0.0
 11
-0.0765465544619742
 21
-0.1325825214724724
 31
0.0
210
0.0
220
0.0
230
1.0
 40
0.57735
 41
0.0000000000006143
 42
6.283185307180215
  0
LINE
  5
1E52
100
AcDbEntity
  8
FASTENER
100
AcDbLine
 10
77.787116
 20
54.934615
 30
0.0
 11
78.004842
 21
55.057479
 31
0.0
  0
LINE
  5
1E53
100
AcDbEntity
  8
FASTENER
100
AcDbLine
 10
77.895979
 20
55.121047
 30
0.0
 11
77.895979
 21
54.871047
 31
0.0
  0
ELLIPSE
  5
1E54
100
AcDbEntity
  8
FASTENER
100
AcDbEllipse
 10
77.895979
 20
54.996047
 30
0.0
 11
-0.0765465544619742
 21
-0.1325825214724724
 31
0.0
210
0.0
220
0.0
230
1.0
 40
0.57735
 41
0.0000000000006143
 42
6.283185307180215
  0
ELLIPSE
  5
1E55
100
AcDbEntity
  8
FASTENER
100
AcDbEllipse
 10
78.531557
 20
56.354738
 30
0.0
 11
-0.0765465544619742
 21
-0.1325825214724724
 31
0.0
210
0.0
220
0.0
230
1.0
 40
0.57735
 41
0.0000000000006143
 42
6.283185307180215
  0
LINE
  5
1E56
100
AcDbEntity
  8
FASTENER
100
AcDbLine
 10
78.531557
 20
56.479738
 30
0.0
 11
78.531557
 21
56.229738
 31
0.0
  0
LINE
  5
1E57
100
AcDbEntity
  8
FASTENER
100
AcDbLine
 10
78.422694
 20
56.293306
 30
0.0
 11
78.64042
 21
56.41617
 31
0.0
  0
ELLIPSE
  5
1E58
100
AcDbEntity
  8
FASTENER
100
AcDbEllipse
 10
79.890248
 20
55.719159
 30
0.0
 11
-0.0765465544619742
 21
-0.1325825214724724
 31
0.0
210
0.0
220
0.0
230
1.0
 40
0.57735
 41
0.0000000000006143
 42
6.283185307180215
  0
LINE
  5
1E59
100
AcDbEntity
  8
FASTENER
100
AcDbLine
 10
79.890248
 20
55.844159
 30
0.0
 11
79.890248
 21
55.594159
 31
0.0
  0
LINE
  5
1E5A
100
AcDbEntity
  8
FASTENER
100
AcDbLine
 10
79.781385
 20
55.657727
 30
0.0
 11
79.999111
 21
55.780591
 31
0.0
  0
ELLIPSE
  5
1E5E
100
AcDbEntity
  8
FASTENER
100
AcDbEllipse
 10
80.525826
 20
57.07785
 30
0.0
 11
-0.0765465544619742
 21
-0.1325825214724724
 31
0.0
210
0.0
220
0.0
230
1.0
 40
0.57735
 41
0.0000000000006143
 42
6.283185307180215
  0
LINE
  5
1E5F
100
AcDbEntity
  8
FASTENER
100
AcDbLine
 10
80.525826
 20
57.20285
 30
0.0
 11
80.525826
 21
56.95285
 31
0.0
  0
LINE
  5
1E60
100
AcDbEntity
  8
FASTENER
100
AcDbLine
 10
80.416963
 20
57.016418
 30
0.0
 11
80.634689
 21
57.139282
 31
0.0
  0
ELLIPSE
  5
1E61
100
AcDbEntity
  8
FASTENER
100
AcDbEllipse
 10
77.260401
 20
53.637356
 30
0.0
 11
-0.0765465544619742
 21
-0.1325825214724724
 31
0.0
210
0.0
220
0.0
230
1.0
 40
0.57735
 41
0.0000000000006143
 42
6.283185307180215
  0
LINE
  5
1E62
100
AcDbEntity
  8
FASTENER
100
AcDbLine
 10
77.260401
 20
53.762356
 30
0.0
 11
77.260401
 21
53.512356
 31
0.0
  0
LINE
  5
1E63
100
AcDbEntity
  8
FASTENER
100
AcDbLine
 10
77.151538
 20
53.575924
 30
0.0
 11
77.369264
 21
53.698788
 31
0.0
  0
ELLIPSE
  5
1E64
100
AcDbEntity
  8
FASTENER
100
AcDbEllipse
 10
78.619092
 20
53.001778
 30
0.0
 11
-0.0765465544619742
 21
-0.1325825214724724
 31
0.0
210
0.0
220
0.0
230
1.0
 40
0.57735
 41
0.0000000000006143
 42
6.283185307180215
  0
LINE
  5
1E65
100
AcDbEntity
  8
FASTENER
100
AcDbLine
 10
78.619092
 20
53.126778
 30
0.0
 11
78.619092
 21
52.876778
 31
0.0
  0
LINE
  5
1E66
100
AcDbEntity
  8
FASTENER
100
AcDbLine
 10
78.510229
 20
52.940346
 30
0.0
 11
78.727954
 21
53.06321
 31
0.0
  0
ELLIPSE
  5
1E67
100
AcDbEntity
  8
FASTENER
100
AcDbEllipse
 10
76.624823
 20
52.278665
 30
0.0
 11
-0.0765465544619742
 21
-0.1325825214724724
 31
0.0
210
0.0
220
0.0
230
1.0
 40
0.57735
 41
0.0000000000006143
 42
6.283185307180215
  0
LINE
  5
1E68
100
AcDbEntity
  8
FASTENER
100
AcDbLine
 10
76.624823
 20
52.403665
 30
0.0
 11
76.624823
 21
52.153665
 31
0.0
  0
LINE
  5
1E69
100
AcDbEntity
  8
FASTENER
100
AcDbLine
 10
76.51596
 20
52.217233
 30
0.0
 11
76.733686
 21
52.340097
 31
0.0
  0
ELLIPSE
  5
1E6A
100
AcDbEntity
  8
FASTENER
100
AcDbEllipse
 10
77.983514
 20
51.643087
 30
0.0
 11
-0.0765465544619742
 21
-0.1325825214724724
 31
0.0
210
0.0
220
0.0
230
1.0
 40
0.57735
 41
0.0000000000006143
 42
6.283185307180215
  0
LINE
  5
1E6B
100
AcDbEntity
  8
FASTENER
100
AcDbLine
 10
77.983514
 20
51.768087
 30
0.0
 11
77.983514
 21
51.518087
 31
0.0
  0
LINE
  5
1E6C
100
AcDbEntity
  8
FASTENER
100
AcDbLine
 10
77.874651
 20
51.581655
 30
0.0
 11
78.092376
 21
51.704519
 31
0.0
  0
ELLIPSE
  5
1E6D
100
AcDbEntity
  8
FASTENER
100
AcDbEllipse
 10
75.989245
 20
50.919975
 30
0.0
 11
-0.0765465544619742
 21
-0.1325825214724724
 31
0.0
210
0.0
220
0.0
230
1.0
 40
0.57735
 41
0.0000000000006143
 42
6.283185307180215
  0
LINE
  5
1E6E
100
AcDbEntity
  8
FASTENER
100
AcDbLine
 10
75.989245
 20
51.044975
 30
0.0
 11
75.989245
 21
50.794975
 31
0.0
  0
LINE
  5
1E6F
100
AcDbEntity
  8
FASTENER
100
AcDbLine
 10
75.880382
 20
50.858543
 30
0.0
 11
76.098107
 21
50.981407
 31
0.0
  0
ELLIPSE
  5
1E70
100
AcDbEntity
  8
FASTENER
100
AcDbEllipse
 10
77.347935
 20
50.284397
 30
0.0
 11
-0.0765465544619742
 21
-0.1325825214724724
 31
0.0
210
0.0
220
0.0
230
1.0
 40
0.57735
 41
0.0000000000006143
 42
6.283185307180215
  0
LINE
  5
1E71
100
AcDbEntity
  8
FASTENER
100
AcDbLine
 10
77.347935
 20
50.409397
 30
0.0
 11
77.347935
 21
50.159397
 31
0.0
  0
LINE
  5
1E72
100
AcDbEntity
  8
FASTENER
100
AcDbLine
 10
77.239073
 20
50.222965
 30
0.0
 11
77.456798
 21
50.345829
 31
0.0
  0
ELLIPSE
  5
1E73
100
AcDbEntity
  8
FASTENER
100
AcDbEllipse
 10
75.353667
 20
49.561284
 30
0.0
 11
-0.0765465544619742
 21
-0.1325825214724724
 31
0.0
210
0.0
220
0.0
230
1.0
 40
0.57735
 41
0.0000000000006143
 42
6.283185307180215
  0
LINE
  5
1E74
100
AcDbEntity
  8
FASTENER
100
AcDbLine
 10
75.353667
 20
49.686284
 30
0.0
 11
75.353667
 21
49.436284
 31
0.0
  0
LINE
  5
1E75
100
AcDbEntity
  8
FASTENER
100
AcDbLine
 10
75.244804
 20
49.499852
 30
0.0
 11
75.462529
 21
49.622716
 31
0.0
  0
ELLIPSE
  5
1E76
100
AcDbEntity
  8
FASTENER
100
AcDbEllipse
 10
76.712357
 20
48.925706
 30
0.0
 11
-0.0765465544619742
 21
-0.1325825214724724
 31
0.0
210
0.0
220
0.0
230
1.0
 40
0.57735
 41
0.0000000000006143
 42
6.283185307180215
  0
LINE
  5
1E77
100
AcDbEntity
  8
FASTENER
100
AcDbLine
 10
76.712357
 20
49.050706
 30
0.0
 11
76.712357
 21
48.800706
 31
0.0
  0
LINE
  5
1E78
100
AcDbEntity
  8
FASTENER
100
AcDbLine
 10
76.603494
 20
48.864274
 30
0.0
 11
76.82122
 21
48.987138
 31
0.0
  0
ELLIPSE
  5
1E79
100
AcDbEntity
  8
FASTENER
100
AcDbEllipse
 10
74.718088
 20
48.202593
 30
0.0
 11
-0.0765465544619742
 21
-0.1325825214724724
 31
0.0
210
0.0
220
0.0
230
1.0
 40
0.57735
 41
0.0000000000006143
 42
6.283185307180215
  0
LINE
  5
1E7A
100
AcDbEntity
  8
FASTENER
100
AcDbLine
 10
74.718088
 20
48.327593
 30
0.0
 11
74.718088
 21
48.077593
 31
0.0
  0
LINE
  5
1E7B
100
AcDbEntity
  8
FASTENER
100
AcDbLine
 10
74.609226
 20
48.141161
 30
0.0
 11
74.826951
 21
48.264025
 31
0.0
  0
ELLIPSE
  5
1E7C
100
AcDbEntity
  8
FASTENER
100
AcDbEllipse
 10
76.076779
 20
47.567015
 30
0.0
 11
-0.0765465544619742
 21
-0.1325825214724724
 31
0.0
210
0.0
220
0.0
230
1.0
 40
0.57735
 41
0.0000000000006143
 42
6.283185307180215
  0
LINE
  5
1E7D
100
AcDbEntity
  8
FASTENER
100
AcDbLine
 10
76.076779
 20
47.692015
 30
0.0
 11
76.076779
 21
47.442015
 31
0.0
  0
LINE
  5
1E7E
100
AcDbEntity
  8
FASTENER
100
AcDbLine
 10
75.967916
 20
47.505583
 30
0.0
 11
76.185642
 21
47.628447
 31
0.0
  0
LINE
  5
1E9E
100
AcDbEntity
  8
FASTENER
100
AcDbLine
 10
117.112052
 20
70.032555
 30
0.0
 11
117.329778
 21
70.155418
 31
0.0
  0
LINE
  5
1E9F
100
AcDbEntity
  8
FASTENER
100
AcDbLine
 10
117.220915
 20
70.218986
 30
0.0
 11
117.220915
 21
69.968986
 31
0.0
  0
ELLIPSE
  5
1EA0
100
AcDbEntity
  8
FASTENER
100
AcDbEllipse
 10
117.220915
 20
70.093986
 30
0.0
 11
-0.0765465544619743
 21
-0.1325825214724723
 31
0.0
210
0.0
220
0.0
230
1.0
 40
0.57735
 41
0.0000000000006153
 42
6.283185307180215
  0
LINE
  5
1F43
100
AcDbEntity
  8
FASTENER
100
AcDbLine
 10
114.547469
 20
68.551892
 30
0.0
 11
114.765195
 21
68.674756
 31
0.0
  0
LINE
  5
1F44
100
AcDbEntity
  8
FASTENER
100
AcDbLine
 10
114.656332
 20
68.738324
 30
0.0
 11
114.656332
 21
68.488324
 31
0.0
  0
ELLIPSE
  5
1F45
100
AcDbEntity
  8
FASTENER
100
AcDbEllipse
 10
114.656332
 20
68.613324
 30
0.0
 11
-0.0765465544619743
 21
-0.1325825214724723
 31
0.0
210
0.0
220
0.0
230
1.0
 40
0.57735
 41
0.0000000000006153
 42
6.283185307180215
  0
LINE
  5
1F46
100
AcDbEntity
  8
FASTENER
100
AcDbLine
 10
113.265178
 20
67.811561
 30
0.0
 11
113.482904
 21
67.934425
 31
0.0
  0
LINE
  5
1F47
100
AcDbEntity
  8
FASTENER
100
AcDbLine
 10
113.374041
 20
67.997993
 30
0.0
 11
113.374041
 21
67.747993
 31
0.0
  0
ELLIPSE
  5
1F48
100
AcDbEntity
  8
FASTENER
100
AcDbEllipse
 10
113.374041
 20
67.872993
 30
0.0
 11
-0.0765465544619743
 21
-0.1325825214724723
 31
0.0
210
0.0
220
0.0
230
1.0
 40
0.57735
 41
0.0000000000006153
 42
6.283185307180215
  0
LINE
  5
1F49
100
AcDbEntity
  8
FASTENER
100
AcDbLine
 10
111.982887
 20
67.07123
 30
0.0
 11
112.200612
 21
67.194094
 31
0.0
  0
LINE
  5
1F4A
100
AcDbEntity
  8
FASTENER
100
AcDbLine
 10
112.09175
 20
67.257662
 30
0.0
 11
112.09175
 21
67.007662
 31
0.0
  0
ELLIPSE
  5
1F4B
100
AcDbEntity
  8
FASTENER
100
AcDbEllipse
 10
112.09175
 20
67.132662
 30
0.0
 11
-0.0765465544619743
 21
-0.1325825214724723
 31
0.0
210
0.0
220
0.0
230
1.0
 40
0.57735
 41
0.0000000000006153
 42
6.283185307180215
  0
LINE
  5
1F4C
100
AcDbEntity
  8
FASTENER
100
AcDbLine
 10
110.700595
 20
66.330898
 30
0.0
 11
110.918321
 21
66.453762
 31
0.0
  0
LINE
  5
1F4D
100
AcDbEntity
  8
FASTENER
100
AcDbLine
 10
110.809458
 20
66.51733
 30
0.0
 11
110.809458
 21
66.26733
 31
0.0
  0
ELLIPSE
  5
1F4E
100
AcDbEntity
  8
FASTENER
100
AcDbEllipse
 10
110.809458
 20
66.39233
 30
0.0
 11
-0.0765465544619743
 21
-0.1325825214724723
 31
0.0
210
0.0
220
0.0
230
1.0
 40
0.57735
 41
0.0000000000006153
 42
6.283185307180215
  0
LINE
  5
1F52
100
AcDbEntity
  8
FASTENER
100
AcDbLine
 10
114.214693
 20
74.226867
 30
0.0
 11
114.432419
 21
74.349731
 31
0.0
  0
LINE
  5
1F53
100
AcDbEntity
  8
FASTENER
100
AcDbLine
 10
114.323556
 20
74.413299
 30
0.0
 11
114.323556
 21
74.163299
 31
0.0
  0
ELLIPSE
  5
1F54
100
AcDbEntity
  8
FASTENER
100
AcDbEllipse
 10
114.323556
 20
74.288299
 30
0.0
 11
-0.0765465544619743
 21
-0.1325825214724723
 31
0.0
210
0.0
220
0.0
230
1.0
 40
0.57735
 41
0.0000000000006153
 42
6.283185307180215
  0
ELLIPSE
  5
1F55
100
AcDbEntity
  8
FASTENER
100
AcDbEllipse
 10
113.27571
 20
73.214978
 30
0.0
 11
-0.0765465544619743
 21
-0.1325825214724723
 31
0.0
210
0.0
220
0.0
230
1.0
 40
0.57735
 41
0.0000000000006153
 42
6.283185307180215
  0
LINE
  5
1F56
100
AcDbEntity
  8
FASTENER
100
AcDbLine
 10
113.27571
 20
73.339978
 30
0.0
 11
113.27571
 21
73.089978
 31
0.0
  0
LINE
  5
1F57
100
AcDbEntity
  8
FASTENER
100
AcDbLine
 10
113.166847
 20
73.153546
 30
0.0
 11
113.384573
 21
73.27641
 31
0.0
  0
ELLIPSE
  5
1F58
100
AcDbEntity
  8
FASTENER
100
AcDbEllipse
 10
117.220915
 20
78.593986
 30
0.0
 11
-0.0765465544619743
 21
-0.1325825214724723
 31
0.0
210
0.0
220
0.0
230
1.0
 40
0.57735
 41
0.0000000000006153
 42
6.283185307180215
  0
LINE
  5
1F59
100
AcDbEntity
  8
FASTENER
100
AcDbLine
 10
117.220915
 20
78.718986
 30
0.0
 11
117.220915
 21
78.468986
 31
0.0
  0
LINE
  5
1F5A
100
AcDbEntity
  8
FASTENER
100
AcDbLine
 10
117.112052
 20
78.532555
 30
0.0
 11
117.329778
 21
78.655418
 31
0.0
  0
LINE
  5
1F5B
100
AcDbEntity
  8
FASTENER
100
AcDbLine
 10
115.829761
 20
77.792223
 30
0.0
 11
116.047486
 21
77.915087
 31
0.0
  0
LINE
  5
1F5C
100
AcDbEntity
  8
FASTENER
100
AcDbLine
 10
115.938623
 20
77.978655
 30
0.0
 11
115.938623
 21
77.728655
 31
0.0
  0
ELLIPSE
  5
1F5D
100
AcDbEntity
  8
FASTENER
100
AcDbEllipse
 10
115.938623
 20
77.853655
 30
0.0
 11
-0.0765465544619743
 21
-0.1325825214724723
 31
0.0
210
0.0
220
0.0
230
1.0
 40
0.57735
 41
0.0000000000006153
 42
6.283185307180215
  0
ELLIPSE
  5
1F5E
100
AcDbEntity
  8
FASTENER
100
AcDbEllipse
 10
115.938623
 20
76.853655
 30
0.0
 11
-0.0765465544619743
 21
-0.1325825214724723
 31
0.0
210
0.0
220
0.0
230
1.0
 40
0.57735
 41
0.0000000000006153
 42
6.283185307180215
  0
LINE
  5
1F5F
100
AcDbEntity
  8
FASTENER
100
AcDbLine
 10
115.938623
 20
76.978655
 30
0.0
 11
115.938623
 21
76.728655
 31
0.0
  0
LINE
  5
1F60
100
AcDbEntity
  8
FASTENER
100
AcDbLine
 10
115.829761
 20
76.792223
 30
0.0
 11
116.047486
 21
76.915087
 31
0.0
  0
LINE
  5
1F61
100
AcDbEntity
  8
FASTENER
100
AcDbLine
 10
117.112052
 20
77.532555
 30
0.0
 11
117.329778
 21
77.655418
 31
0.0
  0
LINE
  5
1F62
100
AcDbEntity
  8
FASTENER
100
AcDbLine
 10
117.220915
 20
77.718986
 30
0.0
 11
117.220915
 21
77.468986
 31
0.0
  0
ELLIPSE
  5
1F63
100
AcDbEntity
  8
FASTENER
100
AcDbEllipse
 10
117.220915
 20
77.593986
 30
0.0
 11
-0.0765465544619743
 21
-0.1325825214724723
 31
0.0
210
0.0
220
0.0
230
1.0
 40
0.57735
 41
0.0000000000006153
 42
6.283185307180215
  0
ELLIPSE
  5
1F64
100
AcDbEntity
  8
FASTENER
100
AcDbEllipse
 10
115.938623
 20
75.853655
 30
0.0
 11
-0.0765465544619743
 21
-0.1325825214724723
 31
0.0
210
0.0
220
0.0
230
1.0
 40
0.57735
 41
0.0000000000006153
 42
6.283185307180215
  0
LINE
  5
1F65
100
AcDbEntity
  8
FASTENER
100
AcDbLine
 10
115.938623
 20
75.978655
 30
0.0
 11
115.938623
 21
75.728655
 31
0.0
  0
LINE
  5
1F66
100
AcDbEntity
  8
FASTENER
100
AcDbLine
 10
115.829761
 20
75.792223
 30
0.0
 11
116.047486
 21
75.915087
 31
0.0
  0
LINE
  5
1F67
100
AcDbEntity
  8
FASTENER
100
AcDbLine
 10
117.112052
 20
76.532555
 30
0.0
 11
117.329778
 21
76.655418
 31
0.0
  0
LINE
  5
1F68
100
AcDbEntity
  8
FASTENER
100
AcDbLine
 10
117.220915
 20
76.718986
 30
0.0
 11
117.220915
 21
76.468986
 31
0.0
  0
ELLIPSE
  5
1F69
100
AcDbEntity
  8
FASTENER
100
AcDbEllipse
 10
117.220915
 20
76.593986
 30
0.0
 11
-0.0765465544619743
 21
-0.1325825214724723
 31
0.0
210
0.0
220
0.0
230
1.0
 40
0.57735
 41
0.0000000000006153
 42
6.283185307180215
  0
ELLIPSE
  5
1F6A
100
AcDbEntity
  8
FASTENER
100
AcDbEllipse
 10
115.938623
 20
74.853655
 30
0.0
 11
-0.0765465544619743
 21
-0.1325825214724723
 31
0.0
210
0.0
220
0.0
230
1.0
 40
0.57735
 41
0.0000000000006153
 42
6.283185307180215
  0
LINE
  5
1F6B
100
AcDbEntity
  8
FASTENER
100
AcDbLine
 10
115.938623
 20
74.978655
 30
0.0
 11
115.938623
 21
74.728655
 31
0.0
  0
LINE
  5
1F6C
100
AcDbEntity
  8
FASTENER
100
AcDbLine
 10
115.829761
 20
74.792223
 30
0.0
 11
116.047486
 21
74.915087
 31
0.0
  0
LINE
  5
1F6D
100
AcDbEntity
  8
FASTENER
100
AcDbLine
 10
117.112052
 20
75.532555
 30
0.0
 11
117.329778
 21
75.655418
 31
0.0
  0
LINE
  5
1F6E
100
AcDbEntity
  8
FASTENER
100
AcDbLine
 10
117.220915
 20
75.718986
 30
0.0
 11
117.220915
 21
75.468986
 31
0.0
  0
ELLIPSE
  5
1F6F
100
AcDbEntity
  8
FASTENER
100
AcDbEllipse
 10
117.220915
 20
75.593986
 30
0.0
 11
-0.0765465544619743
 21
-0.1325825214724723
 31
0.0
210
0.0
220
0.0
230
1.0
 40
0.57735
 41
0.0000000000006153
 42
6.283185307180215
  0
ELLIPSE
  5
1F70
100
AcDbEntity
  8
FASTENER
100
AcDbEllipse
 10
115.938623
 20
73.853655
 30
0.0
 11
-0.0765465544619743
 21
-0.1325825214724723
 31
0.0
210
0.0
220
0.0
230
1.0
 40
0.57735
 41
0.0000000000006153
 42
6.283185307180215
  0
LINE
  5
1F71
100
AcDbEntity
  8
FASTENER
100
AcDbLine
 10
115.938623
 20
73.978655
 30
0.0
 11
115.938623
 21
73.728655
 31
0.0
  0
LINE
  5
1F72
100
AcDbEntity
  8
FASTENER
100
AcDbLine
 10
115.829761
 20
73.792223
 30
0.0
 11
116.047486
 21
73.915087
 31
0.0
  0
LINE
  5
1F73
100
AcDbEntity
  8
FASTENER
100
AcDbLine
 10
117.112052
 20
74.532555
 30
0.0
 11
117.329778
 21
74.655418
 31
0.0
  0
LINE
  5
1F74
100
AcDbEntity
  8
FASTENER
100
AcDbLine
 10
117.220915
 20
74.718986
 30
0.0
 11
117.220915
 21
74.468986
 31
0.0
  0
ELLIPSE
  5
1F75
100
AcDbEntity
  8
FASTENER
100
AcDbEllipse
 10
117.220915
 20
74.593986
 30
0.0
 11
-0.0765465544619743
 21
-0.1325825214724723
 31
0.0
210
0.0
220
0.0
230
1.0
 40
0.57735
 41
0.0000000000006153
 42
6.283185307180215
  0
LINE
  5
1F79
100
AcDbEntity
  8
FASTENER
100
AcDbLine
 10
117.112052
 20
73.532555
 30
0.0
 11
117.329778
 21
73.655418
 31
0.0
  0
LINE
  5
1F7A
100
AcDbEntity
  8
FASTENER
100
AcDbLine
 10
117.220915
 20
73.718986
 30
0.0
 11
117.220915
 21
73.468986
 31
0.0
  0
ELLIPSE
  5
1F7B
100
AcDbEntity
  8
FASTENER
100
AcDbEllipse
 10
117.220915
 20
73.593986
 30
0.0
 11
-0.0765465544619743
 21
-0.1325825214724723
 31
0.0
210
0.0
220
0.0
230
1.0
 40
0.57735
 41
0.0000000000006153
 42
6.283185307180215
  0
LINE
  5
1F7C
100
AcDbEntity
  8
FASTENER
100
AcDbLine
 10
112.09395
 20
74.201826
 30
0.0
 11
112.311675
 21
74.32469
 31
0.0
  0
LINE
  5
1F7D
100
AcDbEntity
  8
FASTENER
100
AcDbLine
 10
112.202812
 20
74.388258
 30
0.0
 11
112.202812
 21
74.138258
 31
0.0
  0
ELLIPSE
  5
1F7E
100
AcDbEntity
  8
FASTENER
100
AcDbEllipse
 10
112.202812
 20
74.263258
 30
0.0
 11
-0.0765465544619743
 21
-0.1325825214724723
 31
0.0
210
0.0
220
0.0
230
1.0
 40
0.57735
 41
0.0000000000006153
 42
6.283185307180215
  0
ELLIPSE
  5
1F7F
100
AcDbEntity
  8
FASTENER
100
AcDbEllipse
 10
113.250658
 20
75.336579
 30
0.0
 11
-0.0765465544619743
 21
-0.1325825214724723
 31
0.0
210
0.0
220
0.0
230
1.0
 40
0.57735
 41
0.0000000000006153
 42
6.283185307180215
  0
LINE
  5
1F80
100
AcDbEntity
  8
FASTENER
100
AcDbLine
 10
113.250658
 20
75.461579
 30
0.0
 11
113.250658
 21
75.211579
 31
0.0
  0
LINE
  5
1F81
100
AcDbEntity
  8
FASTENER
100
AcDbLine
 10
113.141795
 20
75.275147
 30
0.0
 11
113.359521
 21
75.398011
 31
0.0
  0
LINE
  5
1F82
100
AcDbEntity
  8
FASTENER
100
AcDbLine
 10
114.239745
 20
72.105267
 30
0.0
 11
114.457471
 21
72.22813
 31
0.0
  0
LINE
  5
1F83
100
AcDbEntity
  8
FASTENER
100
AcDbLine
 10
114.348608
 20
72.291698
 30
0.0
 11
114.348608
 21
72.041698
 31
0.0
  0
ELLIPSE
  5
1F84
100
AcDbEntity
  8
FASTENER
100
AcDbEllipse
 10
114.348608
 20
72.166698
 30
0.0
 11
-0.0765465544619743
 21
-0.1325825214724723
 31
0.0
210
0.0
220
0.0
230
1.0
 40
0.57735
 41
0.0000000000006153
 42
6.283185307180215
  0
ELLIPSE
  5
1F85
100
AcDbEntity
  8
FASTENER
100
AcDbEllipse
 10
115.396454
 20
73.24002
 30
0.0
 11
-0.0765465544619743
 21
-0.1325825214724723
 31
0.0
210
0.0
220
0.0
230
1.0
 40
0.57735
 41
0.0000000000006153
 42
6.283185307180215
  0
LINE
  5
1F86
100
AcDbEntity
  8
FASTENER
100
AcDbLine
 10
115.396454
 20
73.36502
 30
0.0
 11
115.396454
 21
73.11502
 31
0.0
  0
LINE
  5
1F87
100
AcDbEntity
  8
FASTENER
100
AcDbLine
 10
115.287591
 20
73.178588
 30
0.0
 11
115.505317
 21
73.301452
 31
0.0
  0
LINE
  5
1F88
100
AcDbEntity
  8
FASTENER
100
AcDbLine
 10
115.312643
 20
71.056987
 30
0.0
 11
115.530369
 21
71.179851
 31
0.0
  0
LINE
  5
1F89
100
AcDbEntity
  8
FASTENER
100
AcDbLine
 10
115.421506
 20
71.243419
 30
0.0
 11
115.421506
 21
70.993419
 31
0.0
  0
ELLIPSE
  5
1F8A
100
AcDbEntity
  8
FASTENER
100
AcDbEllipse
 10
115.421506
 20
71.118419
 30
0.0
 11
-0.0765465544619743
 21
-0.1325825214724723
 31
0.0
210
0.0
220
0.0
230
1.0
 40
0.57735
 41
0.0000000000006153
 42
6.283185307180215
  0
ELLIPSE
  5
1F8B
100
AcDbEntity
  8
FASTENER
100
AcDbEllipse
 10
116.469352
 20
72.19174
 30
0.0
 11
-0.0765465544619743
 21
-0.1325825214724723
 31
0.0
210
0.0
220
0.0
230
1.0
 40
0.57735
 41
0.0000000000006153
 42
6.283185307180215
  0
LINE
  5
1F8C
100
AcDbEntity
  8
FASTENER
100
AcDbLine
 10
116.469352
 20
72.31674
 30
0.0
 11
116.469352
 21
72.06674
 31
0.0
  0
LINE
  5
1F8D
100
AcDbEntity
  8
FASTENER
100
AcDbLine
 10
116.360489
 20
72.130308
 30
0.0
 11
116.578215
 21
72.253172
 31
0.0
  0
LINE
  5
1F8E
100
AcDbEntity
  8
FASTENER
100
AcDbLine
 10
116.226803
 20
70.181378
 30
0.0
 11
116.444529
 21
70.304242
 31
0.0
  0
LINE
  5
1F8F
100
AcDbEntity
  8
FASTENER
100
AcDbLine
 10
116.335666
 20
70.36781
 30
0.0
 11
116.335666
 21
70.11781
 31
0.0
  0
ELLIPSE
  5
1F90
100
AcDbEntity
  8
FASTENER
100
AcDbEllipse
 10
116.335666
 20
70.24281
 30
0.0
 11
-0.0765465544619743
 21
-0.1325825214724723
 31
0.0
210
0.0
220
0.0
230
1.0
 40
0.57735
 41
0.0000000000006153
 42
6.283185307180215
  0
ELLIPSE
  5
1F91
100
AcDbEntity
  8
FASTENER
100
AcDbEllipse
 10
117.383512
 20
71.316132
 30
0.0
 11
-0.0765465544619743
 21
-0.1325825214724723
 31
0.0
210
0.0
220
0.0
230
1.0
 40
0.57735
 41
0.0000000000006153
 42
6.283185307180215
  0
LINE
  5
1F92
100
AcDbEntity
  8
FASTENER
100
AcDbLine
 10
117.383512
 20
71.441132
 30
0.0
 11
117.383512
 21
71.191132
 31
0.0
  0
LINE
  5
1F93
100
AcDbEntity
  8
FASTENER
100
AcDbLine
 10
117.274649
 20
71.2547
 30
0.0
 11
117.492375
 21
71.377564
 31
0.0
  0
ELLIPSE
  5
1F94
100
AcDbEntity
  8
FASTENER
100
AcDbEllipse
 10
75.484225
 20
113.374748
 30
0.0
 11
-0.0765465544619743
 21
-0.1325825214724723
 31
0.0
210
0.0
220
0.0
230
1.0
 40
0.57735
 41
0.0000000000003957
 42
6.283185307179996
  0
LINE
  5
1F95
100
AcDbEntity
  8
FASTENER
100
AcDbLine
 10
75.484225
 20
113.499748
 30
0.0
 11
75.484225
 21
113.249748
 31
0.0
  0
LINE
  5
1F96
100
AcDbEntity
  8
FASTENER
100
AcDbLine
 10
75.375363
 20
113.313316
 30
0.0
 11
75.593088
 21
113.43618
 31
0.0
  0
LINE
  5
1F97
100
AcDbEntity
  8
FASTENER
100
AcDbLine
 10
74.076325
 20
112.563316
 30
0.0
 11
74.29405
 21
112.68618
 31
0.0
  0
LINE
  5
1F98
100
AcDbEntity
  8
FASTENER
100
AcDbLine
 10
74.185187
 20
112.749748
 30
0.0
 11
74.185187
 21
112.499748
 31
0.0
  0
ELLIPSE
  5
1F99
100
AcDbEntity
  8
FASTENER
100
AcDbEllipse
 10
74.185187
 20
112.624748
 30
0.0
 11
-0.0765465544619743
 21
-0.1325825214724723
 31
0.0
210
0.0
220
0.0
230
1.0
 40
0.57735
 41
0.0000000000003957
 42
6.283185307179996
  0
LINE
  5
1F9A
100
AcDbEntity
  8
FASTENER
100
AcDbLine
 10
76.674401
 20
114.063316
 30
0.0
 11
76.892126
 21
114.18618
 31
0.0
  0
LINE
  5
1F9B
100
AcDbEntity
  8
FASTENER
100
AcDbLine
 10
76.783264
 20
114.249748
 30
0.0
 11
76.783264
 21
113.999748
 31
0.0
  0
ELLIPSE
  5
1F9C
100
AcDbEntity
  8
FASTENER
100
AcDbEllipse
 10
76.783264
 20
114.124748
 30
0.0
 11
-0.0765465544619743
 21
-0.1325825214724723
 31
0.0
210
0.0
220
0.0
230
1.0
 40
0.57735
 41
0.0000000000003957
 42
6.283185307179996
  0
LINE
  5
1F9D
100
AcDbEntity
  8
FASTENER
100
AcDbLine
 10
77.973439
 20
114.813316
 30
0.0
 11
78.191164
 21
114.93618
 31
0.0
  0
LINE
  5
1F9E
100
AcDbEntity
  8
FASTENER
100
AcDbLine
 10
78.082302
 20
114.999748
 30
0.0
 11
78.082302
 21
114.749748
 31
0.0
  0
ELLIPSE
  5
1F9F
100
AcDbEntity
  8
FASTENER
100
AcDbEllipse
 10
78.082302
 20
114.874748
 30
0.0
 11
-0.0765465544619743
 21
-0.1325825214724723
 31
0.0
210
0.0
220
0.0
230
1.0
 40
0.57735
 41
0.0000000000006153
 42
6.283185307180215
  0
LINE
  5
1FA0
100
AcDbEntity
  8
FASTENER
100
AcDbLine
 10
79.272477
 20
115.563316
 30
0.0
 11
79.490203
 21
115.68618
 31
0.0
  0
LINE
  5
1FA1
100
AcDbEntity
  8
FASTENER
100
AcDbLine
 10
79.38134
 20
115.749748
 30
0.0
 11
79.38134
 21
115.499748
 31
0.0
  0
ELLIPSE
  5
1FA2
100
AcDbEntity
  8
FASTENER
100
AcDbEllipse
 10
79.38134
 20
115.624748
 30
0.0
 11
-0.0765465544619743
 21
-0.1325825214724723
 31
0.0
210
0.0
220
0.0
230
1.0
 40
0.57735
 41
0.0000000000006153
 42
6.283185307180215
  0
LINE
  5
1FA3
100
AcDbEntity
  8
FASTENER
100
AcDbLine
 10
80.571515
 20
116.313316
 30
0.0
 11
80.789241
 21
116.43618
 31
0.0
  0
LINE
  5
1FA4
100
AcDbEntity
  8
FASTENER
100
AcDbLine
 10
80.680378
 20
116.499748
 30
0.0
 11
80.680378
 21
116.249748
 31
0.0
  0
ELLIPSE
  5
1FA5
100
AcDbEntity
  8
FASTENER
100
AcDbEllipse
 10
80.680378
 20
116.374748
 30
0.0
 11
-0.0765465544619743
 21
-0.1325825214724723
 31
0.0
210
0.0
220
0.0
230
1.0
 40
0.57735
 41
0.0000000000006153
 42
6.283185307180215
  0
LINE
  5
1FA6
100
AcDbEntity
  8
FASTENER
100
AcDbLine
 10
81.870553
 20
117.063316
 30
0.0
 11
82.088279
 21
117.18618
 31
0.0
  0
LINE
  5
1FA7
100
AcDbEntity
  8
FASTENER
100
AcDbLine
 10
81.979416
 20
117.249748
 30
0.0
 11
81.979416
 21
116.999748
 31
0.0
  0
ELLIPSE
  5
1FA8
100
AcDbEntity
  8
FASTENER
100
AcDbEllipse
 10
81.979416
 20
117.124748
 30
0.0
 11
-0.0765465544619743
 21
-0.1325825214724723
 31
0.0
210
0.0
220
0.0
230
1.0
 40
0.57735
 41
0.0000000000006153
 42
6.283185307180215
  0
ELLIPSE
  5
1FA9
100
AcDbEntity
  8
FASTENER
100
AcDbEllipse
 10
73.968681
 20
103.999748
 30
0.0
 11
-0.0765465544619743
 21
-0.1325825214724723
 31
0.0
210
0.0
220
0.0
230
1.0
 40
0.57735
 41
0.0000000000003957
 42
6.283185307179996
  0
LINE
  5
1FAA
100
AcDbEntity
  8
FASTENER
100
AcDbLine
 10
73.968681
 20
104.124748
 30
0.0
 11
73.968681
 21
103.874748
 31
0.0
  0
LINE
  5
1FAB
100
AcDbEntity
  8
FASTENER
100
AcDbLine
 10
73.859818
 20
103.938316
 30
0.0
 11
74.077544
 21
104.06118
 31
0.0
  0
LINE
  5
1FAC
100
AcDbEntity
  8
FASTENER
100
AcDbLine
 10
75.158856
 20
104.688316
 30
0.0
 11
75.376582
 21
104.81118
 31
0.0
  0
LINE
  5
1FAD
100
AcDbEntity
  8
FASTENER
100
AcDbLine
 10
75.267719
 20
104.874748
 30
0.0
 11
75.267719
 21
104.624748
 31
0.0
  0
ELLIPSE
  5
1FAE
100
AcDbEntity
  8
FASTENER
100
AcDbEllipse
 10
75.267719
 20
104.749748
 30
0.0
 11
-0.0765465544619743
 21
-0.1325825214724723
 31
0.0
210
0.0
220
0.0
230
1.0
 40
0.57735
 41
0.0000000000003957
 42
6.283185307179996
  0
ELLIPSE
  5
1FAF
100
AcDbEntity
  8
FASTENER
100
AcDbEllipse
 10
75.267719
 20
105.749748
 30
0.0
 11
-0.0765465544619743
 21
-0.1325825214724723
 31
0.0
210
0.0
220
0.0
230
1.0
 40
0.57735
 41
0.0000000000003957
 42
6.283185307179996
  0
LINE
  5
1FB0
100
AcDbEntity
  8
FASTENER
100
AcDbLine
 10
75.267719
 20
105.874748
 30
0.0
 11
75.267719
 21
105.624748
 31
0.0
  0
LINE
  5
1FB1
100
AcDbEntity
  8
FASTENER
100
AcDbLine
 10
75.158856
 20
105.688316
 30
0.0
 11
75.376582
 21
105.81118
 31
0.0
  0
LINE
  5
1FB2
100
AcDbEntity
  8
FASTENER
100
AcDbLine
 10
73.859818
 20
104.938316
 30
0.0
 11
74.077544
 21
105.06118
 31
0.0
  0
LINE
  5
1FB3
100
AcDbEntity
  8
FASTENER
100
AcDbLine
 10
73.968681
 20
105.124748
 30
0.0
 11
73.968681
 21
104.874748
 31
0.0
  0
ELLIPSE
  5
1FB4
100
AcDbEntity
  8
FASTENER
100
AcDbEllipse
 10
73.968681
 20
104.999748
 30
0.0
 11
-0.0765465544619743
 21
-0.1325825214724723
 31
0.0
210
0.0
220
0.0
230
1.0
 40
0.57735
 41
0.0000000000003957
 42
6.283185307179996
  0
ELLIPSE
  5
1FB5
100
AcDbEntity
  8
FASTENER
100
AcDbEllipse
 10
75.267719
 20
106.749748
 30
0.0
 11
-0.0765465544619743
 21
-0.1325825214724723
 31
0.0
210
0.0
220
0.0
230
1.0
 40
0.57735
 41
0.0000000000003957
 42
6.283185307179996
  0
LINE
  5
1FB6
100
AcDbEntity
  8
FASTENER
100
AcDbLine
 10
75.267719
 20
106.874748
 30
0.0
 11
75.267719
 21
106.624748
 31
0.0
  0
LINE
  5
1FB7
100
AcDbEntity
  8
FASTENER
100
AcDbLine
 10
75.158856
 20
106.688316
 30
0.0
 11
75.376582
 21
106.81118
 31
0.0
  0
LINE
  5
1FB8
100
AcDbEntity
  8
FASTENER
100
AcDbLine
 10
73.859818
 20
105.938316
 30
0.0
 11
74.077544
 21
106.06118
 31
0.0
  0
LINE
  5
1FB9
100
AcDbEntity
  8
FASTENER
100
AcDbLine
 10
73.968681
 20
106.124748
 30
0.0
 11
73.968681
 21
105.874748
 31
0.0
  0
ELLIPSE
  5
1FBA
100
AcDbEntity
  8
FASTENER
100
AcDbEllipse
 10
73.968681
 20
105.999748
 30
0.0
 11
-0.0765465544619743
 21
-0.1325825214724723
 31
0.0
210
0.0
220
0.0
230
1.0
 40
0.57735
 41
0.0000000000003957
 42
6.283185307179996
  0
ELLIPSE
  5
1FBB
100
AcDbEntity
  8
FASTENER
100
AcDbEllipse
 10
75.267719
 20
107.749748
 30
0.0
 11
-0.0765465544619743
 21
-0.1325825214724723
 31
0.0
210
0.0
220
0.0
230
1.0
 40
0.57735
 41
0.0000000000003957
 42
6.283185307179996
  0
LINE
  5
1FBC
100
AcDbEntity
  8
FASTENER
100
AcDbLine
 10
75.267719
 20
107.874748
 30
0.0
 11
75.267719
 21
107.624748
 31
0.0
  0
LINE
  5
1FBD
100
AcDbEntity
  8
FASTENER
100
AcDbLine
 10
75.158856
 20
107.688316
 30
0.0
 11
75.376582
 21
107.81118
 31
0.0
  0
LINE
  5
1FBE
100
AcDbEntity
  8
FASTENER
100
AcDbLine
 10
73.859818
 20
106.938316
 30
0.0
 11
74.077544
 21
107.06118
 31
0.0
  0
LINE
  5
1FBF
100
AcDbEntity
  8
FASTENER
100
AcDbLine
 10
73.968681
 20
107.124748
 30
0.0
 11
73.968681
 21
106.874748
 31
0.0
  0
ELLIPSE
  5
1FC0
100
AcDbEntity
  8
FASTENER
100
AcDbEllipse
 10
73.968681
 20
106.999748
 30
0.0
 11
-0.0765465544619743
 21
-0.1325825214724723
 31
0.0
210
0.0
220
0.0
230
1.0
 40
0.57735
 41
0.0000000000003957
 42
6.283185307179996
  0
ELLIPSE
  5
1FC1
100
AcDbEntity
  8
FASTENER
100
AcDbEllipse
 10
75.267719
 20
108.749748
 30
0.0
 11
-0.0765465544619743
 21
-0.1325825214724723
 31
0.0
210
0.0
220
0.0
230
1.0
 40
0.57735
 41
0.0000000000003957
 42
6.283185307179996
  0
LINE
  5
1FC2
100
AcDbEntity
  8
FASTENER
100
AcDbLine
 10
75.267719
 20
108.874748
 30
0.0
 11
75.267719
 21
108.624748
 31
0.0
  0
LINE
  5
1FC3
100
AcDbEntity
  8
FASTENER
100
AcDbLine
 10
75.158856
 20
108.688316
 30
0.0
 11
75.376582
 21
108.81118
 31
0.0
  0
LINE
  5
1FC4
100
AcDbEntity
  8
FASTENER
100
AcDbLine
 10
73.859818
 20
107.938316
 30
0.0
 11
74.077544
 21
108.06118
 31
0.0
  0
LINE
  5
1FC5
100
AcDbEntity
  8
FASTENER
100
AcDbLine
 10
73.968681
 20
108.124748
 30
0.0
 11
73.968681
 21
107.874748
 31
0.0
  0
ELLIPSE
  5
1FC6
100
AcDbEntity
  8
FASTENER
100
AcDbEllipse
 10
73.968681
 20
107.999748
 30
0.0
 11
-0.0765465544619743
 21
-0.1325825214724723
 31
0.0
210
0.0
220
0.0
230
1.0
 40
0.57735
 41
0.0000000000003957
 42
6.283185307179996
  0
LINE
  5
1FCA
100
AcDbEntity
  8
FASTENER
100
AcDbLine
 10
73.859818
 20
108.938316
 30
0.0
 11
74.077544
 21
109.06118
 31
0.0
  0
LINE
  5
1FCB
100
AcDbEntity
  8
FASTENER
100
AcDbLine
 10
73.968681
 20
109.124748
 30
0.0
 11
73.968681
 21
108.874748
 31
0.0
  0
ELLIPSE
  5
1FCC
100
AcDbEntity
  8
FASTENER
100
AcDbEllipse
 10
73.968681
 20
108.999748
 30
0.0
 11
-0.0765465544619743
 21
-0.1325825214724723
 31
0.0
210
0.0
220
0.0
230
1.0
 40
0.57735
 41
0.0000000000003957
 42
6.283185307179996
  0
LINE
  5
1FD0
100
AcDbEntity
  8
FASTENER
100
AcDbLine
 10
73.859818
 20
109.938316
 30
0.0
 11
74.077544
 21
110.06118
 31
0.0
  0
LINE
  5
1FD1
100
AcDbEntity
  8
FASTENER
100
AcDbLine
 10
73.968681
 20
110.124748
 30
0.0
 11
73.968681
 21
109.874748
 31
0.0
  0
ELLIPSE
  5
1FD2
100
AcDbEntity
  8
FASTENER
100
AcDbEllipse
 10
73.968681
 20
109.999748
 30
0.0
 11
-0.0765465544619743
 21
-0.1325825214724723
 31
0.0
210
0.0
220
0.0
230
1.0
 40
0.57735
 41
0.0000000000003957
 42
6.283185307179996
  0
LINE
  5
1FDB
100
AcDbEntity
  8
FASTENER
100
AcDbLine
 10
78.187328
 20
107.330439
 30
0.0
 11
78.405054
 21
107.453303
 31
0.0
  0
LINE
  5
1FDC
100
AcDbEntity
  8
FASTENER
100
AcDbLine
 10
78.296191
 20
107.516871
 30
0.0
 11
78.296191
 21
107.266871
 31
0.0
  0
ELLIPSE
  5
1FDD
100
AcDbEntity
  8
FASTENER
100
AcDbEllipse
 10
78.296191
 20
107.391871
 30
0.0
 11
-0.0765465544619743
 21
-0.1325825214724723
 31
0.0
210
0.0
220
0.0
230
1.0
 40
0.57735
 41
0.0000000000006153
 42
6.283185307180215
  0
LINE
  5
1FDE
100
AcDbEntity
  8
FASTENER
100
AcDbLine
 10
79.235608
 20
108.403337
 30
0.0
 11
79.453334
 21
108.5262
 31
0.0
  0
LINE
  5
1FDF
100
AcDbEntity
  8
FASTENER
100
AcDbLine
 10
79.344471
 20
108.589769
 30
0.0
 11
79.344471
 21
108.339769
 31
0.0
  0
ELLIPSE
  5
1FE0
100
AcDbEntity
  8
FASTENER
100
AcDbEllipse
 10
79.344471
 20
108.464769
 30
0.0
 11
-0.0765465544619743
 21
-0.1325825214724723
 31
0.0
210
0.0
220
0.0
230
1.0
 40
0.57735
 41
0.0000000000006153
 42
6.283185307180215
  0
ELLIPSE
  5
1FE1
100
AcDbEntity
  8
FASTENER
100
AcDbEllipse
 10
80.417369
 20
107.416489
 30
0.0
 11
-0.0765465544619743
 21
-0.1325825214724723
 31
0.0
210
0.0
220
0.0
230
1.0
 40
0.57735
 41
0.0000000000006153
 42
6.283185307180215
  0
LINE
  5
1FE2
100
AcDbEntity
  8
FASTENER
100
AcDbLine
 10
80.417369
 20
107.541489
 30
0.0
 11
80.417369
 21
107.291489
 31
0.0
  0
LINE
  5
1FE3
100
AcDbEntity
  8
FASTENER
100
AcDbLine
 10
80.308506
 20
107.355057
 30
0.0
 11
80.526232
 21
107.477921
 31
0.0
  0
ELLIPSE
  5
1FE7
100
AcDbEntity
  8
FASTENER
100
AcDbEllipse
 10
78.271573
 20
109.513048
 30
0.0
 11
-0.0765465544619743
 21
-0.1325825214724723
 31
0.0
210
0.0
220
0.0
230
1.0
 40
0.57735
 41
0.0000000000006153
 42
6.283185307180215
  0
LINE
  5
1FE8
100
AcDbEntity
  8
FASTENER
100
AcDbLine
 10
78.271573
 20
109.638048
 30
0.0
 11
78.271573
 21
109.388048
 31
0.0
  0
LINE
  5
1FE9
100
AcDbEntity
  8
FASTENER
100
AcDbLine
 10
78.16271
 20
109.451616
 30
0.0
 11
78.380436
 21
109.57448
 31
0.0
  0
ELLIPSE
  5
1FEA
100
AcDbEntity
  8
FASTENER
100
AcDbEllipse
 10
77.223293
 20
108.44015
 30
0.0
 11
-0.0765465544619743
 21
-0.1325825214724723
 31
0.0
210
0.0
220
0.0
230
1.0
 40
0.57735
 41
0.0000000000003957
 42
6.283185307179996
  0
LINE
  5
1FEB
100
AcDbEntity
  8
FASTENER
100
AcDbLine
 10
77.223293
 20
108.56515
 30
0.0
 11
77.223293
 21
108.31515
 31
0.0
  0
LINE
  5
1FEC
100
AcDbEntity
  8
FASTENER
100
AcDbLine
 10
77.114431
 20
108.378718
 30
0.0
 11
77.332156
 21
108.501582
 31
0.0
  0
ELLIPSE
  5
1FED
100
AcDbEntity
  8
FASTENER
100
AcDbEllipse
 10
77.198675
 20
110.561328
 30
0.0
 11
-0.0765465544619743
 21
-0.1325825214724723
 31
0.0
210
0.0
220
0.0
230
1.0
 40
0.57735
 41
0.0000000000003957
 42
6.283185307179996
  0
LINE
  5
1FEE
100
AcDbEntity
  8
FASTENER
100
AcDbLine
 10
77.198675
 20
110.686328
 30
0.0
 11
77.198675
 21
110.436328
 31
0.0
  0
LINE
  5
1FEF
100
AcDbEntity
  8
FASTENER
100
AcDbLine
 10
77.089812
 20
110.499896
 30
0.0
 11
77.307538
 21
110.62276
 31
0.0
  0
ELLIPSE
  5
1FF0
100
AcDbEntity
  8
FASTENER
100
AcDbEllipse
 10
76.150395
 20
109.48843
 30
0.0
 11
-0.0765465544619743
 21
-0.1325825214724723
 31
0.0
210
0.0
220
0.0
230
1.0
 40
0.57735
 41
0.0000000000003957
 42
6.283185307179996
  0
LINE
  5
1FF1
100
AcDbEntity
  8
FASTENER
100
AcDbLine
 10
76.150395
 20
109.61343
 30
0.0
 11
76.150395
 21
109.36343
 31
0.0
  0
LINE
  5
1FF2
100
AcDbEntity
  8
FASTENER
100
AcDbLine
 10
76.041533
 20
109.426998
 30
0.0
 11
76.259258
 21
109.549862
 31
0.0
  0
ELLIPSE
  5
1FF3
100
AcDbEntity
  8
FASTENER
100
AcDbEllipse
 10
76.125777
 20
111.609607
 30
0.0
 11
-0.0765465544619743
 21
-0.1325825214724723
 31
0.0
210
0.0
220
0.0
230
1.0
 40
0.57735
 41
0.0000000000003957
 42
6.283185307179996
  0
LINE
  5
1FF4
100
AcDbEntity
  8
FASTENER
100
AcDbLine
 10
76.125777
 20
111.734607
 30
0.0
 11
76.125777
 21
111.484607
 31
0.0
  0
LINE
  5
1FF5
100
AcDbEntity
  8
FASTENER
100
AcDbLine
 10
76.016914
 20
111.548175
 30
0.0
 11
76.23464
 21
111.671039
 31
0.0
  0
ELLIPSE
  5
1FF6
100
AcDbEntity
  8
FASTENER
100
AcDbEllipse
 10
75.077498
 20
110.536709
 30
0.0
 11
-0.0765465544619743
 21
-0.1325825214724723
 31
0.0
210
0.0
220
0.0
230
1.0
 40
0.57735
 41
0.0000000000003957
 42
6.283185307179996
  0
LINE
  5
1FF7
100
AcDbEntity
  8
FASTENER
100
AcDbLine
 10
75.077498
 20
110.661709
 30
0.0
 11
75.077498
 21
110.411709
 31
0.0
  0
LINE
  5
1FF8
100
AcDbEntity
  8
FASTENER
100
AcDbLine
 10
74.968635
 20
110.475277
 30
0.0
 11
75.18636
 21
110.598141
 31
0.0
  0
ELLIPSE
  5
1FF9
100
AcDbEntity
  8
FASTENER
100
AcDbEllipse
 10
75.052879
 20
112.657887
 30
0.0
 11
-0.0765465544619743
 21
-0.1325825214724723
 31
0.0
210
0.0
220
0.0
230
1.0
 40
0.57735
 41
0.0000000000003957
 42
6.283185307179996
  0
LINE
  5
1FFA
100
AcDbEntity
  8
FASTENER
100
AcDbLine
 10
75.052879
 20
112.782887
 30
0.0
 11
75.052879
 21
112.532887
 31
0.0
  0
LINE
  5
1FFB
100
AcDbEntity
  8
FASTENER
100
AcDbLine
 10
74.944016
 20
112.596455
 30
0.0
 11
75.161742
 21
112.719319
 31
0.0
  0
ELLIPSE
  5
1FFC
100
AcDbEntity
  8
FASTENER
100
AcDbEllipse
 10
74.0046
 20
111.584989
 30
0.0
 11
-0.0765465544619743
 21
-0.1325825214724723
 31
0.0
210
0.0
220
0.0
230
1.0
 40
0.57735
 41
0.0000000000003957
 42
6.283185307179996
  0
LINE
  5
1FFD
100
AcDbEntity
  8
FASTENER
100
AcDbLine
 10
74.0046
 20
111.709989
 30
0.0
 11
74.0046
 21
111.459989
 31
0.0
  0
LINE
  5
1FFE
100
AcDbEntity
  8
FASTENER
100
AcDbLine
 10
73.895737
 20
111.523557
 30
0.0
 11
74.113463
 21
111.646421
 31
0.0
  0
ELLIPSE
  5
2016
100
AcDbEntity
  8
FASTENER
100
AcDbEllipse
 10
113.941168
 20
128.510635
 30
0.0
 11
-0.0765465544619743
 21
-0.1325825214724723
 31
0.0
210
0.0
220
0.0
230
1.0
 40
0.57735
 41
0.0000000000006153
 42
6.283185307180215
  0
LINE
  5
2017
100
AcDbEntity
  8
FASTENER
100
AcDbLine
 10
113.941168
 20
128.635635
 30
0.0
 11
113.941168
 21
128.385635
 31
0.0
  0
LINE
  5
2018
100
AcDbEntity
  8
FASTENER
100
AcDbLine
 10
113.832305
 20
128.449203
 30
0.0
 11
114.050031
 21
128.572067
 31
0.0
  0
ELLIPSE
  5
2019
100
AcDbEntity
  8
FASTENER
100
AcDbEllipse
 10
117.220915
 20
128.593986
 30
0.0
 11
-0.0765465544619743
 21
-0.1325825214724723
 31
0.0
210
0.0
220
0.0
230
1.0
 40
0.57735
 41
0.0000000000006153
 42
6.283185307180215
  0
LINE
  5
201A
100
AcDbEntity
  8
FASTENER
100
AcDbLine
 10
117.220915
 20
128.718986
 30
0.0
 11
117.220915
 21
128.468986
 31
0.0
  0
LINE
  5
201B
100
AcDbEntity
  8
FASTENER
100
AcDbLine
 10
117.112052
 20
128.532555
 30
0.0
 11
117.329778
 21
128.655418
 31
0.0
  0
LINE
  5
201C
100
AcDbEntity
  8
FASTENER
100
AcDbLine
 10
115.829761
 20
127.792223
 30
0.0
 11
116.047486
 21
127.915087
 31
0.0
  0
LINE
  5
201D
100
AcDbEntity
  8
FASTENER
100
AcDbLine
 10
115.938623
 20
127.978655
 30
0.0
 11
115.938623
 21
127.728655
 31
0.0
  0
ELLIPSE
  5
201E
100
AcDbEntity
  8
FASTENER
100
AcDbEllipse
 10
115.938623
 20
127.853655
 30
0.0
 11
-0.0765465544619743
 21
-0.1325825214724723
 31
0.0
210
0.0
220
0.0
230
1.0
 40
0.57735
 41
0.0000000000006153
 42
6.283185307180215
  0
ELLIPSE
  5
201F
100
AcDbEntity
  8
FASTENER
100
AcDbEllipse
 10
117.220915
 20
129.593986
 30
0.0
 11
-0.0765465544619743
 21
-0.1325825214724723
 31
0.0
210
0.0
220
0.0
230
1.0
 40
0.57735
 41
0.0000000000006153
 42
6.283185307180215
  0
LINE
  5
2020
100
AcDbEntity
  8
FASTENER
100
AcDbLine
 10
117.220915
 20
129.718986
 30
0.0
 11
117.220915
 21
129.468986
 31
0.0
  0
LINE
  5
2021
100
AcDbEntity
  8
FASTENER
100
AcDbLine
 10
117.112052
 20
129.532555
 30
0.0
 11
117.329778
 21
129.655418
 31
0.0
  0
LINE
  5
2022
100
AcDbEntity
  8
FASTENER
100
AcDbLine
 10
115.829761
 20
128.792223
 30
0.0
 11
116.047486
 21
128.915087
 31
0.0
  0
LINE
  5
2023
100
AcDbEntity
  8
FASTENER
100
AcDbLine
 10
115.938623
 20
128.978655
 30
0.0
 11
115.938623
 21
128.728655
 31
0.0
  0
ELLIPSE
  5
2024
100
AcDbEntity
  8
FASTENER
100
AcDbEllipse
 10
115.938623
 20
128.853655
 30
0.0
 11
-0.0765465544619743
 21
-0.1325825214724723
 31
0.0
210
0.0
220
0.0
230
1.0
 40
0.57735
 41
0.0000000000006153
 42
6.283185307180215
  0
ELLIPSE
  5
2025
100
AcDbEntity
  8
FASTENER
100
AcDbEllipse
 10
117.220915
 20
130.593986
 30
0.0
 11
-0.0765465544619743
 21
-0.1325825214724723
 31
0.0
210
0.0
220
0.0
230
1.0
 40
0.57735
 41
0.0000000000006153
 42
6.283185307180215
  0
LINE
  5
2026
100
AcDbEntity
  8
FASTENER
100
AcDbLine
 10
117.220915
 20
130.718986
 30
0.0
 11
117.220915
 21
130.468986
 31
0.0
  0
LINE
  5
2027
100
AcDbEntity
  8
FASTENER
100
AcDbLine
 10
117.112052
 20
130.532555
 30
0.0
 11
117.329778
 21
130.655418
 31
0.0
  0
LINE
  5
2028
100
AcDbEntity
  8
FASTENER
100
AcDbLine
 10
115.829761
 20
129.792223
 30
0.0
 11
116.047486
 21
129.915087
 31
0.0
  0
LINE
  5
2029
100
AcDbEntity
  8
FASTENER
100
AcDbLine
 10
115.938623
 20
129.978655
 30
0.0
 11
115.938623
 21
129.728655
 31
0.0
  0
ELLIPSE
  5
202A
100
AcDbEntity
  8
FASTENER
100
AcDbEllipse
 10
115.938623
 20
129.853655
 30
0.0
 11
-0.0765465544619743
 21
-0.1325825214724723
 31
0.0
210
0.0
220
0.0
230
1.0
 40
0.57735
 41
0.0000000000006153
 42
6.283185307180215
  0
ELLIPSE
  5
202B
100
AcDbEntity
  8
FASTENER
100
AcDbEllipse
 10
117.220915
 20
131.593986
 30
0.0
 11
-0.0765465544619743
 21
-0.1325825214724723
 31
0.0
210
0.0
220
0.0
230
1.0
 40
0.57735
 41
0.0000000000006153
 42
6.283185307180215
  0
LINE
  5
202C
100
AcDbEntity
  8
FASTENER
100
AcDbLine
 10
117.220915
 20
131.718986
 30
0.0
 11
117.220915
 21
131.468986
 31
0.0
  0
LINE
  5
202D
100
AcDbEntity
  8
FASTENER
100
AcDbLine
 10
117.112052
 20
131.532555
 30
0.0
 11
117.329778
 21
131.655418
 31
0.0
  0
LINE
  5
202E
100
AcDbEntity
  8
FASTENER
100
AcDbLine
 10
115.829761
 20
130.792223
 30
0.0
 11
116.047486
 21
130.915087
 31
0.0
  0
LINE
  5
202F
100
AcDbEntity
  8
FASTENER
100
AcDbLine
 10
115.938623
 20
130.978655
 30
0.0
 11
115.938623
 21
130.728655
 31
0.0
  0
ELLIPSE
  5
2030
100
AcDbEntity
  8
FASTENER
100
AcDbEllipse
 10
115.938623
 20
130.853655
 30
0.0
 11
-0.0765465544619743
 21
-0.1325825214724723
 31
0.0
210
0.0
220
0.0
230
1.0
 40
0.57735
 41
0.0000000000006153
 42
6.283185307180215
  0
LINE
  5
2034
100
AcDbEntity
  8
FASTENER
100
AcDbLine
 10
117.112052
 20
132.532555
 30
0.0
 11
117.329778
 21
132.655418
 31
0.0
  0
LINE
  5
2035
100
AcDbEntity
  8
FASTENER
100
AcDbLine
 10
117.220915
 20
132.718986
 30
0.0
 11
117.220915
 21
132.468986
 31
0.0
  0
ELLIPSE
  5
2036
100
AcDbEntity
  8
FASTENER
100
AcDbEllipse
 10
117.220915
 20
132.593986
 30
0.0
 11
-0.0765465544619743
 21
-0.1325825214724723
 31
0.0
210
0.0
220
0.0
230
1.0
 40
0.57735
 41
0.0000000000006153
 42
6.283185307180215
  0
LINE
  5
2038
100
AcDbEntity
  8
FASTENER
100
AcDbLine
 10
112.473615
 20
129.084781
 30
0.0
 11
112.69134
 21
129.207645
 31
0.0
  0
LINE
  5
2039
100
AcDbEntity
  8
FASTENER
100
AcDbLine
 10
112.582478
 20
129.271213
 30
0.0
 11
112.582478
 21
129.021213
 31
0.0
  0
ELLIPSE
  5
203A
100
AcDbEntity
  8
FASTENER
100
AcDbEllipse
 10
112.582478
 20
129.146213
 30
0.0
 11
-0.0765465544619743
 21
-0.1325825214724723
 31
0.0
210
0.0
220
0.0
230
1.0
 40
0.57735
 41
0.0000000000006153
 42
6.283185307180215
  0
LINE
  5
203B
100
AcDbEntity
  8
FASTENER
100
AcDbLine
 10
115.829761
 20
136.542223
 30
0.0
 11
116.047486
 21
136.665087
 31
0.0
  0
LINE
  5
203C
100
AcDbEntity
  8
FASTENER
100
AcDbLine
 10
115.938623
 20
136.728655
 30
0.0
 11
115.938623
 21
136.478655
 31
0.0
  0
ELLIPSE
  5
203D
100
AcDbEntity
  8
FASTENER
100
AcDbEllipse
 10
115.938623
 20
136.603655
 30
0.0
 11
-0.0765465544619743
 21
-0.1325825214724723
 31
0.0
210
0.0
220
0.0
230
1.0
 40
0.57735
 41
0.0000000000006153
 42
6.283185307180215
  0
ELLIPSE
  5
203E
100
AcDbEntity
  8
FASTENER
100
AcDbEllipse
 10
117.220915
 20
137.343986
 30
0.0
 11
-0.0765465544619743
 21
-0.1325825214724723
 31
0.0
210
0.0
220
0.0
230
1.0
 40
0.57735
 41
0.0000000000006153
 42
6.283185307180215
  0
LINE
  5
203F
100
AcDbEntity
  8
FASTENER
100
AcDbLine
 10
117.220915
 20
137.468986
 30
0.0
 11
117.220915
 21
137.218986
 31
0.0
  0
LINE
  5
2040
100
AcDbEntity
  8
FASTENER
100
AcDbLine
 10
117.112052
 20
137.282555
 30
0.0
 11
117.329778
 21
137.405418
 31
0.0
  0
ELLIPSE
  5
2041
100
AcDbEntity
  8
FASTENER
100
AcDbEllipse
 10
114.656332
 20
135.863324
 30
0.0
 11
-0.0765465544619743
 21
-0.1325825214724723
 31
0.0
210
0.0
220
0.0
230
1.0
 40
0.57735
 41
0.0000000000006153
 42
6.283185307180215
  0
LINE
  5
2042
100
AcDbEntity
  8
FASTENER
100
AcDbLine
 10
114.656332
 20
135.988324
 30
0.0
 11
114.656332
 21
135.738324
 31
0.0
  0
LINE
  5
2043
100
AcDbEntity
  8
FASTENER
100
AcDbLine
 10
114.547469
 20
135.801892
 30
0.0
 11
114.765195
 21
135.924756
 31
0.0
  0
ELLIPSE
  5
2044
100
AcDbEntity
  8
FASTENER
100
AcDbEllipse
 10
113.374041
 20
135.122993
 30
0.0
 11
-0.0765465544619743
 21
-0.1325825214724723
 31
0.0
210
0.0
220
0.0
230
1.0
 40
0.57735
 41
0.0000000000006153
 42
6.283185307180215
  0
LINE
  5
2045
100
AcDbEntity
  8
FASTENER
100
AcDbLine
 10
113.374041
 20
135.247993
 30
0.0
 11
113.374041
 21
134.997993
 31
0.0
  0
LINE
  5
2046
100
AcDbEntity
  8
FASTENER
100
AcDbLine
 10
113.265178
 20
135.061561
 30
0.0
 11
113.482904
 21
135.184425
 31
0.0
  0
ELLIPSE
  5
2047
100
AcDbEntity
  8
FASTENER
100
AcDbEllipse
 10
112.09175
 20
134.382662
 30
0.0
 11
-0.0765465544619743
 21
-0.1325825214724723
 31
0.0
210
0.0
220
0.0
230
1.0
 40
0.57735
 41
0.0000000000006153
 42
6.283185307180215
  0
LINE
  5
2048
100
AcDbEntity
  8
FASTENER
100
AcDbLine
 10
112.09175
 20
134.507662
 30
0.0
 11
112.09175
 21
134.257662
 31
0.0
  0
LINE
  5
2049
100
AcDbEntity
  8
FASTENER
100
AcDbLine
 10
111.982887
 20
134.32123
 30
0.0
 11
112.200612
 21
134.444094
 31
0.0
  0
ELLIPSE
  5
204A
100
AcDbEntity
  8
FASTENER
100
AcDbEllipse
 10
110.809458
 20
133.64233
 30
0.0
 11
-0.0765465544619743
 21
-0.1325825214724723
 31
0.0
210
0.0
220
0.0
230
1.0
 40
0.57735
 41
0.0000000000006153
 42
6.283185307180215
  0
LINE
  5
204B
100
AcDbEntity
  8
FASTENER
100
AcDbLine
 10
110.809458
 20
133.76733
 30
0.0
 11
110.809458
 21
133.51733
 31
0.0
  0
LINE
  5
204C
100
AcDbEntity
  8
FASTENER
100
AcDbLine
 10
110.700595
 20
133.580898
 30
0.0
 11
110.918321
 21
133.703762
 31
0.0
  0
ELLIPSE
  5
2050
100
AcDbEntity
  8
FASTENER
100
AcDbEllipse
 10
111.946899
 20
127.787523
 30
0.0
 11
-0.0765465544619743
 21
-0.1325825214724723
 31
0.0
210
0.0
220
0.0
230
1.0
 40
0.57735
 41
0.0000000000006153
 42
6.283185307180215
  0
LINE
  5
2051
100
AcDbEntity
  8
FASTENER
100
AcDbLine
 10
111.946899
 20
127.912523
 30
0.0
 11
111.946899
 21
127.662523
 31
0.0
  0
LINE
  5
2052
100
AcDbEntity
  8
FASTENER
100
AcDbLine
 10
111.838037
 20
127.726091
 30
0.0
 11
112.055762
 21
127.848955
 31
0.0
  0
LINE
  5
2053
100
AcDbEntity
  8
FASTENER
100
AcDbLine
 10
113.196727
 20
127.090513
 30
0.0
 11
113.414453
 21
127.213377
 31
0.0
  0
LINE
  5
2054
100
AcDbEntity
  8
FASTENER
100
AcDbLine
 10
113.30559
 20
127.276945
 30
0.0
 11
113.30559
 21
127.026945
 31
0.0
  0
ELLIPSE
  5
2055
100
AcDbEntity
  8
FASTENER
100
AcDbEllipse
 10
113.30559
 20
127.151945
 30
0.0
 11
-0.0765465544619743
 21
-0.1325825214724723
 31
0.0
210
0.0
220
0.0
230
1.0
 40
0.57735
 41
0.0000000000006153
 42
6.283185307180215
  0
ELLIPSE
  5
2056
100
AcDbEntity
  8
FASTENER
100
AcDbEllipse
 10
111.311321
 20
126.428832
 30
0.0
 11
-0.0765465544619743
 21
-0.1325825214724723
 31
0.0
210
0.0
220
0.0
230
1.0
 40
0.57735
 41
0.0000000000006153
 42
6.283185307180215
  0
LINE
  5
2057
100
AcDbEntity
  8
FASTENER
100
AcDbLine
 10
111.311321
 20
126.553832
 30
0.0
 11
111.311321
 21
126.303832
 31
0.0
  0
LINE
  5
2058
100
AcDbEntity
  8
FASTENER
100
AcDbLine
 10
111.202459
 20
126.3674
 30
0.0
 11
111.420184
 21
126.490264
 31
0.0
  0
LINE
  5
2059
100
AcDbEntity
  8
FASTENER
100
AcDbLine
 10
112.561149
 20
125.731822
 30
0.0
 11
112.778875
 21
125.854686
 31
0.0
  0
LINE
  5
205A
100
AcDbEntity
  8
FASTENER
100
AcDbLine
 10
112.670012
 20
125.918254
 30
0.0
 11
112.670012
 21
125.668254
 31
0.0
  0
ELLIPSE
  5
205B
100
AcDbEntity
  8
FASTENER
100
AcDbEllipse
 10
112.670012
 20
125.793254
 30
0.0
 11
-0.0765465544619743
 21
-0.1325825214724723
 31
0.0
210
0.0
220
0.0
230
1.0
 40
0.57735
 41
0.0000000000006153
 42
6.283185307180215
  0
ELLIPSE
  5
205C
100
AcDbEntity
  8
FASTENER
100
AcDbEllipse
 10
113.218056
 20
130.504904
 30
0.0
 11
-0.0765465544619743
 21
-0.1325825214724723
 31
0.0
210
0.0
220
0.0
230
1.0
 40
0.57735
 41
0.0000000000006153
 42
6.283185307180215
  0
LINE
  5
205D
100
AcDbEntity
  8
FASTENER
100
AcDbLine
 10
113.218056
 20
130.629904
 30
0.0
 11
113.218056
 21
130.379904
 31
0.0
  0
LINE
  5
205E
100
AcDbEntity
  8
FASTENER
100
AcDbLine
 10
113.109193
 20
130.443472
 30
0.0
 11
113.326919
 21
130.566336
 31
0.0
  0
LINE
  5
205F
100
AcDbEntity
  8
FASTENER
100
AcDbLine
 10
114.467884
 20
129.807894
 30
0.0
 11
114.685609
 21
129.930758
 31
0.0
  0
LINE
  5
2060
100
AcDbEntity
  8
FASTENER
100
AcDbLine
 10
114.576746
 20
129.994326
 30
0.0
 11
114.576746
 21
129.744326
 31
0.0
  0
ELLIPSE
  5
2061
100
AcDbEntity
  8
FASTENER
100
AcDbEllipse
 10
114.576746
 20
129.869326
 30
0.0
 11
-0.0765465544619743
 21
-0.1325825214724723
 31
0.0
210
0.0
220
0.0
230
1.0
 40
0.57735
 41
0.0000000000006153
 42
6.283185307180215
  0
ELLIPSE
  5
2062
100
AcDbEntity
  8
FASTENER
100
AcDbEllipse
 10
113.853634
 20
131.863595
 30
0.0
 11
-0.0765465544619743
 21
-0.1325825214724723
 31
0.0
210
0.0
220
0.0
230
1.0
 40
0.57735
 41
0.0000000000006153
 42
6.283185307180215
  0
LINE
  5
2063
100
AcDbEntity
  8
FASTENER
100
AcDbLine
 10
113.853634
 20
131.988595
 30
0.0
 11
113.853634
 21
131.738595
 31
0.0
  0
LINE
  5
2064
100
AcDbEntity
  8
FASTENER
100
AcDbLine
 10
113.744771
 20
131.802163
 30
0.0
 11
113.962497
 21
131.925027
 31
0.0
  0
LINE
  5
2065
100
AcDbEntity
  8
FASTENER
100
AcDbLine
 10
115.103462
 20
131.166585
 30
0.0
 11
115.321187
 21
131.289449
 31
0.0
  0
LINE
  5
2066
100
AcDbEntity
  8
FASTENER
100
AcDbLine
 10
115.212325
 20
131.353017
 30
0.0
 11
115.212325
 21
131.103017
 31
0.0
  0
ELLIPSE
  5
2067
100
AcDbEntity
  8
FASTENER
100
AcDbEllipse
 10
115.212325
 20
131.228017
 30
0.0
 11
-0.0765465544619743
 21
-0.1325825214724723
 31
0.0
210
0.0
220
0.0
230
1.0
 40
0.57735
 41
0.0000000000006153
 42
6.283185307180215
  0
ELLIPSE
  5
2068
100
AcDbEntity
  8
FASTENER
100
AcDbEllipse
 10
114.489212
 20
133.222286
 30
0.0
 11
-0.0765465544619743
 21
-0.1325825214724723
 31
0.0
210
0.0
220
0.0
230
1.0
 40
0.57735
 41
0.0000000000006153
 42
6.283185307180215
  0
LINE
  5
2069
100
AcDbEntity
  8
FASTENER
100
AcDbLine
 10
114.489212
 20
133.347286
 30
0.0
 11
114.489212
 21
133.097286
 31
0.0
  0
LINE
  5
206A
100
AcDbEntity
  8
FASTENER
100
AcDbLine
 10
114.380349
 20
133.160854
 30
0.0
 11
114.598075
 21
133.283717
 31
0.0
  0
LINE
  5
206B
100
AcDbEntity
  8
FASTENER
100
AcDbLine
 10
115.73904
 20
132.525275
 30
0.0
 11
115.956765
 21
132.648139
 31
0.0
  0
LINE
  5
206C
100
AcDbEntity
  8
FASTENER
100
AcDbLine
 10
115.847903
 20
132.711707
 30
0.0
 11
115.847903
 21
132.461707
 31
0.0
  0
ELLIPSE
  5
206D
100
AcDbEntity
  8
FASTENER
100
AcDbEllipse
 10
115.847903
 20
132.586707
 30
0.0
 11
-0.0765465544619743
 21
-0.1325825214724723
 31
0.0
210
0.0
220
0.0
230
1.0
 40
0.57735
 41
0.0000000000006153
 42
6.283185307180215
  0
ELLIPSE
  5
206E
100
AcDbEntity
  8
FASTENER
100
AcDbEllipse
 10
115.12479
 20
134.580976
 30
0.0
 11
-0.0765465544619743
 21
-0.1325825214724723
 31
0.0
210
0.0
220
0.0
230
1.0
 40
0.57735
 41
0.0000000000006153
 42
6.283185307180215
  0
LINE
  5
206F
100
AcDbEntity
  8
FASTENER
100
AcDbLine
 10
115.12479
 20
134.705976
 30
0.0
 11
115.12479
 21
134.455976
 31
0.0
  0
LINE
  5
2070
100
AcDbEntity
  8
FASTENER
100
AcDbLine
 10
115.015927
 20
134.519544
 30
0.0
 11
115.233653
 21
134.642408
 31
0.0
  0
LINE
  5
2071
100
AcDbEntity
  8
FASTENER
100
AcDbLine
 10
116.374618
 20
133.883966
 30
0.0
 11
116.592344
 21
134.00683
 31
0.0
  0
LINE
  5
2072
100
AcDbEntity
  8
FASTENER
100
AcDbLine
 10
116.483481
 20
134.070398
 30
0.0
 11
116.483481
 21
133.820398
 31
0.0
  0
ELLIPSE
  5
2073
100
AcDbEntity
  8
FASTENER
100
AcDbEllipse
 10
116.483481
 20
133.945398
 30
0.0
 11
-0.0765465544619743
 21
-0.1325825214724723
 31
0.0
210
0.0
220
0.0
230
1.0
 40
0.57735
 41
0.0000000000006153
 42
6.283185307180215
  0
ELLIPSE
  5
2074
100
AcDbEntity
  8
FASTENER
100
AcDbEllipse
 10
115.749233
 20
135.944876
 30
0.0
 11
-0.0765465544619743
 21
-0.1325825214724723
 31
0.0
210
0.0
220
0.0
230
1.0
 40
0.57735
 41
0.0000000000006153
 42
6.283185307180215
  0
LINE
  5
2075
100
AcDbEntity
  8
FASTENER
100
AcDbLine
 10
115.749233
 20
136.069876
 30
0.0
 11
115.749233
 21
135.819876
 31
0.0
  0
LINE
  5
2076
100
AcDbEntity
  8
FASTENER
100
AcDbLine
 10
115.64037
 20
135.883444
 30
0.0
 11
115.858096
 21
136.006308
 31
0.0
  0
LINE
  5
2077
100
AcDbEntity
  8
FASTENER
100
AcDbLine
 10
116.999061
 20
135.247866
 30
0.0
 11
117.216787
 21
135.37073
 31
0.0
  0
LINE
  5
2078
100
AcDbEntity
  8
FASTENER
100
AcDbLine
 10
117.107924
 20
135.434298
 30
0.0
 11
117.107924
 21
135.184298
 31
0.0
  0
ELLIPSE
  5
2079
100
AcDbEntity
  8
FASTENER
100
AcDbEllipse
 10
117.107924
 20
135.309298
 30
0.0
 11
-0.0765465544619743
 21
-0.1325825214724723
 31
0.0
210
0.0
220
0.0
230
1.0
 40
0.57735
 41
0.0000000000006153
 42
6.283185307180215
  0
LINE
  5
2080
100
AcDbEntity
  8
FASTENER
100
AcDbLine
 10
95.626875
 20
91.301056
 30
0.0
 11
95.844601
 21
91.42392
 31
0.0
  0
LINE
  5
2081
100
AcDbEntity
  8
FASTENER
100
AcDbLine
 10
95.735738
 20
91.487488
 30
0.0
 11
95.735738
 21
91.237488
 31
0.0
  0
ELLIPSE
  5
2082
100
AcDbEntity
  8
FASTENER
100
AcDbEllipse
 10
95.735738
 20
91.362488
 30
0.0
 11
-0.0765465544619743
 21
-0.1325825214724723
 31
0.0
210
0.0
220
0.0
230
1.0
 40
0.57735
 41
0.0000000000006153
 42
6.283185307180215
  0
LINE
  5
2083
100
AcDbEntity
  8
FASTENER
100
AcDbLine
 10
87.89689
 20
98.840339
 30
0.0
 11
88.114616
 21
98.963203
 31
0.0
  0
LINE
  5
2084
100
AcDbEntity
  8
FASTENER
100
AcDbLine
 10
88.005753
 20
99.026771
 30
0.0
 11
88.005753
 21
98.776771
 31
0.0
  0
ELLIPSE
  5
2085
100
AcDbEntity
  8
FASTENER
100
AcDbEllipse
 10
88.005753
 20
98.901771
 30
0.0
 11
-0.0765465544619743
 21
-0.1325825214724723
 31
0.0
210
0.0
220
0.0
230
1.0
 40
0.57735
 41
0.0000000000006153
 42
6.283185307180215
  0
LINE
  5
2086
100
AcDbEntity
  8
FASTENER
100
AcDbLine
 10
101.741354
 20
104.372127
 30
0.0
 11
101.95908
 21
104.494991
 31
0.0
  0
LINE
  5
2087
100
AcDbEntity
  8
FASTENER
100
AcDbLine
 10
101.850217
 20
104.558559
 30
0.0
 11
101.850217
 21
104.308559
 31
0.0
  0
ELLIPSE
  5
2088
100
AcDbEntity
  8
FASTENER
100
AcDbEllipse
 10
101.850217
 20
104.433559
 30
0.0
 11
-0.0765465544619743
 21
-0.1325825214724723
 31
0.0
210
0.0
220
0.0
230
1.0
 40
0.57735
 41
0.0000000000006153
 42
6.283185307180215
  0
LINE
  5
2089
100
AcDbEntity
  8
FASTENER
100
AcDbLine
 10
101.725694
 20
85.352698
 30
0.0
 11
101.94342
 21
85.475562
 31
0.0
  0
LINE
  5
208A
100
AcDbEntity
  8
FASTENER
100
AcDbLine
 10
101.834557
 20
85.53913
 30
0.0
 11
101.834557
 21
85.28913
 31
0.0
  0
ELLIPSE
  5
208B
100
AcDbEntity
  8
FASTENER
100
AcDbEllipse
 10
101.834557
 20
85.41413
 30
0.0
 11
-0.0765465544619743
 21
-0.1325825214724723
 31
0.0
210
0.0
220
0.0
230
1.0
 40
0.57735
 41
0.0000000000006153
 42
6.283185307180215
  0
LINE
  5
208C
100
AcDbEntity
  8
FASTENER
100
AcDbLine
 10
87.825201
 20
74.62323
 30
0.0
 11
88.042927
 21
74.746094
 31
0.0
  0
LINE
  5
208D
100
AcDbEntity
  8
FASTENER
100
AcDbLine
 10
87.934064
 20
74.809662
 30
0.0
 11
87.934064
 21
74.559662
 31
0.0
  0
ELLIPSE
  5
208E
100
AcDbEntity
  8
FASTENER
100
AcDbEllipse
 10
87.934064
 20
74.684662
 30
0.0
 11
-0.0765465544619743
 21
-0.1325825214724723
 31
0.0
210
0.0
220
0.0
230
1.0
 40
0.57735
 41
0.0000000000006153
 42
6.283185307180215
  0
POLYLINE
  5
218A
100
AcDbEntity
  8
STEEL
100
AcDb2dPolyline
 66
     1
 10
0.0
 20
0.0
 30
0.0
 70
     1
  0
VERTEX
  5
218B
100
AcDbEntity
  8
STEEL
100
AcDbVertex
100
AcDb2dVertex
 10
72.79278
 20
111.720441
 30
0.0
  0
VERTEX
  5
218C
100
AcDbEntity
  8
STEEL
100
AcDbVertex
100
AcDb2dVertex
 10
115.994449
 20
69.51006
 30
0.0
  0
VERTEX
  5
218E
100
AcDbEntity
  8
STEEL
100
AcDbVertex
100
AcDb2dVertex
 10
118.091008
 20
71.655856
 30
0.0
  0
VERTEX
  5
218F
100
AcDbEntity
  8
STEEL
100
AcDbVertex
100
AcDb2dVertex
 10
74.889339
 20
113.866237
 30
0.0
  0
SEQEND
  5
218D
100
AcDbEntity
  8
STEEL
  0
LINE
  5
2190
100
AcDbEntity
  8
STUD
100
AcDbLine
 10
74.859359
 20
103.848928
 30
0.0
 11
74.859359
 21
54.598928
 31
0.0
  0
LINE
  5
2192
100
AcDbEntity
  8
STUD
100
AcDbLine
 10
76.14165
 20
104.589259
 30
0.0
 11
76.14165
 21
55.339259
 31
0.0
  0
LINE
  5
2193
100
AcDbEntity
  8
STUD
100
AcDbLine
 10
73.393342
 20
111.133659
 30
0.0
 11
73.393342
 21
45.343372
 31
0.0
  0
LINE
  5
2194
100
AcDbEntity
  8
STUD
100
AcDbLine
 10
73.455842
 20
111.072593
 30
0.0
 11
73.455842
 21
45.379457
 31
0.0
  0
LINE
  5
2195
100
AcDbEntity
  8
TRACK
100
AcDbLine
 10
73.201439
 20
111.321159
 30
0.0
 11
59.211201
 21
103.306796
 31
0.0
  0
POLYLINE
  5
219D
100
AcDbEntity
  8
STEEL
100
AcDb2dPolyline
 66
     1
 10
0.0
 20
0.0
 30
0.0
  0
VERTEX
  5
219E
100
AcDbEntity
  8
STEEL
100
AcDbVertex
100
AcDb2dVertex
 10
73.490699
 20
111.038535
 30
0.0
  0
VERTEX
  5
219F
100
AcDbEntity
  8
STEEL
100
AcDbVertex
100
AcDb2dVertex
 10
73.490699
 20
103.058732
 30
0.0
  0
SEQEND
  5
21A0
100
AcDbEntity
  8
STEEL
  0
LINE
  5
21A1
100
AcDbEntity
  8
STUD
100
AcDbLine
 10
72.937452
 20
111.579088
 30
0.0
 11
72.937452
 21
45.080164
 31
0.0
  0
POLYLINE
  5
21A2
100
AcDbEntity
  8
STEEL
100
AcDb2dPolyline
 66
     1
 10
0.0
 20
0.0
 30
0.0
  0
VERTEX
  5
21A3
100
AcDbEntity
  8
STEEL
100
AcDbVertex
100
AcDb2dVertex
 10
73.490699
 20
103.058732
 30
0.0
  0
VERTEX
  5
21A4
100
AcDbEntity
  8
STEEL
100
AcDbVertex
100
AcDb2dVertex
 10
78.624371
 20
106.022659
 30
0.0
  0
SEQEND
  5
21A5
100
AcDbEntity
  8
STEEL
  0
POLYLINE
  5
21A6
100
AcDbEntity
  8
STEEL
100
AcDb2dPolyline
 66
     1
 10
0.0
 20
0.0
 30
0.0
  0
VERTEX
  5
21A7
100
AcDbEntity
  8
STEEL
100
AcDbVertex
100
AcDb2dVertex
 10
81.32267
 20
107.580522
 30
0.0
  0
VERTEX
  5
21A8
100
AcDbEntity
  8
STEEL
100
AcDbVertex
100
AcDb2dVertex
 10
82.150953
 20
108.058732
 30
0.0
  0
VERTEX
  5
21A9
100
AcDbEntity
  8
STEEL
100
AcDbVertex
100
AcDb2dVertex
 10
82.150953
 20
118.058732
 30
0.0
  0
VERTEX
  5
21AA
100
AcDbEntity
  8
STEEL
100
AcDbVertex
100
AcDb2dVertex
 10
73.490699
 20
113.058732
 30
0.0
  0
VERTEX
  5
21AB
100
AcDbEntity
  8
STEEL
100
AcDbVertex
100
AcDb2dVertex
 10
73.490699
 20
112.434751
 30
0.0
  0
SEQEND
  5
21AC
100
AcDbEntity
  8
STEEL
  0
LINE
  5
21AD
100
AcDbEntity
  8
STUD
100
AcDbLine
 10
71.706491
 20
110.464772
 30
0.0
 11
71.706491
 21
81.460042
 31
0.0
  0
LINE
  5
21AE
100
AcDbEntity
  8
STUD
100
AcDbLine
 10
70.806989
 20
109.949489
 30
0.0
 11
70.806989
 21
80.391546
 31
0.0
  0
LINE
  5
21AF
100
AcDbEntity
  8
STUD
100
AcDbLine
 10
70.772389
 20
109.929668
 30
0.0
 11
70.772389
 21
80.37157
 31
0.0
  0
LINE
  5
21B3
100
AcDbEntity
  8
STUD
100
AcDbLine
 10
116.307352
 20
78.528938
 30
0.0
 11
116.307352
 21
127.528938
 31
0.0
  0
LINE
  5
21B9
100
AcDbEntity
  8
STUD
100
AcDbLine
 10
111.948219
 20
77.657695
 30
0.0
 11
111.948219
 21
102.393631
 31
0.0
  0
POLYLINE
  5
21BF
100
AcDbEntity
  8
STEEL
100
AcDb2dPolyline
 66
     1
 10
0.0
 20
0.0
 30
0.0
  0
VERTEX
  5
21C0
100
AcDbEntity
  8
STEEL
100
AcDbVertex
100
AcDb2dVertex
 10
109.430754
 20
64.558732
 30
0.0
  0
VERTEX
  5
21C1
100
AcDbEntity
  8
STEEL
100
AcDbVertex
100
AcDb2dVertex
 10
118.091008
 20
69.558732
 30
0.0
  0
VERTEX
  5
21C2
100
AcDbEntity
  8
STEEL
100
AcDbVertex
100
AcDb2dVertex
 10
118.091008
 20
79.558732
 30
0.0
  0
VERTEX
  5
21C3
100
AcDbEntity
  8
STEEL
100
AcDbVertex
100
AcDb2dVertex
 10
113.006826
 20
76.623378
 30
0.0
  0
SEQEND
  5
21C4
100
AcDbEntity
  8
STEEL
  0
POLYLINE
  5
21C5
100
AcDbEntity
  8
STEEL
100
AcDb2dPolyline
 66
     1
 10
0.0
 20
0.0
 30
0.0
  0
VERTEX
  5
21C6
100
AcDbEntity
  8
STEEL
100
AcDbVertex
100
AcDb2dVertex
 10
110.308527
 20
75.065515
 30
0.0
  0
VERTEX
  5
21C7
100
AcDbEntity
  8
STEEL
100
AcDbVertex
100
AcDb2dVertex
 10
109.430754
 20
74.558732
 30
0.0
  0
VERTEX
  5
21C8
100
AcDbEntity
  8
STEEL
100
AcDbVertex
100
AcDb2dVertex
 10
109.430754
 20
64.558732
 30
0.0
  0
SEQEND
  5
21C9
100
AcDbEntity
  8
STEEL
  0
LINE
  5
21CA
100
AcDbEntity
  8
TRACK
100
AcDbLine
 10
109.430754
 20
132.075264
 30
0.0
 11
82.150953
 21
116.447923
 31
0.0
  0
LINE
  5
21CB
100
AcDbEntity
  8
STUD
100
AcDbLine
 10
117.71087
 20
128.339259
 30
0.0
 11
117.71087
 21
79.339259
 31
0.0
  0
LINE
  5
21CC
100
AcDbEntity
  8
STUD
100
AcDbLine
 10
116.428578
 20
127.598928
 30
0.0
 11
116.428578
 21
78.598928
 31
0.0
  0
LINE
  5
21CE
100
AcDbEntity
  8
STUD
100
AcDbLine
 10
114.962561
 20
126.752523
 30
0.0
 11
114.962561
 21
77.752523
 31
0.0
  0
LINE
  5
21CF
100
AcDbEntity
  8
STUD
100
AcDbLine
 10
115.025061
 20
126.788607
 30
0.0
 11
115.025061
 21
77.788607
 31
0.0
  0
LINE
  5
21D0
100
AcDbEntity
  8
STUD
100
AcDbLine
 10
114.506672
 20
126.489315
 30
0.0
 11
114.506672
 21
77.489315
 31
0.0
  0
LINE
  5
21D1
100
AcDbEntity
  8
STUD
100
AcDbLine
 10
113.27571
 20
125.476034
 30
0.0
 11
113.27571
 21
105.622173
 31
0.0
  0
LINE
  5
21D2
100
AcDbEntity
  8
STUD
100
AcDbLine
 10
112.341608
 20
123.475209
 30
0.0
 11
112.341608
 21
104.37157
 31
0.0
  0
LINE
  5
21D3
100
AcDbEntity
  8
STUD
100
AcDbLine
 10
112.376208
 20
123.549322
 30
0.0
 11
112.376208
 21
104.391546
 31
0.0
  0
POLYLINE
  5
21DC
100
AcDbEntity
  8
STEEL
100
AcDb2dPolyline
 66
     1
 10
0.0
 20
0.0
 30
0.0
  0
VERTEX
  5
21DD
100
AcDbEntity
  8
STEEL
100
AcDbVertex
100
AcDb2dVertex
 10
216.677889
 20
326.933984
 30
0.0
  0
SEQEND
  5
21DE
100
AcDbEntity
  8
STEEL
  0
POLYLINE
  5
21E6
100
AcDbEntity
  8
STEEL
100
AcDb2dPolyline
 66
     1
 10
0.0
 20
0.0
 30
0.0
  0
VERTEX
  5
21E7
100
AcDbEntity
  8
STEEL
100
AcDbVertex
100
AcDb2dVertex
 10
113.469101
 20
125.890273
 30
0.0
  0
VERTEX
  5
21E8
100
AcDbEntity
  8
STEEL
100
AcDbVertex
100
AcDb2dVertex
 10
118.091008
 20
128.558732
 30
0.0
  0
VERTEX
  5
21E9
100
AcDbEntity
  8
STEEL
100
AcDbVertex
100
AcDb2dVertex
 10
118.091008
 20
138.558732
 30
0.0
  0
VERTEX
  5
21EA
100
AcDbEntity
  8
STEEL
100
AcDbVertex
100
AcDb2dVertex
 10
109.430754
 20
133.558732
 30
0.0
  0
VERTEX
  5
21EB
100
AcDbEntity
  8
STEEL
100
AcDbVertex
100
AcDb2dVertex
 10
109.430754
 20
124.178739
 30
0.0
  0
SEQEND
  5
21EC
100
AcDbEntity
  8
STEEL
  0
ELLIPSE
  5
21ED
100
AcDbEntity
  8
FASTENER
100
AcDbEllipse
 10
117.220915
 20
133.593986
 30
0.0
 11
-0.0765465544619743
 21
-0.1325825214724723
 31
0.0
210
0.0
220
0.0
230
1.0
 40
0.57735
 41
0.0000000000006153
 42
6.283185307180215
  0
LINE
  5
21EE
100
AcDbEntity
  8
FASTENER
100
AcDbLine
 10
117.220915
 20
133.718986
 30
0.0
 11
117.220915
 21
133.468986
 31
0.0
  0
LINE
  5
21EF
100
AcDbEntity
  8
FASTENER
100
AcDbLine
 10
117.112052
 20
133.532555
 30
0.0
 11
117.329778
 21
133.655418
 31
0.0
  0
POLYLINE
  5
2202
100
AcDbEntity
  8
STEEL
100
AcDb2dPolyline
 66
     1
 10
0.0
 20
0.0
 30
0.0
  0
VERTEX
  5
2203
100
AcDbEntity
  8
STEEL
100
AcDbVertex
100
AcDb2dVertex
 10
77.630679
 20
56.19895
 30
0.0
  0
VERTEX
  5
2204
100
AcDbEntity
  8
STEEL
100
AcDbVertex
100
AcDb2dVertex
 10
73.490699
 20
53.808732
 30
0.0
  0
VERTEX
  5
2206
100
AcDbEntity
  8
STEEL
100
AcDbVertex
100
AcDb2dVertex
 10
73.490699
 20
43.808732
 30
0.0
  0
VERTEX
  5
2207
100
AcDbEntity
  8
STEEL
100
AcDbVertex
100
AcDb2dVertex
 10
82.150953
 20
48.808732
 30
0.0
  0
VERTEX
  5
2208
100
AcDbEntity
  8
STEEL
100
AcDbVertex
100
AcDb2dVertex
 10
82.150953
 20
58.781882
 30
0.0
  0
SEQEND
  5
2209
100
AcDbEntity
  8
STEEL
  0
LINE
  5
220A
100
AcDbEntity
  8
STUD
100
AcDbLine
 10
74.738133
 20
54.528938
 30
0.0
 11
74.738133
 21
103.778938
 31
0.0
  0
LINE
  5
220D
100
AcDbEntity
  8
TRACK
100
AcDbLine
 10
73.490699
 20
45.359629
 30
0.0
 11
58.773527
 21
36.862666
 31
0.0
  0
LINE
  5
220E
100
AcDbEntity
  8
TRACK
100
AcDbLine
 10
73.490699
 20
45.399582
 30
0.0
 11
58.738927
 21
36.882642
 31
0.0
  0
LINE
  5
2211
100
AcDbEntity
  8
TRACK
100
AcDbLine
 10
82.150953
 20
54.024582
 30
0.0
 11
84.235406
 21
55.228041
 31
0.0
  0
LINE
  5
2212
100
AcDbEntity
  8
TRACK
100
AcDbLine
 10
82.150953
 20
54.064534
 30
0.0
 11
84.235406
 21
55.267994
 31
0.0
  0
POLYLINE
  5
2225
100
AcDbEntity
  8
STEEL
100
AcDb2dPolyline
 66
     1
 10
0.0
 20
0.0
 30
0.0
  0
VERTEX
  5
2226
100
AcDbEntity
  8
STEEL
100
AcDbVertex
100
AcDb2dVertex
 10
95.284855
 20
93.938709
 30
0.0
  0
VERTEX
  5
2227
100
AcDbEntity
  8
STEEL
100
AcDbVertex
100
AcDb2dVertex
 10
115.336199
 20
136.802953
 30
0.0
 42
-0.414214
  0
VERTEX
  5
2228
100
AcDbEntity
  8
STEEL
100
AcDbVertex
100
AcDb2dVertex
 10
115.668577
 20
136.923471
 30
0.0
  0
VERTEX
  5
2229
100
AcDbEntity
  8
STEEL
100
AcDbVertex
100
AcDb2dVertex
 10
117.864732
 20
135.896138
 30
0.0
 42
-0.41399
  0
VERTEX
  5
222A
100
AcDbEntity
  8
STEEL
100
AcDbVertex
100
AcDb2dVertex
 10
117.985331
 20
135.563933
 30
0.0
  0
VERTEX
  5
222B
100
AcDbEntity
  8
STEEL
100
AcDbVertex
100
AcDb2dVertex
 10
97.528715
 20
91.746335
 30
0.0
  0
SEQEND
  5
222C
100
AcDbEntity
  8
STEEL
  0
POLYLINE
  5
222D
100
AcDbEntity
  8
STEEL
100
AcDb2dPolyline
 66
     1
 10
0.0
 20
0.0
 30
0.0
  0
VERTEX
  5
222E
100
AcDbEntity
  8
STEEL
100
AcDbVertex
100
AcDb2dVertex
 10
96.183987
 20
88.865959
 30
0.0
  0
VERTEX
  5
222F
100
AcDbEntity
  8
STEEL
100
AcDbVertex
100
AcDb2dVertex
 10
76.120546
 20
45.890535
 30
0.0
  0
VERTEX
  5
2231
100
AcDbEntity
  8
STEEL
100
AcDbVertex
100
AcDb2dVertex
 10
73.403165
 20
47.161692
 30
0.0
  0
VERTEX
  5
2232
100
AcDbEntity
  8
STEEL
100
AcDbVertex
100
AcDb2dVertex
 10
93.938291
 20
91.060126
 30
0.0
 42
-0.414214
  0
SEQEND
  5
2233
100
AcDbEntity
  8
STEEL
  0
LINE
  5
223D
100
AcDbEntity
  8
STUD
100
AcDbLine
 10
101.106155
 20
99.409128
 30
0.0
 11
101.106155
 21
88.250982
 31
0.0
  0
LINE
  5
223E
100
AcDbEntity
  8
STUD
100
AcDbLine
 10
100.650265
 20
98.432624
 30
0.0
 11
100.650265
 21
88.69641
 31
0.0
  0
LINE
  5
223F
100
AcDbEntity
  8
STUD
100
AcDbLine
 10
98.519802
 20
93.86922
 30
0.0
 11
98.519802
 21
90.777989
 31
0.0
  0
LINE
  5
2240
100
AcDbEntity
  8
STUD
100
AcDbLine
 10
99.419304
 20
95.160058
 30
0.0
 11
99.419304
 21
89.899127
 31
0.0
  0
LINE
  5
2241
100
AcDbEntity
  8
STUD
100
AcDbLine
 10
102.450946
 20
109.257835
 30
0.0
 11
102.450946
 21
128.076854
 31
0.0
  0
LINE
  5
2242
100
AcDbEntity
  8
STUD
100
AcDbLine
 10
101.168655
 20
99.543002
 30
0.0
 11
101.168655
 21
88.189916
 31
0.0
  0
LINE
  5
2243
100
AcDbEntity
  8
STUD
100
AcDbLine
 10
98.485202
 20
93.795108
 30
0.0
 11
98.485202
 21
90.811795
 31
0.0
  0
LINE
  5
2244
100
AcDbEntity
  8
STUD
100
AcDbLine
 10
98.091812
 20
99.93921
 30
0.0
 11
98.091812
 21
125.579707
 31
0.0
  0
LINE
  5
2245
100
AcDbEntity
  8
STUD
100
AcDbLine
 10
84.235406
 20
70.318035
 30
0.0
 11
84.235406
 21
86.393631
 31
0.0
  0
LINE
  5
2246
100
AcDbEntity
  8
STUD
100
AcDbLine
 10
84.628795
 20
64.115007
 30
0.0
 11
84.628795
 21
53.410707
 31
0.0
  0
LINE
  5
2247
100
AcDbEntity
  8
STUD
100
AcDbLine
 10
87.312248
 20
69.862901
 30
0.0
 11
87.312248
 21
53.379457
 31
0.0
  0
LINE
  5
2248
100
AcDbEntity
  8
STUD
100
AcDbLine
 10
88.594539
 20
79.63666
 30
0.0
 11
88.594539
 21
96.281262
 31
0.0
  0
LINE
  5
2249
100
AcDbEntity
  8
STUD
100
AcDbLine
 10
85.562897
 20
66.115832
 30
0.0
 11
85.562897
 21
54.45645
 31
0.0
  0
LINE
  5
224A
100
AcDbEntity
  8
STUD
100
AcDbLine
 10
84.663395
 20
64.189119
 30
0.0
 11
84.663395
 21
53.430683
 31
0.0
  0
LINE
  5
224B
100
AcDbEntity
  8
STUD
100
AcDbLine
 10
86.793859
 20
68.752523
 30
0.0
 11
86.793859
 21
53.080164
 31
0.0
  0
LINE
  5
224C
100
AcDbEntity
  8
STUD
100
AcDbLine
 10
87.249748
 20
69.729027
 30
0.0
 11
87.249748
 21
53.343372
 31
0.0
  0
LINE
  5
224D
100
AcDbEntity
  8
STUD
100
AcDbLine
 10
88.594539
 20
100.47551
 30
0.0
 11
88.594539
 21
120.139157
 31
0.0
  0
LINE
  5
224E
100
AcDbEntity
  8
STUD
100
AcDbLine
 10
84.235406
 20
104.734621
 30
0.0
 11
84.235406
 21
117.64201
 31
0.0
  0
LINE
  5
224F
100
AcDbEntity
  8
STUD
100
AcDbLine
 10
98.485202
 20
86.617547
 30
0.0
 11
98.485202
 21
61.410707
 31
0.0
  0
LINE
  5
2250
100
AcDbEntity
  8
STUD
100
AcDbLine
 10
101.168655
 20
83.995668
 30
0.0
 11
101.168655
 21
61.402935
 31
0.0
  0
LINE
  5
2251
100
AcDbEntity
  8
STUD
100
AcDbLine
 10
99.419304
 20
85.704879
 30
0.0
 11
99.419304
 21
62.45645
 31
0.0
  0
LINE
  5
2252
100
AcDbEntity
  8
STUD
100
AcDbLine
 10
98.519802
 20
86.583741
 30
0.0
 11
98.519802
 21
61.430683
 31
0.0
  0
LINE
  5
2253
100
AcDbEntity
  8
STUD
100
AcDbLine
 10
100.650265
 20
84.502162
 30
0.0
 11
100.650265
 21
61.080164
 31
0.0
  0
LINE
  5
2254
100
AcDbEntity
  8
STUD
100
AcDbLine
 10
101.106155
 20
84.056734
 30
0.0
 11
101.106155
 21
61.366609
 31
0.0
  0
LINE
  5
2255
100
AcDbEntity
  8
STUD
100
AcDbLine
 10
102.450946
 20
86.937048
 30
0.0
 11
102.450946
 21
102.28964
 31
0.0
  0
LINE
  5
2256
100
AcDbEntity
  8
STUD
100
AcDbLine
 10
98.091812
 20
91.196158
 30
0.0
 11
98.091812
 21
92.952477
 31
0.0
  0
LINE
  5
2257
100
AcDbEntity
  8
STUD
100
AcDbLine
 10
84.628795
 20
100.15601
 30
0.0
 11
84.628795
 21
88.37157
 31
0.0
  0
LINE
  5
2258
100
AcDbEntity
  8
STUD
100
AcDbLine
 10
87.312248
 20
97.534131
 30
0.0
 11
87.312248
 21
76.895475
 31
0.0
  0
LINE
  5
2259
100
AcDbEntity
  8
STUD
100
AcDbLine
 10
85.562897
 20
99.243341
 30
0.0
 11
85.562897
 21
89.622173
 31
0.0
  0
LINE
  5
225A
100
AcDbEntity
  8
STUD
100
AcDbLine
 10
84.663395
 20
100.122204
 30
0.0
 11
84.663395
 21
88.391546
 31
0.0
  0
LINE
  5
225B
100
AcDbEntity
  8
STUD
100
AcDbLine
 10
86.793859
 20
98.040625
 30
0.0
 11
86.793859
 21
75.787302
 31
0.0
  0
LINE
  5
225C
100
AcDbEntity
  8
STUD
100
AcDbLine
 10
87.249748
 20
97.595196
 30
0.0
 11
87.249748
 21
76.761867
 31
0.0
  0
LINE
  5
2261
100
AcDbEntity
  8
STUD
100
AcDbLine
 10
101.106155
 20
127.306485
 30
0.0
 11
101.106155
 21
106.383042
 31
0.0
  0
LINE
  5
2262
100
AcDbEntity
  8
STUD
100
AcDbLine
 10
100.650265
 20
127.045327
 30
0.0
 11
100.650265
 21
105.408477
 31
0.0
  0
LINE
  5
2263
100
AcDbEntity
  8
STUD
100
AcDbLine
 10
98.519802
 20
125.824882
 30
0.0
 11
98.519802
 21
100.854133
 31
0.0
  0
LINE
  5
2264
100
AcDbEntity
  8
STUD
100
AcDbLine
 10
99.419304
 20
126.340166
 30
0.0
 11
99.419304
 21
102.777021
 31
0.0
  0
LINE
  5
2265
100
AcDbEntity
  8
STUD
100
AcDbLine
 10
101.168655
 20
127.342288
 30
0.0
 11
101.168655
 21
106.51665
 31
0.0
  0
LINE
  5
2266
100
AcDbEntity
  8
STUD
100
AcDbLine
 10
98.485202
 20
125.805062
 30
0.0
 11
98.485202
 21
100.780168
 31
0.0
  0
LINE
  5
2267
100
AcDbEntity
  8
STUD
100
AcDbLine
 10
84.628795
 20
117.867365
 30
0.0
 11
84.628795
 21
104.350258
 31
0.0
  0
LINE
  5
2268
100
AcDbEntity
  8
STUD
100
AcDbLine
 10
87.312248
 20
119.404591
 30
0.0
 11
87.312248
 21
101.728379
 31
0.0
  0
LINE
  5
2269
100
AcDbEntity
  8
STUD
100
AcDbLine
 10
85.562897
 20
118.402469
 30
0.0
 11
85.562897
 21
103.43759
 31
0.0
  0
LINE
  5
226A
100
AcDbEntity
  8
STUD
100
AcDbLine
 10
84.663395
 20
117.887186
 30
0.0
 11
84.663395
 21
104.316452
 31
0.0
  0
LINE
  5
226B
100
AcDbEntity
  8
STUD
100
AcDbLine
 10
86.793859
 20
119.10763
 30
0.0
 11
86.793859
 21
102.234873
 31
0.0
  0
LINE
  5
226C
100
AcDbEntity
  8
STUD
100
AcDbLine
 10
87.249748
 20
119.368788
 30
0.0
 11
87.249748
 21
101.789445
 31
0.0
  0
ELLIPSE
  5
2279
100
AcDbEntity
  8
DETAIL_NO
100
AcDbEllipse
 10
74.334173
 20
49.816504
 30
0.0
 11
-7.385958829223952
 21
-12.79285595482786
 31
0.0
210
0.0
220
0.0
230
1.0
 40
0.57735
 41
0.0000000000000016
 42
6.283185307179602
1001
PE_URL
1000
6020-011.dwf
  0
INSERT
  5
50DB
100
AcDbEntity
  8
DETAIL_NO
100
AcDbBlockReference
 66
     1
  2
DETAIL_MARK
 10
100.282547
 20
42.381691
 30
0.0
 41
1.5
 42
1.5
 43
1.5
1001
PE_URL
1000
6020-011.dwf
  0
ATTRIB
  5
50DC
100
AcDbEntity
  8
0
100
AcDbText
 10
99.351512
 20
43.829967
 30
0.0
 40
3.0
  1
-
  7
ARCH
 72
     1
 11
100.282547
 21
42.381691
 31
0.0
100
AcDbAttribute
  2
DETAIL_#
 70
     0
 74
     1
  0
ATTRIB
  5
50DD
100
AcDbEntity
  8
0
100
AcDbText
 10
96.299788
 20
38.204967
 30
0.0
 40
3.0
  1
D-11
  7
ARCH
 72
     1
 11
100.282547
 21
36.756691
 31
0.0
100
AcDbAttribute
  2
DETAIL_PAGE
 70
     0
 74
     1
  0
SEQEND
  5
50DE
100
AcDbEntity
  8
DETAIL_NO
  0
POLYLINE
  5
50E1
100
AcDbEntity
  8
DETAIL_NO
100
AcDb2dPolyline
 66
     1
 10
0.0
 20
0.0
 30
0.0
1001
PE_URL
1000
6020-011.dwf
  0
VERTEX
  5
50E2
100
AcDbEntity
  8
DETAIL_NO
100
AcDbVertex
100
AcDb2dVertex
 10
81.668439
 20
45.463099
 30
0.0
  0
VERTEX
  5
50E3
100
AcDbEntity
  8
DETAIL_NO
100
AcDbVertex
100
AcDb2dVertex
 10
86.859748
 20
42.38169
 30
0.0
  0
VERTEX
  5
50E4
100
AcDbEntity
  8
DETAIL_NO
100
AcDbVertex
100
AcDb2dVertex
 10
92.875703
 20
42.381691
 30
0.0
  0
SEQEND
  5
50E5
100
AcDbEntity
  8
DETAIL_NO
  0
POLYLINE
  5
517B
100
AcDbEntity
  8
TRACK
100
AcDb2dPolyline
 66
     1
 10
0.0
 20
0.0
 30
0.0
  0
VERTEX
  5
517C
100
AcDbEntity
  8
TRACK
100
AcDbVertex
100
AcDb2dVertex
 10
132.905681
 20
147.315503
 30
0.0
  0
VERTEX
  5
517D
100
AcDbEntity
  8
TRACK
100
AcDbVertex
100
AcDb2dVertex
 10
132.979718
 20
147.272758
 30
0.0
 42
-0.267949
  0
VERTEX
  5
517E
100
AcDbEntity
  8
TRACK
100
AcDbVertex
100
AcDb2dVertex
 10
133.012643
 20
147.21573
 30
0.0
  0
VERTEX
  5
517F
100
AcDbEntity
  8
TRACK
100
AcDbVertex
100
AcDb2dVertex
 10
133.012643
 20
145.588796
 30
0.0
  0
VERTEX
  5
5180
100
AcDbEntity
  8
TRACK
100
AcDbVertex
100
AcDb2dVertex
 10
132.978043
 20
145.608772
 30
0.0
  0
SEQEND
  5
5181
100
AcDbEntity
  8
TRACK
  0
INSERT
  5
5610
100
AcDbEntity
  8
0
100
AcDbBlockReference
  2
CEMCO_BLANK
 10
-222.923637
 20
277.385045
 30
0.0
 41
0.5
 42
0.5
 43
-0.5
210
0.0
220
0.0
230
-1.0
  0
LINE
  5
564A
100
AcDbEntity
  8
TRACK
100
AcDbLine
 10
131.511221
 20
77.306896
 30
0.0
 11
131.511221
 21
78.857793
 31
0.0
  0
POLYLINE
  5
5863
100
AcDbEntity
  8
BLACK_IRON
100
AcDb2dPolyline
 66
     1
 10
0.0
 20
0.0
 30
0.0
 70
     1
  0
VERTEX
  5
5864
100
AcDbEntity
  8
BLACK_IRON
100
AcDbVertex
100
AcDb2dVertex
 10
68.349796
 20
77.222069
 30
0.0
  0
VERTEX
  5
5865
100
AcDbEntity
  8
BLACK_IRON
100
AcDbVertex
100
AcDb2dVertex
 10
68.293196
 20
77.254748
 30
0.0
  0
VERTEX
  5
5866
100
AcDbEntity
  8
BLACK_IRON
100
AcDbVertex
100
AcDb2dVertex
 10
68.293196
 20
77.649901
 30
0.0
 42
0.267949
  0
VERTEX
  5
5867
100
AcDbEntity
  8
BLACK_IRON
100
AcDbVertex
100
AcDb2dVertex
 10
68.258996
 20
77.709137
 30
0.0
  0
VERTEX
  5
5868
100
AcDbEntity
  8
BLACK_IRON
100
AcDbVertex
100
AcDb2dVertex
 10
67.209958
 20
78.314799
 30
0.0
 42
0.57735
  0
VERTEX
  5
5869
100
AcDbEntity
  8
BLACK_IRON
100
AcDbVertex
100
AcDb2dVertex
 10
67.107358
 20
78.255563
 30
0.0
  0
VERTEX
  5
586A
100
AcDbEntity
  8
BLACK_IRON
100
AcDbVertex
100
AcDb2dVertex
 10
67.107358
 20
77.939391
 30
0.0
  0
VERTEX
  5
586C
100
AcDbEntity
  8
BLACK_IRON
100
AcDbVertex
100
AcDb2dVertex
 10
67.050758
 20
77.972069
 30
0.0
  0
VERTEX
  5
586D
100
AcDbEntity
  8
BLACK_IRON
100
AcDbVertex
100
AcDb2dVertex
 10
67.050758
 20
78.255563
 30
0.0
 42
-0.57735
  0
VERTEX
  5
586E
100
AcDbEntity
  8
BLACK_IRON
100
AcDbVertex
100
AcDb2dVertex
 10
67.238258
 20
78.363816
 30
0.0
  0
VERTEX
  5
586F
100
AcDbEntity
  8
BLACK_IRON
100
AcDbVertex
100
AcDb2dVertex
 10
68.287296
 20
77.758154
 30
0.0
 42
-0.267949
  0
VERTEX
  5
5870
100
AcDbEntity
  8
BLACK_IRON
100
AcDbVertex
100
AcDb2dVertex
 10
68.349796
 20
77.649901
 30
0.0
  0
SEQEND
  5
5872
100
AcDbEntity
  8
BLACK_IRON
  0
LINE
  5
5883
100
AcDbEntity
  8
BLACK_IRON
100
AcDbLine
 10
68.349796
 20
77.649901
 30
0.0
 11
72.467179
 21
80.029329
 31
0.0
  0
LINE
  5
5886
100
AcDbEntity
  8
BLACK_IRON
100
AcDbLine
 10
67.266558
 20
78.347477
 30
0.0
 11
71.323395
 21
80.689693
 31
0.0
  0
LINE
  5
589A
100
AcDbEntity
  8
BLACK_IRON
100
AcDbLine
 10
68.349796
 20
77.222069
 30
0.0
 11
72.839646
 21
79.814285
 31
0.0
  0
LINE
  5
5A9A
100
AcDbEntity
  8
BLACK_IRON
100
AcDbLine
 10
76.14165
 20
81.720699
 30
0.0
 11
86.793859
 21
87.870754
 31
0.0
  0
LINE
  5
5A9B
100
AcDbEntity
  8
BLACK_IRON
100
AcDbLine
 10
76.14165
 20
83.471514
 30
0.0
 11
85.320211
 21
88.770759
 31
0.0
  0
LINE
  5
5A9C
100
AcDbEntity
  8
BLACK_IRON
100
AcDbLine
 10
76.14165
 20
82.1528
 30
0.0
 11
86.457355
 21
88.114229
 31
0.0
  0
LINE
  5
5A9D
100
AcDbEntity
  8
STUD
100
AcDbLine
 10
71.706491
 20
79.160058
 30
0.0
 11
71.706491
 21
49.911803
 31
0.0
  0
LINE
  5
5A9E
100
AcDbEntity
  8
STUD
100
AcDbLine
 10
70.772389
 20
78.620754
 30
0.0
 11
70.772389
 21
46.738366
 31
0.0
  0
LINE
  5
5A9F
100
AcDbEntity
  8
STUD
100
AcDbLine
 10
70.806989
 20
78.64073
 30
0.0
 11
70.806989
 21
46.850102
 31
0.0
  0
LINE
  5
5AA0
100
AcDbEntity
  8
STUD
100
AcDbLine
 10
70.379
 20
80.144446
 30
0.0
 11
70.379
 21
109.704313
 31
0.0
  0
LINE
  5
5ABE
100
AcDbEntity
  8
FASTENER
100
AcDbLine
 10
75.862101
 20
77.833062
 30
0.0
 11
76.079826
 21
77.955926
 31
0.0
  0
LINE
  5
5ABF
100
AcDbEntity
  8
FASTENER
100
AcDbLine
 10
75.970963
 20
78.019494
 30
0.0
 11
75.970963
 21
77.769494
 31
0.0
  0
ELLIPSE
  5
5AC0
100
AcDbEntity
  8
FASTENER
100
AcDbEllipse
 10
75.970963
 20
77.894494
 30
0.0
 11
-0.0765465544619743
 21
-0.1325825214724723
 31
0.0
210
0.0
220
0.0
230
1.0
 40
0.57735
 41
0.0000000000003957
 42
6.283185307179996
  0
LINE
  5
5B06
100
AcDbEntity
  8
BLACK_IRON
100
AcDbLine
 10
117.71087
 20
105.718751
 30
0.0
 11
128.030969
 21
111.677063
 31
0.0
  0
LINE
  5
5B07
100
AcDbEntity
  8
BLACK_IRON
100
AcDbLine
 10
117.71087
 20
106.173635
 30
0.0
 11
128.030969
 21
112.104894
 31
0.0
  0
LINE
  5
5B08
100
AcDbEntity
  8
BLACK_IRON
100
AcDbLine
 10
117.71087
 20
107.469567
 30
0.0
 11
126.947731
 21
112.802471
 31
0.0
  0
LINE
  5
5B09
100
AcDbEntity
  8
STUD
100
AcDbLine
 10
113.27571
 20
103.160058
 30
0.0
 11
113.27571
 21
76.778619
 31
0.0
  0
LINE
  5
5B0A
100
AcDbEntity
  8
STUD
100
AcDbLine
 10
112.376208
 20
102.64073
 30
0.0
 11
112.376208
 21
77.239526
 31
0.0
  0
LINE
  5
5B0B
100
AcDbEntity
  8
STUD
100
AcDbLine
 10
112.341608
 20
102.620754
 30
0.0
 11
112.341608
 21
77.273332
 31
0.0
  0
LINE
  5
5B0C
100
AcDbEntity
  8
STUD
100
AcDbLine
 10
111.948219
 20
104.144446
 30
0.0
 11
111.948219
 21
122.632578
 31
0.0
  0
LINE
  5
5C39
100
AcDbEntity
  8
BLACK_IRON
100
AcDbLine
 10
69.053442
 20
77.315819
 30
0.0
 11
69.053442
 21
77.372419
 31
0.0
  0
LINE
  5
5C3A
100
AcDbEntity
  8
CLIP
100
AcDbLine
 10
70.35248
 20
79.565819
 30
0.0
 11
70.303463
 21
79.537519
 31
0.0
  0
LINE
  5
5C54
100
AcDbEntity
  8
CLIP
100
AcDbLine
 10
74.777186
 20
81.695646
 30
0.0
 11
74.728169
 21
81.667346
 31
0.0
  0
LINE
  5
5C56
100
AcDbEntity
  8
CLIP
100
AcDbLine
 10
72.937452
 20
81.257817
 30
0.0
 11
72.14684
 21
81.714277
 31
0.0
  0
POLYLINE
  5
5C69
100
AcDbEntity
  8
CLIP
100
AcDb2dPolyline
 66
     1
 10
0.0
 20
0.0
 30
0.0
  0
VERTEX
  5
5C6A
100
AcDbEntity
  8
CLIP
100
AcDbVertex
100
AcDb2dVertex
 10
70.896819
 20
80.992577
 30
0.0
  0
VERTEX
  5
5C6B
100
AcDbEntity
  8
CLIP
100
AcDbVertex
100
AcDb2dVertex
 10
72.937452
 20
79.814417
 30
0.0
  0
SEQEND
  5
5C6C
100
AcDbEntity
  8
CLIP
  0
POLYLINE
  5
5C6D
100
AcDbEntity
  8
CLIP
100
AcDb2dPolyline
 66
     1
 10
0.0
 20
0.0
 30
0.0
  0
VERTEX
  5
5C6E
100
AcDbEntity
  8
CLIP
100
AcDbVertex
100
AcDb2dVertex
 10
72.937452
 20
82.701217
 30
0.0
  0
VERTEX
  5
5C6F
100
AcDbEntity
  8
CLIP
100
AcDbVertex
100
AcDb2dVertex
 10
72.14684
 20
83.157677
 30
0.0
  0
SEQEND
  5
5C70
100
AcDbEntity
  8
CLIP
  0
POLYLINE
  5
5C71
100
AcDbEntity
  8
CLIP
100
AcDb2dPolyline
 66
     1
 10
0.0
 20
0.0
 30
0.0
  0
VERTEX
  5
5C72
100
AcDbEntity
  8
CLIP
100
AcDbVertex
100
AcDb2dVertex
 10
72.937452
 20
82.757817
 30
0.0
  0
VERTEX
  5
5C73
100
AcDbEntity
  8
CLIP
100
AcDbVertex
100
AcDb2dVertex
 10
72.195857
 20
83.185977
 30
0.0
  0
VERTEX
  5
5C74
100
AcDbEntity
  8
CLIP
100
AcDbVertex
100
AcDb2dVertex
 10
72.14684
 20
83.157677
 30
0.0
  0
VERTEX
  5
5C75
100
AcDbEntity
  8
CLIP
100
AcDbVertex
100
AcDb2dVertex
 10
72.14684
 20
81.714277
 30
0.0
  0
VERTEX
  5
5C76
100
AcDbEntity
  8
CLIP
100
AcDbVertex
100
AcDb2dVertex
 10
70.896819
 20
80.992577
 30
0.0
  0
VERTEX
  5
5C77
100
AcDbEntity
  8
CLIP
100
AcDbVertex
100
AcDb2dVertex
 10
70.896819
 20
80.935977
 30
0.0
  0
VERTEX
  5
5C78
100
AcDbEntity
  8
CLIP
100
AcDbVertex
100
AcDb2dVertex
 10
72.937452
 20
79.757817
 30
0.0
  0
SEQEND
  5
5C79
100
AcDbEntity
  8
CLIP
  0
POLYLINE
  5
5C7A
100
AcDbEntity
  8
STUD
100
AcDb2dPolyline
 66
     1
 10
0.0
 20
0.0
 30
0.0
  0
VERTEX
  5
5C7B
100
AcDbEntity
  8
STUD
100
AcDbVertex
100
AcDb2dVertex
 10
72.937452
 20
83.46473
 30
0.0
 42
0.392115
  0
VERTEX
  5
5C7C
100
AcDbEntity
  8
STUD
100
AcDbVertex
100
AcDb2dVertex
 10
72.706443
 20
83.215452
 30
0.0
  0
VERTEX
  5
5C7D
100
AcDbEntity
  8
STUD
100
AcDbVertex
100
AcDb2dVertex
 10
72.706443
 20
82.89119
 30
0.0
 42
0.267949
  0
SEQEND
  5
5C7E
100
AcDbEntity
  8
STUD
  0
ELLIPSE
  5
5C8B
100
AcDbEntity
  8
FASTENER
100
AcDbEllipse
 10
72.549397
 20
80.734989
 30
0.0
 11
0.153093108923944
 21
-0.0000000000000026
 31
0.0
210
0.0
220
0.0
230
1.0
 40
0.57735
 41
0.0000000000000298
 42
6.28318530717963
  0
LINE
  5
5C8C
100
AcDbEntity
  8
FASTENER
100
AcDbLine
 10
72.441144
 20
80.672489
 30
0.0
 11
72.65765
 21
80.797489
 31
0.0
  0
LINE
  5
5C8D
100
AcDbEntity
  8
FASTENER
100
AcDbLine
 10
72.65703
 20
80.671427
 30
0.0
 11
72.441764
 21
80.798551
 31
0.0
  0
LINE
  5
5C8E
100
AcDbEntity
  8
FASTENER
100
AcDbLine
 10
86.513437
 20
88.833558
 30
0.0
 11
86.298171
 21
88.960682
 31
0.0
  0
LINE
  5
5C8F
100
AcDbEntity
  8
FASTENER
100
AcDbLine
 10
86.297551
 20
88.83462
 30
0.0
 11
86.514057
 21
88.95962
 31
0.0
  0
ELLIPSE
  5
5C90
100
AcDbEntity
  8
FASTENER
100
AcDbEllipse
 10
86.405804
 20
88.89712
 30
0.0
 11
0.153093108923944
 21
-0.0000000000000026
 31
0.0
210
0.0
220
0.0
230
1.0
 40
0.57735
 41
0.0000000000000298
 42
6.28318530717963
  0
POLYLINE
  5
5C91
100
AcDbEntity
  8
CLIP
100
AcDb2dPolyline
 66
     1
 10
0.0
 20
0.0
 30
0.0
  0
VERTEX
  5
5C92
100
AcDbEntity
  8
CLIP
100
AcDbVertex
100
AcDb2dVertex
 10
86.793859
 20
90.919948
 30
0.0
  0
VERTEX
  5
5C93
100
AcDbEntity
  8
CLIP
100
AcDbVertex
100
AcDb2dVertex
 10
86.052263
 20
91.348108
 30
0.0
  0
VERTEX
  5
5C94
100
AcDbEntity
  8
CLIP
100
AcDbVertex
100
AcDb2dVertex
 10
86.003246
 20
91.319808
 30
0.0
  0
VERTEX
  5
5C95
100
AcDbEntity
  8
CLIP
100
AcDbVertex
100
AcDb2dVertex
 10
86.003246
 20
89.876408
 30
0.0
  0
VERTEX
  5
5C96
100
AcDbEntity
  8
CLIP
100
AcDbVertex
100
AcDb2dVertex
 10
84.753225
 20
89.154708
 30
0.0
  0
VERTEX
  5
5C97
100
AcDbEntity
  8
CLIP
100
AcDbVertex
100
AcDb2dVertex
 10
84.753225
 20
89.098108
 30
0.0
  0
VERTEX
  5
5C98
100
AcDbEntity
  8
CLIP
100
AcDbVertex
100
AcDb2dVertex
 10
86.793859
 20
87.919948
 30
0.0
  0
SEQEND
  5
5C99
100
AcDbEntity
  8
CLIP
  0
POLYLINE
  5
5C9A
100
AcDbEntity
  8
CLIP
100
AcDb2dPolyline
 66
     1
 10
0.0
 20
0.0
 30
0.0
  0
VERTEX
  5
5C9B
100
AcDbEntity
  8
CLIP
100
AcDbVertex
100
AcDb2dVertex
 10
86.793859
 20
90.863348
 30
0.0
  0
VERTEX
  5
5C9C
100
AcDbEntity
  8
CLIP
100
AcDbVertex
100
AcDb2dVertex
 10
86.003246
 20
91.319808
 30
0.0
  0
SEQEND
  5
5C9D
100
AcDbEntity
  8
CLIP
  0
POLYLINE
  5
5C9E
100
AcDbEntity
  8
CLIP
100
AcDb2dPolyline
 66
     1
 10
0.0
 20
0.0
 30
0.0
  0
VERTEX
  5
5C9F
100
AcDbEntity
  8
CLIP
100
AcDbVertex
100
AcDb2dVertex
 10
84.753225
 20
89.154708
 30
0.0
  0
VERTEX
  5
5CA0
100
AcDbEntity
  8
CLIP
100
AcDbVertex
100
AcDb2dVertex
 10
86.793859
 20
87.976548
 30
0.0
  0
SEQEND
  5
5CA1
100
AcDbEntity
  8
CLIP
  0
LINE
  5
5CA2
100
AcDbEntity
  8
CLIP
100
AcDbLine
 10
86.793859
 20
89.419948
 30
0.0
 11
86.003246
 21
89.876408
 31
0.0
  0
LINE
  5
5CA3
100
AcDbEntity
  8
FASTENER
100
AcDbLine
 10
100.369843
 20
96.833558
 30
0.0
 11
100.154577
 21
96.960682
 31
0.0
  0
LINE
  5
5CA4
100
AcDbEntity
  8
FASTENER
100
AcDbLine
 10
100.153957
 20
96.83462
 30
0.0
 11
100.370463
 21
96.95962
 31
0.0
  0
ELLIPSE
  5
5CA5
100
AcDbEntity
  8
FASTENER
100
AcDbEllipse
 10
100.26221
 20
96.89712
 30
0.0
 11
0.153093108923944
 21
-0.0000000000000026
 31
0.0
210
0.0
220
0.0
230
1.0
 40
0.57735
 41
0.0000000000000298
 42
6.28318530717963
  0
LINE
  5
5CB7
100
AcDbEntity
  8
CLIP
100
AcDbLine
 10
100.650265
 20
97.419948
 30
0.0
 11
100.277866
 21
97.634953
 31
0.0
  0
LINE
  5
5CB8
100
AcDbEntity
  8
FASTENER
100
AcDbLine
 10
114.22625
 20
104.833558
 30
0.0
 11
114.010984
 21
104.960682
 31
0.0
  0
LINE
  5
5CB9
100
AcDbEntity
  8
FASTENER
100
AcDbLine
 10
114.010363
 20
104.83462
 30
0.0
 11
114.22687
 21
104.95962
 31
0.0
  0
ELLIPSE
  5
5CBA
100
AcDbEntity
  8
FASTENER
100
AcDbEllipse
 10
114.118617
 20
104.89712
 30
0.0
 11
0.153093108923944
 21
-0.0000000000000026
 31
0.0
210
0.0
220
0.0
230
1.0
 40
0.57735
 41
0.0000000000000298
 42
6.28318530717963
  0
POLYLINE
  5
5CBB
100
AcDbEntity
  8
CLIP
100
AcDb2dPolyline
 66
     1
 10
0.0
 20
0.0
 30
0.0
  0
VERTEX
  5
5CBC
100
AcDbEntity
  8
CLIP
100
AcDbVertex
100
AcDb2dVertex
 10
114.506672
 20
106.919948
 30
0.0
  0
VERTEX
  5
5CBD
100
AcDbEntity
  8
CLIP
100
AcDbVertex
100
AcDb2dVertex
 10
113.765076
 20
107.348108
 30
0.0
  0
VERTEX
  5
5CBE
100
AcDbEntity
  8
CLIP
100
AcDbVertex
100
AcDb2dVertex
 10
113.716059
 20
107.319808
 30
0.0
  0
VERTEX
  5
5CBF
100
AcDbEntity
  8
CLIP
100
AcDbVertex
100
AcDb2dVertex
 10
113.716059
 20
105.876408
 30
0.0
  0
VERTEX
  5
5CC0
100
AcDbEntity
  8
CLIP
100
AcDbVertex
100
AcDb2dVertex
 10
112.466038
 20
105.154708
 30
0.0
  0
VERTEX
  5
5CC1
100
AcDbEntity
  8
CLIP
100
AcDbVertex
100
AcDb2dVertex
 10
112.466038
 20
105.098108
 30
0.0
  0
VERTEX
  5
5CC2
100
AcDbEntity
  8
CLIP
100
AcDbVertex
100
AcDb2dVertex
 10
114.506672
 20
103.919948
 30
0.0
  0
SEQEND
  5
5CC3
100
AcDbEntity
  8
CLIP
  0
POLYLINE
  5
5CC4
100
AcDbEntity
  8
CLIP
100
AcDb2dPolyline
 66
     1
 10
0.0
 20
0.0
 30
0.0
  0
VERTEX
  5
5CC5
100
AcDbEntity
  8
CLIP
100
AcDbVertex
100
AcDb2dVertex
 10
114.506672
 20
106.863348
 30
0.0
  0
VERTEX
  5
5CC6
100
AcDbEntity
  8
CLIP
100
AcDbVertex
100
AcDb2dVertex
 10
113.716059
 20
107.319808
 30
0.0
  0
SEQEND
  5
5CC7
100
AcDbEntity
  8
CLIP
  0
POLYLINE
  5
5CC8
100
AcDbEntity
  8
CLIP
100
AcDb2dPolyline
 66
     1
 10
0.0
 20
0.0
 30
0.0
  0
VERTEX
  5
5CC9
100
AcDbEntity
  8
CLIP
100
AcDbVertex
100
AcDb2dVertex
 10
112.466038
 20
105.154708
 30
0.0
  0
VERTEX
  5
5CCA
100
AcDbEntity
  8
CLIP
100
AcDbVertex
100
AcDb2dVertex
 10
114.506672
 20
103.976548
 30
0.0
  0
SEQEND
  5
5CCB
100
AcDbEntity
  8
CLIP
  0
LINE
  5
5CCC
100
AcDbEntity
  8
CLIP
100
AcDbLine
 10
114.506672
 20
105.419948
 30
0.0
 11
113.716059
 21
105.876408
 31
0.0
  0
LINE
  5
5CCF
100
AcDbEntity
  8
BLACK_IRON
100
AcDbLine
 10
102.450946
 20
96.910377
 30
0.0
 11
114.506672
 21
103.870754
 31
0.0
  0
LINE
  5
5CD0
100
AcDbEntity
  8
BLACK_IRON
100
AcDbLine
 10
102.450946
 20
97.356898
 30
0.0
 11
114.15702
 21
104.121819
 31
0.0
  0
LINE
  5
5CD1
100
AcDbEntity
  8
BLACK_IRON
100
AcDbLine
 10
102.450946
 20
98.661193
 30
0.0
 11
113.033024
 21
104.770759
 31
0.0
  0
POLYLINE
  5
5CD2
100
AcDbEntity
  8
STUD
100
AcDb2dPolyline
 66
     1
 10
0.0
 20
0.0
 30
0.0
  0
VERTEX
  5
5CD3
100
AcDbEntity
  8
STUD
100
AcDbVertex
100
AcDb2dVertex
 10
114.506672
 20
107.46473
 30
0.0
 42
0.392115
  0
VERTEX
  5
5CD4
100
AcDbEntity
  8
STUD
100
AcDbVertex
100
AcDb2dVertex
 10
114.275662
 20
107.215452
 30
0.0
  0
VERTEX
  5
5CD5
100
AcDbEntity
  8
STUD
100
AcDbVertex
100
AcDb2dVertex
 10
114.275662
 20
107.053321
 30
0.0
 42
0.267949
  0
SEQEND
  5
5CD6
100
AcDbEntity
  8
STUD
  0
POLYLINE
  5
5CDF
100
AcDbEntity
  8
CLIP
100
AcDb2dPolyline
 66
     1
 10
0.0
 20
0.0
 30
0.0
  0
VERTEX
  5
5CE0
100
AcDbEntity
  8
CLIP
100
AcDbVertex
100
AcDb2dVertex
 10
99.747073
 20
96.498006
 30
0.0
  0
VERTEX
  5
5CE1
100
AcDbEntity
  8
CLIP
100
AcDbVertex
100
AcDb2dVertex
 10
100.650265
 20
95.976548
 30
0.0
  0
SEQEND
  5
5CE2
100
AcDbEntity
  8
CLIP
  0
POLYLINE
  5
5CE3
100
AcDbEntity
  8
CLIP
100
AcDb2dPolyline
 66
     1
 10
0.0
 20
0.0
 30
0.0
  0
VERTEX
  5
5CE4
100
AcDbEntity
  8
CLIP
100
AcDbVertex
100
AcDb2dVertex
 10
99.726259
 20
96.453423
 30
0.0
  0
VERTEX
  5
5CE5
100
AcDbEntity
  8
CLIP
100
AcDbVertex
100
AcDb2dVertex
 10
100.650265
 20
95.919948
 30
0.0
  0
SEQEND
  5
5CE6
100
AcDbEntity
  8
CLIP
  0
LINE
  5
5CE7
100
AcDbEntity
  8
BLACK_IRON
100
AcDbLine
 10
99.012897
 20
94.925419
 30
0.0
 11
100.650265
 21
95.870754
 31
0.0
  0
LINE
  5
5CE8
100
AcDbEntity
  8
BLACK_IRON
100
AcDbLine
 10
99.297177
 20
95.534341
 30
0.0
 11
100.307188
 21
96.118024
 31
0.0
  0
LINE
  5
5CE9
100
AcDbEntity
  8
BLACK_IRON
100
AcDbLine
 10
94.908415
 20
94.306511
 30
0.0
 11
95.659854
 21
94.740355
 31
0.0
  0
LINE
  5
5CEA
100
AcDbEntity
  8
BLACK_IRON
100
AcDbLine
 10
88.594539
 20
88.910377
 30
0.0
 11
93.336474
 21
91.648134
 31
0.0
  0
LINE
  5
5CEB
100
AcDbEntity
  8
BLACK_IRON
100
AcDbLine
 10
88.594539
 20
89.349304
 30
0.0
 11
93.052526
 21
91.925567
 31
0.0
  0
LINE
  5
5CEC
100
AcDbEntity
  8
BLACK_IRON
100
AcDbLine
 10
88.594539
 20
90.661193
 30
0.0
 11
92.210116
 21
92.748647
 31
0.0
  0
POLYLINE
  5
5CED
100
AcDbEntity
  8
STUD
100
AcDb2dPolyline
 66
     1
 10
0.0
 20
0.0
 30
0.0
  0
VERTEX
  5
5CEE
100
AcDbEntity
  8
STUD
100
AcDbVertex
100
AcDb2dVertex
 10
86.793859
 20
91.46473
 30
0.0
 42
0.392115
  0
VERTEX
  5
5CEF
100
AcDbEntity
  8
STUD
100
AcDbVertex
100
AcDb2dVertex
 10
86.562849
 20
91.215452
 30
0.0
  0
VERTEX
  5
5CF0
100
AcDbEntity
  8
STUD
100
AcDbVertex
100
AcDb2dVertex
 10
86.562849
 20
91.053321
 30
0.0
 42
0.267949
  0
SEQEND
  5
5CF1
100
AcDbEntity
  8
STUD
  0
LINE
  5
5CF2
100
AcDbEntity
  8
STUD
100
AcDbLine
 10
85.562897
 20
87.160058
 30
0.0
 11
85.562897
 21
73.155845
 31
0.0
  0
LINE
  5
5CF3
100
AcDbEntity
  8
STUD
100
AcDbLine
 10
84.663395
 20
86.64073
 30
0.0
 11
84.663395
 21
71.232958
 31
0.0
  0
LINE
  5
5CF4
100
AcDbEntity
  8
STUD
100
AcDbLine
 10
84.628795
 20
86.620754
 30
0.0
 11
84.628795
 21
71.158993
 31
0.0
  0
LINE
  5
5CF5
100
AcDbEntity
  8
STUD
100
AcDbLine
 10
84.235406
 20
88.144446
 30
0.0
 11
84.235406
 21
100.540373
 31
0.0
  0
LINE
  5
5DE9
100
AcDbEntity
  8
CLIP
100
AcDbLine
 10
126.12623
 20
104.635984
 30
0.0
 11
126.077213
 21
104.607684
 31
0.0
  0
POLYLINE
  5
5E1A
100
AcDbEntity
  8
TIE_WIRE
100
AcDb2dPolyline
 66
     1
 10
0.0
 20
0.0
 30
0.0
 40
0.125
 41
0.125
  0
VERTEX
  5
5E1B
100
AcDbEntity
  8
TIE_WIRE
100
AcDbVertex
100
AcDb2dVertex
 10
121.468415
 20
107.667992
 30
0.0
  0
VERTEX
  5
5E1C
100
AcDbEntity
  8
TIE_WIRE
100
AcDbVertex
100
AcDb2dVertex
 10
121.306035
 20
107.761742
 30
0.0
 42
-0.267949
  0
SEQEND
  5
5E1D
100
AcDbEntity
  8
TIE_WIRE
  0
LINE
  5
5F05
100
AcDbEntity
  8
TRACK
100
AcDbLine
 10
128.372395
 20
148.172328
 30
0.0
 11
56.002659
 21
106.710146
 31
0.0
  0
POLYLINE
  5
5F36
100
AcDbEntity
  8
TRACK
100
AcDb2dPolyline
 66
     1
 10
0.0
 20
0.0
 30
0.0
  0
VERTEX
  5
5F37
100
AcDbEntity
  8
TRACK
100
AcDbVertex
100
AcDb2dVertex
 10
128.372395
 20
148.093625
 30
0.0
  0
VERTEX
  5
5F38
100
AcDbEntity
  8
TRACK
100
AcDbVertex
100
AcDb2dVertex
 10
128.131684
 20
147.95465
 30
0.0
  0
VERTEX
  5
5F39
100
AcDbEntity
  8
TRACK
100
AcDbVertex
100
AcDb2dVertex
 10
129.327242
 20
147.346587
 30
0.0
  0
VERTEX
  5
5F3A
100
AcDbEntity
  8
TRACK
100
AcDbVertex
100
AcDb2dVertex
 10
129.808829
 20
147.251097
 30
0.0
  0
VERTEX
  5
5F3B
100
AcDbEntity
  8
TRACK
100
AcDbVertex
100
AcDb2dVertex
 10
130.354156
 20
146.876486
 30
0.0
  0
VERTEX
  5
5F3C
100
AcDbEntity
  8
TRACK
100
AcDbVertex
100
AcDb2dVertex
 10
130.736593
 20
146.597362
 30
0.0
  0
VERTEX
  5
5F3D
100
AcDbEntity
  8
TRACK
100
AcDbVertex
100
AcDb2dVertex
 10
131.041127
 20
146.406384
 30
0.0
  0
VERTEX
  5
5F3E
100
AcDbEntity
  8
TRACK
100
AcDbVertex
100
AcDb2dVertex
 10
131.381071
 20
146.435268
 30
0.0
  0
VERTEX
  5
5F3F
100
AcDbEntity
  8
TRACK
100
AcDbVertex
100
AcDb2dVertex
 10
132.905681
 20
147.315503
 30
0.0
  0
SEQEND
  5
5F40
100
AcDbEntity
  8
TRACK
  0
LINE
  5
5F45
100
AcDbEntity
  8
TRACK
100
AcDbLine
 10
133.012643
 20
145.588796
 30
0.0
 11
118.091008
 21
137.036325
 31
0.0
  0
LEADER
  5
5F86
100
AcDbEntity
  8
TEXT
100
AcDbLeader
  3
LEADER
 72
     1
 73
     0
 40
1.0
 41
10.103448
 76
     3
 10
108.232549
 20
121.617307
 30
0.0
 10
95.193547
 20
130.403467
 30
0.0
 10
88.983435
 20
130.403467
 30
0.0
 77
   256
  0
TEXT
  5
5FC5
100
AcDbEntity
  8
TEXT
100
AcDbText
 10
21.143581
 20
134.922604
 30
0.0
 40
3.0
  1
LATERAL STABILITY STRAP
  7
ARCH
 72
     2
 11
88.695305
 21
134.922604
 31
0.0
100
AcDbText
  0
TEXT
  5
5FC6
100
AcDbEntity
  8
TEXT
100
AcDbText
 10
26.661082
 20
129.803088
 30
0.0
 40
3.0
  1
AS REQUIRED BY DESIGN
  7
ARCH
 72
     2
 11
88.109358
 21
129.803088
 31
0.0
100
AcDbText
  0
ELLIPSE
  5
61DF
100
AcDbEntity
  8
FASTENER
100
AcDbEllipse
 10
72.257288
 20
49.195093
 30
0.0
 11
0.0765465544619687
 21
-0.1325825214724809
 31
0.0
210
0.0
220
0.0
230
1.0
 40
0.57735
 41
0.0000000000002055
 42
6.283185307179805
  0
LINE
  5
61E0
100
AcDbEntity
  8
FASTENER
100
AcDbLine
 10
72.365541
 20
49.132593
 30
0.0
 11
72.149035
 21
49.257593
 31
0.0
  0
LINE
  5
61E1
100
AcDbEntity
  8
FASTENER
100
AcDbLine
 10
72.257288
 20
49.320093
 30
0.0
 11
72.257288
 21
49.070093
 31
0.0
  0
LINE
  5
61E2
100
AcDbEntity
  8
FASTENER
100
AcDbLine
 10
72.906807
 20
48.945093
 30
0.0
 11
72.906807
 21
48.695093
 31
0.0
  0
LINE
  5
61E3
100
AcDbEntity
  8
FASTENER
100
AcDbLine
 10
72.937452
 20
48.8024
 30
0.0
 11
72.798554
 21
48.882593
 31
0.0
  0
ELLIPSE
  5
61E4
100
AcDbEntity
  8
FASTENER
100
AcDbEllipse
 10
72.906807
 20
48.820093
 30
0.0
 11
0.0765465544619687
 21
-0.1325825214724809
 31
0.0
210
0.0
220
0.0
230
1.0
 40
0.57735
 41
2.069182917690056
 42
5.784798716285157
  0
ELLIPSE
  5
61E5
100
AcDbEntity
  8
FASTENER
100
AcDbEllipse
 10
72.257288
 20
50.445093
 30
0.0
 11
0.0765465544619687
 21
-0.1325825214724809
 31
0.0
210
0.0
220
0.0
230
1.0
 40
0.57735
 41
0.0000000000002055
 42
6.283185307179805
  0
LINE
  5
61E6
100
AcDbEntity
  8
FASTENER
100
AcDbLine
 10
72.365541
 20
50.382593
 30
0.0
 11
72.149035
 21
50.507593
 31
0.0
  0
LINE
  5
61E7
100
AcDbEntity
  8
FASTENER
100
AcDbLine
 10
72.257288
 20
50.570093
 30
0.0
 11
72.257288
 21
50.320093
 31
0.0
  0
LINE
  5
61E8
100
AcDbEntity
  8
FASTENER
100
AcDbLine
 10
72.906807
 20
50.195093
 30
0.0
 11
72.906807
 21
49.945093
 31
0.0
  0
LINE
  5
61E9
100
AcDbEntity
  8
FASTENER
100
AcDbLine
 10
72.937452
 20
50.0524
 30
0.0
 11
72.798554
 21
50.132593
 31
0.0
  0
ELLIPSE
  5
61EA
100
AcDbEntity
  8
FASTENER
100
AcDbEllipse
 10
72.906807
 20
50.070093
 30
0.0
 11
0.0765465544619687
 21
-0.1325825214724809
 31
0.0
210
0.0
220
0.0
230
1.0
 40
0.57735
 41
2.069182917690056
 42
5.784798716285157
  0
ELLIPSE
  5
61EB
100
AcDbEntity
  8
FASTENER
100
AcDbEllipse
 10
72.257288
 20
51.695093
 30
0.0
 11
0.0765465544619687
 21
-0.1325825214724809
 31
0.0
210
0.0
220
0.0
230
1.0
 40
0.57735
 41
0.0000000000002055
 42
6.283185307179805
  0
LINE
  5
61EC
100
AcDbEntity
  8
FASTENER
100
AcDbLine
 10
72.365541
 20
51.632593
 30
0.0
 11
72.149035
 21
51.757593
 31
0.0
  0
LINE
  5
61ED
100
AcDbEntity
  8
FASTENER
100
AcDbLine
 10
72.257288
 20
51.820093
 30
0.0
 11
72.257288
 21
51.570093
 31
0.0
  0
LINE
  5
61EE
100
AcDbEntity
  8
FASTENER
100
AcDbLine
 10
72.906807
 20
51.445093
 30
0.0
 11
72.906807
 21
51.195093
 31
0.0
  0
LINE
  5
61EF
100
AcDbEntity
  8
FASTENER
100
AcDbLine
 10
72.937452
 20
51.3024
 30
0.0
 11
72.798554
 21
51.382593
 31
0.0
  0
ELLIPSE
  5
61F0
100
AcDbEntity
  8
FASTENER
100
AcDbEllipse
 10
72.906807
 20
51.320093
 30
0.0
 11
0.0765465544619687
 21
-0.1325825214724809
 31
0.0
210
0.0
220
0.0
230
1.0
 40
0.57735
 41
2.069182917690056
 42
5.784798716285157
  0
ELLIPSE
  5
61F1
100
AcDbEntity
  8
FASTENER
100
AcDbEllipse
 10
72.257288
 20
52.945093
 30
0.0
 11
0.0765465544619687
 21
-0.1325825214724809
 31
0.0
210
0.0
220
0.0
230
1.0
 40
0.57735
 41
-0.0000000000001533
 42
6.283185307179446
  0
LINE
  5
61F2
100
AcDbEntity
  8
FASTENER
100
AcDbLine
 10
72.365541
 20
52.882593
 30
0.0
 11
72.149035
 21
53.007593
 31
0.0
  0
LINE
  5
61F3
100
AcDbEntity
  8
FASTENER
100
AcDbLine
 10
72.257288
 20
53.070093
 30
0.0
 11
72.257288
 21
52.820093
 31
0.0
  0
LINE
  5
61F4
100
AcDbEntity
  8
FASTENER
100
AcDbLine
 10
72.906807
 20
52.695093
 30
0.0
 11
72.906807
 21
52.445093
 31
0.0
  0
LINE
  5
61F5
100
AcDbEntity
  8
FASTENER
100
AcDbLine
 10
72.937452
 20
52.5524
 30
0.0
 11
72.798554
 21
52.632593
 31
0.0
  0
ELLIPSE
  5
61F6
100
AcDbEntity
  8
FASTENER
100
AcDbEllipse
 10
72.906807
 20
52.570093
 30
0.0
 11
0.0765465544619687
 21
-0.1325825214724809
 31
0.0
210
0.0
220
0.0
230
1.0
 40
0.57735
 41
2.069182917689761
 42
5.784798716285157
  0
ELLIPSE
  5
61F7
100
AcDbEntity
  8
FASTENER
100
AcDbEllipse
 10
72.257288
 20
54.195093
 30
0.0
 11
0.0765465544619687
 21
-0.1325825214724809
 31
0.0
210
0.0
220
0.0
230
1.0
 40
0.57735
 41
-0.0000000000001533
 42
6.283185307179446
  0
LINE
  5
61F8
100
AcDbEntity
  8
FASTENER
100
AcDbLine
 10
72.365541
 20
54.132593
 30
0.0
 11
72.149035
 21
54.257593
 31
0.0
  0
LINE
  5
61F9
100
AcDbEntity
  8
FASTENER
100
AcDbLine
 10
72.257288
 20
54.320093
 30
0.0
 11
72.257288
 21
54.070093
 31
0.0
  0
LINE
  5
61FA
100
AcDbEntity
  8
FASTENER
100
AcDbLine
 10
72.906807
 20
53.945093
 30
0.0
 11
72.906807
 21
53.695093
 31
0.0
  0
LINE
  5
61FB
100
AcDbEntity
  8
FASTENER
100
AcDbLine
 10
72.937452
 20
53.8024
 30
0.0
 11
72.798554
 21
53.882593
 31
0.0
  0
ELLIPSE
  5
61FC
100
AcDbEntity
  8
FASTENER
100
AcDbEllipse
 10
72.906807
 20
53.820093
 30
0.0
 11
0.0765465544619687
 21
-0.1325825214724809
 31
0.0
210
0.0
220
0.0
230
1.0
 40
0.57735
 41
2.069182917689761
 42
5.78479871628474
  0
ELLIPSE
  5
61FD
100
AcDbEntity
  8
FASTENER
100
AcDbEllipse
 10
72.906807
 20
55.070093
 30
0.0
 11
0.0765465544619687
 21
-0.1325825214724809
 31
0.0
210
0.0
220
0.0
230
1.0
 40
0.57735
 41
2.069182917689761
 42
5.78479871628474
  0
LINE
  5
61FE
100
AcDbEntity
  8
FASTENER
100
AcDbLine
 10
72.937452
 20
55.0524
 30
0.0
 11
72.798554
 21
55.132593
 31
0.0
  0
LINE
  5
61FF
100
AcDbEntity
  8
FASTENER
100
AcDbLine
 10
72.906807
 20
55.195093
 30
0.0
 11
72.906807
 21
54.945093
 31
0.0
  0
LINE
  5
6200
100
AcDbEntity
  8
FASTENER
100
AcDbLine
 10
72.257288
 20
55.570093
 30
0.0
 11
72.257288
 21
55.320093
 31
0.0
  0
LINE
  5
6201
100
AcDbEntity
  8
FASTENER
100
AcDbLine
 10
72.365541
 20
55.382593
 30
0.0
 11
72.149035
 21
55.507593
 31
0.0
  0
ELLIPSE
  5
6202
100
AcDbEntity
  8
FASTENER
100
AcDbEllipse
 10
72.257288
 20
55.445093
 30
0.0
 11
0.0765465544619687
 21
-0.1325825214724809
 31
0.0
210
0.0
220
0.0
230
1.0
 40
0.57735
 41
-0.0000000000001533
 42
6.283185307179446
  0
POLYLINE
  5
6203
100
AcDbEntity
  8
STEEL
100
AcDb2dPolyline
 66
     1
 10
0.0
 20
0.0
 30
0.0
  0
VERTEX
  5
6204
100
AcDbEntity
  8
STEEL
100
AcDbVertex
100
AcDb2dVertex
 10
72.937452
 20
55.617756
 30
0.0
  0
VERTEX
  5
6205
100
AcDbEntity
  8
STEEL
100
AcDbVertex
100
AcDb2dVertex
 10
72.120437
 20
56.08946
 30
0.0
  0
VERTEX
  5
6206
100
AcDbEntity
  8
STEEL
100
AcDbVertex
100
AcDb2dVertex
 10
72.063837
 20
56.056782
 30
0.0
  0
VERTEX
  5
6207
100
AcDbEntity
  8
STEEL
100
AcDbVertex
100
AcDb2dVertex
 10
72.063837
 20
50.908941
 30
0.0
  0
VERTEX
  5
6208
100
AcDbEntity
  8
STEEL
100
AcDbVertex
100
AcDb2dVertex
 10
70.331786
 20
45.315492
 30
0.0
  0
VERTEX
  5
6209
100
AcDbEntity
  8
STEEL
100
AcDbVertex
100
AcDb2dVertex
 10
70.331786
 20
45.250136
 30
0.0
  0
VERTEX
  5
620A
100
AcDbEntity
  8
STEEL
100
AcDbVertex
100
AcDb2dVertex
 10
71.781819
 20
44.412959
 30
0.0
  0
SEQEND
  5
620B
100
AcDbEntity
  8
STEEL
  0
LINE
  5
620C
100
AcDbEntity
  8
STEEL
100
AcDbLine
 10
72.389806
 20
45.776348
 30
0.0
 11
72.389806
 21
45.401348
 31
0.0
  0
LINE
  5
620D
100
AcDbEntity
  8
STEEL
100
AcDbLine
 10
71.471247
 20
45.776348
 30
0.0
 11
71.471247
 21
45.401348
 31
0.0
  0
ELLIPSE
  5
620E
100
AcDbEntity
  8
STEEL
100
AcDbEllipse
 10
71.930526
 20
45.776348
 30
0.0
 11
-0.4592793267718459
 21
0.0
 31
0.0
210
0.0
220
0.0
230
1.0
 40
0.57735
 41
0.0
 42
6.2831853071796
  0
ELLIPSE
  5
620F
100
AcDbEntity
  8
STEEL
100
AcDbEllipse
 10
71.930526
 20
45.401348
 30
0.0
 11
-0.4592793267718459
 21
0.0
 31
0.0
210
0.0
220
0.0
230
1.0
 40
0.57735
 41
0.0
 42
3.141592653589793
  0
ELLIPSE
  5
6210
100
AcDbEntity
  8
STEEL
100
AcDbEllipse
 10
71.930526
 20
45.401348
 30
0.0
 11
-0.9185586535436916
 21
0.0
 31
0.0
210
0.0
220
0.0
230
1.0
 40
0.57735
 41
-1.084101371720117
 42
4.225694025310098
  0
LINE
  5
6211
100
AcDbEntity
  8
STEEL
100
AcDbLine
 10
72.063837
 20
50.717595
 30
0.0
 11
72.063837
 21
46.250136
 31
0.0
  0
LINE
  5
6212
100
AcDbEntity
  8
0
100
AcDbLine
 10
72.063837
 20
50.908941
 30
0.0
 11
72.114102
 21
50.87992
 31
0.0
  0
LINE
  5
6213
100
AcDbEntity
  8
STEEL
100
AcDbLine
 10
70.382051
 20
45.286472
 30
0.0
 11
72.114102
 21
50.87992
 31
0.0
  0
ELLIPSE
  5
6214
100
AcDbEntity
  8
STEEL
100
AcDbEllipse
 10
71.930526
 20
45.335992
 30
0.0
 11
-0.9185586535436916
 21
0.0
 31
0.0
210
0.0
220
0.0
230
1.0
 40
0.57735
 41
-0.0616573342455959
 42
3.203249987835859
  0
LINE
  5
6215
100
AcDbEntity
  8
STEEL
100
AcDbLine
 10
70.331786
 20
45.315492
 30
0.0
 11
71.838419
 21
44.445637
 31
0.0
  0
LINE
  5
6216
100
AcDbEntity
  8
STEEL
100
AcDbLine
 10
72.063837
 20
46.250136
 30
0.0
 11
70.382051
 21
45.286472
 31
0.0
  0
LINE
  5
6217
100
AcDbEntity
  8
STEEL
100
AcDbLine
 10
72.937452
 20
55.5524
 30
0.0
 11
72.063837
 21
56.056782
 31
0.0
  0
LINE
  5
6218
100
AcDbEntity
  8
STEEL
  6
HIDDEN
100
AcDbLine
 10
72.389806
 20
45.401348
 30
0.0
 11
72.389806
 21
38.839668
 31
0.0
  0
LINE
  5
6219
100
AcDbEntity
  8
STEEL
  6
HIDDEN
100
AcDbLine
 10
71.471247
 20
45.401348
 30
0.0
 11
71.471247
 21
38.695395
 31
0.0
  0
LINE
  5
621A
100
AcDbEntity
  8
STEEL
  6
CENTER
100
AcDbLine
 10
71.930526
 20
45.776348
 30
0.0
 11
71.930526
 21
37.443334
 31
0.0
  0
POLYLINE
  5
621B
100
AcDbEntity
  8
STUD
100
AcDb2dPolyline
 66
     1
 10
0.0
 20
0.0
 30
0.0
  0
VERTEX
  5
621C
100
AcDbEntity
  8
STUD
100
AcDbVertex
100
AcDb2dVertex
 10
70.379
 20
45.746083
 30
0.0
 42
0.57735
  0
VERTEX
  5
621D
100
AcDbEntity
  8
STUD
100
AcDbVertex
100
AcDb2dVertex
 10
70.379
 20
45.63783
 30
0.0
  0
VERTEX
  5
621E
100
AcDbEntity
  8
STUD
100
AcDbVertex
100
AcDb2dVertex
 10
70.423622
 20
45.612067
 30
0.0
  0
SEQEND
  5
621F
100
AcDbEntity
  8
STUD
  0
LINE
  5
6220
100
AcDbEntity
  8
BLACK_IRON
100
AcDbLine
 10
72.063837
 20
46.250136
 30
0.0
 11
72.937452
 21
45.745754
 31
0.0
  0
LEADER
  5
632F
100
AcDbEntity
  8
TEXT
100
AcDbLeader
  3
LEADER
 72
     1
 73
     0
 40
6.0
 41
78.689655
 76
     4
 10
70.331786
 20
45.315492
 30
0.0
 10
62.692399
 20
54.962513
 30
0.0
 10
66.908241
 20
65.975704
 30
0.0
 10
60.584478
 20
66.646072
 30
0.0
 77
   256
  0
MTEXT
  5
6330
100
AcDbEntity
  8
TEXT
100
AcDbMText
 10
58.764001
 20
64.922268
 30
0.0
 40
3.0
 41
0.0
 71
     6
 72
     1
  1
{HOLD DOWN &}{ ANCHOR}\P{BOLT AS REQ.}{ BY}\P{ DESIGN}
  7
ARCH
  0
LEADER
  5
633A
100
AcDbEntity
  8
LINK
100
AcDbLeader
  3
LEADER
 72
     1
 73
     0
 74
     0
 40
5.333333
 41
11.655172
 76
     7
 10
-0.335222
 20
14.168886
 30
0.0
 10
-8.324498
 20
17.043534
 30
0.0
 10
-12.691874
 20
18.20375
 30
0.0
 10
-17.787145
 20
17.275577
 30
0.0
 10
-22.639785
 20
13.476467
 30
0.0
 10
-22.639785
 20
8.873774
 30
0.0
 10
-18.151093
 20
5.905467
 30
0.0
 77
   256
1001
PE_URL
1000
6020-010.dwf
  0
MTEXT
  5
6ACA
100
AcDbEntity
  8
TEXT
100
AcDbMText
 10
43.178068
 20
83.731261
 30
0.0
 40
3.0
 41
0.0
 71
     4
 72
     1
  1
{Cross Brace}\P{Isometric}
  7
RIGHT
 11
0.866025
 21
0.5
 31
0.0
1001
PE_URL
1000
6020-011.dwf
  0
POLYLINE
  5
6AE6
100
AcDbEntity
  8
STUD
100
AcDb2dPolyline
 66
     1
 10
0.0
 20
0.0
 30
0.0
  0
VERTEX
  5
6AE7
100
AcDbEntity
  8
STUD
100
AcDbVertex
100
AcDb2dVertex
 10
98.519802
 20
61.95323
 30
0.0
  0
VERTEX
  5
6AE8
100
AcDbEntity
  8
STUD
100
AcDbVertex
100
AcDb2dVertex
 10
99.391404
 20
62.45645
 30
0.0
 42
-0.267949
  0
VERTEX
  5
6AE9
100
AcDbEntity
  8
STUD
100
AcDbVertex
100
AcDb2dVertex
 10
99.419304
 20
62.45645
 30
0.0
  0
VERTEX
  5
6AEA
100
AcDbEntity
  8
STUD
100
AcDbVertex
100
AcDb2dVertex
 10
100.650265
 20
61.745754
 30
0.0
 42
-0.57735
  0
SEQEND
  5
6AEB
100
AcDbEntity
  8
STUD
  0
LINE
  5
6AEC
100
AcDbEntity
  8
TRACK
100
AcDbLine
 10
99.517808
 20
62.399579
 30
0.0
 11
98.519802
 21
61.825301
 31
0.0
  0
POLYLINE
  5
6AED
100
AcDbEntity
  8
STUD
100
AcDb2dPolyline
 66
     1
 10
0.0
 20
0.0
 30
0.0
  0
VERTEX
  5
6AEE
100
AcDbEntity
  8
STUD
100
AcDbVertex
100
AcDb2dVertex
 10
98.091812
 20
61.746083
 30
0.0
 42
0.57735
  0
VERTEX
  5
6AEF
100
AcDbEntity
  8
STUD
100
AcDbVertex
100
AcDb2dVertex
 10
98.091812
 20
61.63783
 30
0.0
  0
VERTEX
  5
6AF0
100
AcDbEntity
  8
STUD
100
AcDbVertex
100
AcDb2dVertex
 10
98.485202
 20
61.410707
 30
0.0
  0
VERTEX
  5
6AF1
100
AcDbEntity
  8
STUD
100
AcDbVertex
100
AcDb2dVertex
 10
98.519802
 20
61.430683
 30
0.0
  0
SEQEND
  5
6AF2
100
AcDbEntity
  8
STUD
  0
LINE
  5
6AF3
100
AcDbEntity
  8
TRACK
100
AcDbLine
 10
98.142824
 20
61.608379
 30
0.0
 11
88.594539
 21
56.114058
 31
0.0
  0
LINE
  5
6AF4
100
AcDbEntity
  8
BLACK_IRON
100
AcDbLine
 10
130.747825
 20
112.935088
 30
0.0
 11
130.747825
 21
112.991688
 31
0.0
  0
POLYLINE
  5
6B11
100
AcDbEntity
  8
BLACK_IRON
100
AcDb2dPolyline
 66
     1
 10
0.0
 20
0.0
 30
0.0
  0
VERTEX
  5
6B12
100
AcDbEntity
  8
BLACK_IRON
100
AcDbVertex
100
AcDb2dVertex
 10
75.251825
 20
106.755997
 30
0.0
  0
SEQEND
  5
6B13
100
AcDbEntity
  8
BLACK_IRON
  0
POLYLINE
  5
6B29
100
AcDbEntity
  8
BLACK_IRON
100
AcDb2dPolyline
 66
     1
 10
0.0
 20
0.0
 30
0.0
  0
VERTEX
  5
6B2A
100
AcDbEntity
  8
BLACK_IRON
100
AcDbVertex
100
AcDb2dVertex
 10
126.731931
 20
112.677879
 30
0.0
  0
VERTEX
  5
6B2B
100
AcDbEntity
  8
BLACK_IRON
100
AcDbVertex
100
AcDb2dVertex
 10
126.731931
 20
112.710557
 30
0.0
 42
-0.57735
  0
VERTEX
  5
6B2C
100
AcDbEntity
  8
BLACK_IRON
100
AcDbVertex
100
AcDb2dVertex
 10
126.919431
 20
112.81881
 30
0.0
  0
VERTEX
  5
6B2D
100
AcDbEntity
  8
BLACK_IRON
100
AcDbVertex
100
AcDb2dVertex
 10
127.968469
 20
112.213147
 30
0.0
 42
-0.267949
  0
VERTEX
  5
6B2E
100
AcDbEntity
  8
BLACK_IRON
100
AcDbVertex
100
AcDb2dVertex
 10
128.030969
 20
112.104894
 30
0.0
  0
VERTEX
  5
6B2F
100
AcDbEntity
  8
BLACK_IRON
100
AcDbVertex
100
AcDb2dVertex
 10
128.030969
 20
111.677063
 30
0.0
  0
SEQEND
  5
6B30
100
AcDbEntity
  8
BLACK_IRON
  0
LINE
  5
6B32
100
AcDbEntity
  8
TRACK
100
AcDbLine
 10
118.091008
 20
69.558732
 30
0.0
 11
131.412446
 21
77.249868
 31
0.0
  0
TEXT
  5
6F8C
100
AcDbEntity
  8
LINK
 62
     1
100
AcDbText
 10
-43.64408
 20
46.016007
 30
0.0
 40
3.0
  1
drawing list
  7
BLOCK
 72
     1
 11
-28.08
 21
46.016007
 31
0.0
100
AcDbText
1001
PE_URL
1000
Cemco_drawings.htm
  0
TEXT
  5
6F8D
100
AcDbEntity
  8
LINK
 62
     1
100
AcDbText
 10
-33.32526
 20
22.016007
 30
0.0
 40
3.0
  1
home
  7
BLOCK
 72
     1
 11
-28.08
 21
22.016007
 31
0.0
100
AcDbText
1001
PE_URL
1000
Cemco_drawings.htm
  0
TEXT
  5
6F8E
100
AcDbEntity
  8
LINK
 62
     1
100
AcDbText
 10
-52.74257
 20
34.016007
 30
0.0
 40
3.0
  1
Assembly drawing 10
  7
BLOCK
 72
     1
 11
-28.08
 21
34.016007
 31
0.0
100
AcDbText
1001
PE_URL
1000
6020-010.dwf
  0
TEXT
  5
6F8F
100
AcDbEntity
  8
LINK
 62
     1
100
AcDbText
 10
-51.437971
 20
28.016007
 30
0.0
 40
3.0
  1
Cemco drawing list
  7
BLOCK
 72
     1
 11
-28.08
 21
28.016007
 31
0.0
100
AcDbText
1001
PE_URL
1000
Cemco_drawings.htm
  0
POLYLINE
  5
6F90
100
AcDbEntity
  8
LAYOUT
100
AcDb2dPolyline
 66
     1
 10
0.0
 20
0.0
 30
0.0
 70
     1
1001
_KTI_ARCHT
1070
 10026
1002
{
1005
6F9F
1002
}
  0
VERTEX
  5
6F91
100
AcDbEntity
  8
LAYOUT
100
AcDbVertex
100
AcDb2dVertex
 10
0.0
 20
0.0
 30
0.0
  0
VERTEX
  5
6F92
100
AcDbEntity
  8
LAYOUT
100
AcDbVertex
100
AcDb2dVertex
 10
246.48
 20
0.0
 30
0.0
  0
VERTEX
  5
6F93
100
AcDbEntity
  8
LAYOUT
100
AcDbVertex
100
AcDb2dVertex
 10
246.48
 20
190.32
 30
0.0
  0
VERTEX
  5
6F94
100
AcDbEntity
  8
LAYOUT
100
AcDbVertex
100
AcDb2dVertex
 10
0.0
 20
190.32
 30
0.0
  0
SEQEND
  5
6F95
100
AcDbEntity
  8
LAYOUT
  0
POLYLINE
  5
6F96
100
AcDbEntity
  8
LAYOUT
100
AcDb2dPolyline
 66
     1
 10
0.0
 20
0.0
 30
0.0
 70
     1
  0
VERTEX
  5
6F97
100
AcDbEntity
  8
LAYOUT
100
AcDbVertex
100
AcDb2dVertex
 10
0.0
 20
246.48
 30
0.0
  0
VERTEX
  5
6F98
100
AcDbEntity
  8
LAYOUT
100
AcDbVertex
100
AcDb2dVertex
 10
0.0
 20
0.0
 30
0.0
  0
VERTEX
  5
6F99
100
AcDbEntity
  8
LAYOUT
100
AcDbVertex
100
AcDb2dVertex
 10
190.32
 20
0.0
 30
0.0
  0
VERTEX
  5
6F9A
100
AcDbEntity
  8
LAYOUT
100
AcDbVertex
100
AcDb2dVertex
 10
190.32
 20
246.48
 30
0.0
  0
SEQEND
  5
6F9B
100
AcDbEntity
  8
LAYOUT
  0
TEXT
  5
6F9E
100
AcDbEntity
  8
LINK
 62
     1
100
AcDbText
 10
-51.454824
 20
40.016007
 30
0.0
 40
3.0
  1
Assembly drawing 9
  7
BLOCK
 72
     1
 11
-28.08
 21
40.016007
 31
0.0
100
AcDbText
1001
PE_URL
1000
Cemco_drawings.htm
  0
MTEXT
  5
6FA3
100
AcDbEntity
  8
LINK
100
AcDbMText
 10
-17.004595
 20
4.396492
 30
0.0
 40
3.0
 41
0.0
 71
     7
 72
     1
  1
{Back}\P{Button}
  7
ARCH
1001
PE_URL
1000
6020-010.dwf
  0
INSERT
  5
6FA5
100
AcDbEntity
  8
D-TEXT
100
AcDbBlockReference
 66
     1
  2
DETAIL_TITLE
 10
0.0
 20
0.0
 30
0.0
 41
24.0
 42
24.0
 43
24.0
1001
PE_URL
1000
6020-010.dwf
  0
ATTRIB
  5
6FA6
100
AcDbEntity
  8
D-TEXT
100
AcDbText
 10
27.924461
 20
15.603424
 30
0.0
 40
6.0
  1
SHEAR WALL CROSS BRACE
  7
BLOCK
100
AcDbAttribute
  2
DETAIL_DISCRIPTION
 70
     0
  0
ATTRIB
  5
6FA7
100
AcDbEntity
  8
D-TEXT
100
AcDbText
 10
-0.603781
 20
9.462231
 30
0.0
 40
6.0
  1
D-11b
  7
BLD
 72
     1
 11
12.462231
 21
12.462231
 31
0.0
100
AcDbAttribute
  2
DETAIL_NO
 70
     0
 74
     2
  0
ATTRIB
  5
6FA8
100
AcDbEntity
  8
D-TEXT
100
AcDbText
 10
27.924461
 20
4.129176
 30
0.0
 40
4.5
  1
N. T. Scale 1/2" = 1'0"
  7
BLOCK
100
AcDbAttribute
  2
SCALE
 70
     0
  0
SEQEND
  5
6FA9
100
AcDbEntity
  8
D-TEXT
  0
TEXT
  5
7000
100
AcDbEntity
  8
LINK
100
AcDbText
 10
-49.101393
 20
1.937597
 30
0.0
 40
6.0
  1
24
  7
BLOCK
 11
-49.101393
 21
1.937597
 31
0.0
100
AcDbText
 73
     1
  0
POLYLINE
  5
7028
100
AcDbEntity
  8
_KTI_CONTROL
 60
     1
100
AcDb3dPolyline
 66
     1
 10
0.0
 20
0.0
 30
0.0
 70
     8
1001
_KTI_ARCHT
1070
 12000
1000
ENVIRONMENT
1070
 10003
1000
6020-011_b
1070
 20000
1000
standard
1070
 20001
1000
f:\archt
1070
 20003
1000
j:\archt
1070
 20002
1000
f:\archt\tmp
1070
 20004
1002
{
1000
f:\archt\blks
1000
f:\archt\blks3d
1000
h:\archt\blks
1000
h:\archt\blks3d
1000
j:\archt\blks
1000
j:\archt\blks3d
1002
}
1070
 20005
1002
{
1000
f:\archt\slds
1002
}
1070
 20006
1002
{
1000
f:\archt\dclswin
1002
}
1070
 20007
1002
{
1000
f:\archt\docs
1002
}
1070
 20008
1002
{
1000
f:\archt\help
1002
}
  0
VERTEX
  5
7029
100
AcDbEntity
  8
_KTI_CONTROL
100
AcDbVertex
100
AcDb3dPolylineVertex
 10
0.0
 20
0.0
 30
0.0
 70
    32
  0
VERTEX
  5
702A
100
AcDbEntity
  8
_KTI_CONTROL
100
AcDbVertex
100
AcDb3dPolylineVertex
 10
0.0
 20
0.0
 30
0.0
 70
    32
  0
SEQEND
  5
702B
100
AcDbEntity
  8
_KTI_CONTROL
  0
POLYLINE
  5
702C
100
AcDbEntity
  8
_KTI_CONTROL
 60
     1
100
AcDb3dPolyline
 66
     1
 10
0.0
 20
0.0
 30
0.0
 70
     8
1001
_KTI_ARCHT
1070
 12000
1000
ARCHTVARS
1070
 10003
1000
6020-011_b
1070
 12030
1000
in
1070
 12020
1070
     1
1070
 12021
1070
     0
1070
 12070
1070
     0
1070
 12071
1070
     1
1070
 12907
1070
     0
1070
 12072
1070
     2
1070
 12073
1070
    48
1070
 12074
1070
     0
1070
 12080
1070
     1
1070
 12092
1070
     1
1070
 12096
1070
     0
1070
 12095
1070
     0
1070
 12081
1070
     1
1070
 12082
1070
     1
1070
 12083
1070
     1
1070
 12084
1070
     1
1070
 12085
1070
     0
1070
 12086
1070
     1
1070
 12087
1070
     0
1070
 12088
1070
     0
1070
 12097
1070
     1
1070
 12089
1070
     4
1070
 12090
1070
     6
1070
 12091
1070
     1
1070
 12045
1000
standard
1070
 12046
1000

1070
 12047
1000
standard
1070
 12048
1000

1070
 12049
1000

1070
 12093
1070
     1
1070
 12094
1070
     1
1070
 12908
1070
     0
1070
 12909
1070
     0
1070
 12911
1070
     0
1070
 12910
1070
     0
1070
 12912
1070
     0
1070
 12098
1070
   640
1070
 12060
1002
{
1000

1000

1000

1000

1002
}
1070
 12904
1002
{
1070
     0
1070
     0
1070
     0
1070
     0
1070
     0
1002
}
1070
 12905
1002
{
1040
0.0
1040
0.0
1040
0.0
1040
0.0
1040
0.0
1002
}
1070
 12906
1002
{
1000

1000

1000

1000

1000

1002
}
1070
 12040
1002
{
1002
}
  0
VERTEX
  5
702D
100
AcDbEntity
  8
_KTI_CONTROL
100
AcDbVertex
100
AcDb3dPolylineVertex
 10
0.0
 20
0.0
 30
0.0
 70
    32
  0
VERTEX
  5
702E
100
AcDbEntity
  8
_KTI_CONTROL
100
AcDbVertex
100
AcDb3dPolylineVertex
 10
0.0
 20
0.0
 30
0.0
 70
    32
  0
SEQEND
  5
702F
100
AcDbEntity
  8
_KTI_CONTROL
  0
ENDSEC
  0
SECTION
  2
OBJECTS
  0
DICTIONARY
  5
C
100
AcDbDictionary
  3
ACAD_GROUP
350
D
  3
ACAD_MLINESTYLE
350
E
  0
DICTIONARY
  5
D
102
{ACAD_REACTORS
330
C
102
}
100
AcDbDictionary
  3
*A2
350
5168
  3
STUD_3P625X1P625X96_WOLEENCHALA
350
2174
  0
DICTIONARY
  5
E
102
{ACAD_REACTORS
330
C
102
}
100
AcDbDictionary
  3
STANDARD
350
13
  0
GROUP
  5
5168
102
{ACAD_REACTORS
330
D
102
}
100
AcDbGroup
300

 70
     1
 71
     1
  0
GROUP
  5
2174
102
{ACAD_REACTORS
330
D
102
}
100
AcDbGroup
300
stud_3p625x1p625x96_woleEnchala
 70
     0
 71
     1
  0
MLINESTYLE
  5
13
102
{ACAD_REACTORS
330
E
102
}
100
AcDbMlineStyle
  2
STANDARD
 70
     0
  3

 62
     0
 51
90.0
 52
90.0
 71
     2
 49
0.5
 62
   256
  6
BYLAYER
 49
-0.5
 62
   256
  6
BYLAYER
  0
ENDSEC
  0
EOF
