  0
SECTION
  2
HEADER
  9
$ACADVER
  1
AC1012
  9
$DWGCODEPAGE
  3
ansi_1252
  9
$INSBASE
 10
0.0
 20
0.0
 30
0.0
  9
$EXTMIN
 10
-18.72
 20
0.0
 30
0.0
  9
$EXTMAX
 10
63.44
 20
45.222708
 30
0.0
  9
$LIMMIN
 10
0.0
 20
0.0
  9
$LIMMAX
 10
63.44
 20
63.44
  9
$ORTHOMODE
 70
     0
  9
$REGENMODE
 70
     1
  9
$FILLMODE
 70
     1
  9
$QTEXTMODE
 70
     0
  9
$MIRRTEXT
 70
     1
  9
$DRAGMODE
 70
     2
  9
$LTSCALE
 40
12.0
  9
$OSMODE
 70
    39
  9
$ATTMODE
 70
     1
  9
$TEXTSIZE
 40
24.0
  9
$TRACEWID
 40
3.0
  9
$TEXTSTYLE
  7
ARCH
  9
$CLAYER
  8
D-TEXT
  9
$CELTYPE
  6
BYLAYER
  9
$CECOLOR
 62
   256
  9
$CELTSCALE
 40
1.0
  9
$DELOBJ
 70
     1
  9
$DISPSILH
 70
     0
  9
$DIMSCALE
 40
8.0
  9
$DIMASZ
 40
0.1875
  9
$DIMEXO
 40
0.0625
  9
$DIMDLI
 40
0.375
  9
$DIMRND
 40
0.0
  9
$DIMDLE
 40
0.0
  9
$DIMEXE
 40
0.1875
  9
$DIMTP
 40
0.0
  9
$DIMTM
 40
0.0
  9
$DIMTXT
 40
0.125
  9
$DIMCEN
 40
0.1875
  9
$DIMTSZ
 40
0.0
  9
$DIMTOL
 70
     0
  9
$DIMLIM
 70
     0
  9
$DIMTIH
 70
     1
  9
$DIMTOH
 70
     1
  9
$DIMSE1
 70
     0
  9
$DIMSE2
 70
     0
  9
$DIMTAD
 70
     0
  9
$DIMZIN
 70
     0
  9
$DIMBLK
  1
OBLIQUE
  9
$DIMASO
 70
     1
  9
$DIMSHO
 70
     1
  9
$DIMPOST
  1

  9
$DIMAPOST
  1

  9
$DIMALT
 70
     0
  9
$DIMALTD
 70
     1
  9
$DIMALTF
 40
25.4
  9
$DIMLFAC
 40
1.0
  9
$DIMTOFL
 70
     0
  9
$DIMTVP
 40
0.0
  9
$DIMTIX
 70
     0
  9
$DIMSOXD
 70
     0
  9
$DIMSAH
 70
     1
  9
$DIMBLK1
  1
_OPEN90
  9
$DIMBLK2
  1
_OPEN90
  9
$DIMSTYLE
  2
LEADER
  9
$DIMCLRD
 70
     0
  9
$DIMCLRE
 70
     0
  9
$DIMCLRT
 70
     0
  9
$DIMTFAC
 40
1.0
  9
$DIMGAP
 40
0.125
  9
$DIMJUST
 70
     0
  9
$DIMSD1
 70
     0
  9
$DIMSD2
 70
     0
  9
$DIMTOLJ
 70
     0
  9
$DIMTZIN
 70
     0
  9
$DIMALTZ
 70
     0
  9
$DIMALTTZ
 70
     0
  9
$DIMFIT
 70
     1
  9
$DIMUPT
 70
     1
  9
$DIMUNIT
 70
     4
  9
$DIMDEC
 70
     4
  9
$DIMTDEC
 70
     2
  9
$DIMALTU
 70
     2
  9
$DIMALTTD
 70
     1
  9
$DIMTXSTY
  7
ARCH
  9
$DIMAUNIT
 70
     0
  9
$LUNITS
 70
     4
  9
$LUPREC
 70
     4
  9
$SKETCHINC
 40
12.0
  9
$FILLETRAD
 40
0.25
  9
$AUNITS
 70
     0
  9
$AUPREC
 70
     0
  9
$MENU
  1
.
  9
$ELEVATION
 40
0.0
  9
$PELEVATION
 40
0.0
  9
$THICKNESS
 40
0.0
  9
$LIMCHECK
 70
     0
  9
$BLIPMODE
 70
     1
  9
$CHAMFERA
 40
24.0
  9
$CHAMFERB
 40
24.0
  9
$CHAMFERC
 40
24.0
  9
$CHAMFERD
 40
0.785398
  9
$SKPOLY
 70
     0
  9
$TDCREATE
 40
2451083.741152083
  9
$TDUPDATE
 40
2451103.330228009
  9
$TDINDWG
 40
0.0826951389
  9
$TDUSRTIMER
 40
0.0826951389
  9
$USRTIMER
 70
     1
  9
$ANGBASE
 50
0.0
  9
$ANGDIR
 70
     0
  9
$PDMODE
 70
    34
  9
$PDSIZE
 40
0.0
  9
$PLINEWID
 40
0.0
  9
$COORDS
 70
     2
  9
$SPLFRAME
 70
     0
  9
$SPLINETYPE
 70
     6
  9
$SPLINESEGS
 70
     8
  9
$ATTDIA
 70
     0
  9
$ATTREQ
 70
     1
  9
$HANDLING
 70
     1
  9
$HANDSEED
  5
1FA1
  9
$SURFTAB1
 70
     6
  9
$SURFTAB2
 70
     6
  9
$SURFTYPE
 70
     6
  9
$SURFU
 70
     6
  9
$SURFV
 70
     6
  9
$UCSNAME
  2

  9
$UCSORG
 10
0.0
 20
0.0
 30
0.0
  9
$UCSXDIR
 10
1.0
 20
0.0
 30
0.0
  9
$UCSYDIR
 10
0.0
 20
1.0
 30
0.0
  9
$PUCSNAME
  2

  9
$PUCSORG
 10
0.0
 20
0.0
 30
0.0
  9
$PUCSXDIR
 10
1.0
 20
0.0
 30
0.0
  9
$PUCSYDIR
 10
0.0
 20
1.0
 30
0.0
  9
$USERI1
 70
     0
  9
$USERI2
 70
     0
  9
$USERI3
 70
     0
  9
$USERI4
 70
     0
  9
$USERI5
 70
     0
  9
$USERR1
 40
0.0
  9
$USERR2
 40
0.0
  9
$USERR3
 40
0.0
  9
$USERR4
 40
0.0
  9
$USERR5
 40
0.0
  9
$WORLDVIEW
 70
     1
  9
$SHADEDGE
 70
     3
  9
$SHADEDIF
 70
    70
  9
$TILEMODE
 70
     1
  9
$MAXACTVP
 70
    16
  9
$PINSBASE
 10
0.0
 20
0.0
 30
0.0
  9
$PLIMCHECK
 70
     0
  9
$PEXTMIN
 10
1.000000E+20
 20
1.000000E+20
 30
1.000000E+20
  9
$PEXTMAX
 10
-1.000000E+20
 20
-1.000000E+20
 30
-1.000000E+20
  9
$PLIMMIN
 10
0.0
 20
0.0
  9
$PLIMMAX
 10
12.0
 20
9.0
  9
$UNITMODE
 70
     0
  9
$VISRETAIN
 70
     0
  9
$PLINEGEN
 70
     0
  9
$PSLTSCALE
 70
     1
  9
$TREEDEPTH
 70
  3020
  9
$PICKSTYLE
 70
     1
  9
$CMLSTYLE
  2
STANDARD
  9
$CMLJUST
 70
     0
  9
$CMLSCALE
 40
1.0
  9
$SAVEIMAGES
 70
     0
  0
ENDSEC
  0
SECTION
  2
CLASSES
  0
ENDSEC
  0
SECTION
  2
TABLES
  0
TABLE
  2
VPORT
  5
8
100
AcDbSymbolTable
 70
     7
  0
VPORT
  5
1FA0
100
AcDbSymbolTableRecord
100
AcDbViewportTableRecord
  2
*ACTIVE
 70
     0
 10
0.0
 20
0.0
 11
1.0
 21
1.0
 12
22.36
 22
27.861003
 13
0.0
 23
0.0
 14
0.25
 24
0.25
 15
1.0
 25
1.0
 16
0.0
 26
0.0
 36
1.0
 17
0.0
 27
0.0
 37
0.0
 40
55.722005
 41
1.474462
 42
50.0
 43
0.0
 44
0.0
 50
0.0
 51
0.0
 71
     0
 72
   100
 73
     1
 74
     1
 75
     0
 76
     1
 77
     0
 78
     2
  0
ENDTAB
  0
TABLE
  2
LTYPE
  5
5
100
AcDbSymbolTable
 70
     1
  0
LTYPE
  5
14
100
AcDbSymbolTableRecord
100
AcDbLinetypeTableRecord
  2
BYBLOCK
 70
     0
  3

 72
    65
 73
     0
 40
0.0
  0
LTYPE
  5
15
100
AcDbSymbolTableRecord
100
AcDbLinetypeTableRecord
  2
BYLAYER
 70
     0
  3

 72
    65
 73
     0
 40
0.0
  0
LTYPE
  5
16
100
AcDbSymbolTableRecord
100
AcDbLinetypeTableRecord
  2
CONTINUOUS
 70
    64
  3
Solid line
 72
    65
 73
     0
 40
0.0
  0
ENDTAB
  0
TABLE
  2
LAYER
  5
2
100
AcDbSymbolTable
 70
     8
  0
LAYER
  5
F
100
AcDbSymbolTableRecord
100
AcDbLayerTableRecord
  2
0
 70
    64
 62
     7
  6
CONTINUOUS
  0
LAYER
  5
2F
100
AcDbSymbolTableRecord
100
AcDbLayerTableRecord
  2
STUD
 70
    64
 62
     5
  6
CONTINUOUS
  0
LAYER
  5
30
100
AcDbSymbolTableRecord
100
AcDbLayerTableRecord
  2
TRACK
 70
    64
 62
     1
  6
CONTINUOUS
  0
LAYER
  5
37
100
AcDbSymbolTableRecord
100
AcDbLayerTableRecord
  2
FASTENER
 70
    64
 62
   204
  6
CONTINUOUS
  0
LAYER
  5
3B
100
AcDbSymbolTableRecord
100
AcDbLayerTableRecord
  2
_KTI_CONTROL
 70
    69
 62
     7
  6
CONTINUOUS
  0
LAYER
  5
1AA2
100
AcDbSymbolTableRecord
100
AcDbLayerTableRecord
  2
LINK
 70
    64
 62
     7
  6
CONTINUOUS
  0
LAYER
  5
1EA6
100
AcDbSymbolTableRecord
100
AcDbLayerTableRecord
  2
D-TEXT
 70
    64
 62
    94
  6
CONTINUOUS
  0
LAYER
  5
1EA7
100
AcDbSymbolTableRecord
100
AcDbLayerTableRecord
  2
LAYOUT
 70
    65
 62
    52
  6
CONTINUOUS
  0
ENDTAB
  0
TABLE
  2
STYLE
  5
3
100
AcDbSymbolTable
 70
     4
  0
STYLE
  5
10
100
AcDbSymbolTableRecord
100
AcDbTextStyleTableRecord
  2
STANDARD
 70
    64
 40
0.0
 41
1.0
 50
0.0
 71
     0
 42
24.0
  3
txt
  4

  0
STYLE
  5
72
100
AcDbSymbolTableRecord
100
AcDbTextStyleTableRecord
  2
ARCH
 70
    64
 40
1.0
 41
1.0
 50
0.0
 71
     0
 42
12.0
  3
F:\r13\com\fonts\Architxt.shx
  4

  0
STYLE
  5
18F0
100
AcDbSymbolTableRecord
100
AcDbTextStyleTableRecord
  2
BLOCK
 70
    64
 40
0.0
 41
1.0
 50
0.0
 71
     0
 42
24.0
  3
F:\r13\com\fonts\monos.ttf
  4

  0
STYLE
  5
1EB0
100
AcDbSymbolTableRecord
100
AcDbTextStyleTableRecord
  2
BLD
 70
    64
 40
0.0
 41
1.0
 50
0.0
 71
     0
 42
1.5
  3
F:\r13\com\fonts\monos.ttf
  4

  0
ENDTAB
  0
TABLE
  2
VIEW
  5
6
100
AcDbSymbolTable
 70
     1
  0
VIEW
  5
1A66
100
AcDbSymbolTableRecord
100
AcDbViewTableRecord
  2
ALL
 70
     0
 40
40.357271
 10
24.713978
 20
20.178635
 41
49.427956
 11
0.0
 21
0.0
 31
1.0
 12
0.0
 22
0.0
 32
0.0
 42
50.0
 43
0.0
 44
0.0
 50
0.0
 71
     0
  0
ENDTAB
  0
TABLE
  2
UCS
  5
7
100
AcDbSymbolTable
 70
     0
  0
ENDTAB
  0
TABLE
  2
APPID
  5
9
100
AcDbSymbolTable
 70
     4
  0
APPID
  5
11
100
AcDbSymbolTableRecord
100
AcDbRegAppTableRecord
  2
ACAD
 70
     0
  0
APPID
  5
3A
100
AcDbSymbolTableRecord
100
AcDbRegAppTableRecord
  2
_KTI_ARCHT
 70
     0
  0
APPID
  5
1A7D
100
AcDbSymbolTableRecord
100
AcDbRegAppTableRecord
  2
PE_URL
 70
     0
  0
APPID
  5
1EB2
100
AcDbSymbolTableRecord
100
AcDbRegAppTableRecord
  2
ADE
 70
     0
  0
ENDTAB
  0
TABLE
  2
DIMSTYLE
  5
A
100
AcDbSymbolTable
 70
     2
  0
DIMSTYLE
105
1D
100
AcDbSymbolTableRecord
100
AcDbDimStyleTableRecord
  2
STANDARD
 70
     0
  3

  4

  5

  6

  7

 40
1.0
 41
0.18
 42
0.0625
 43
0.38
 44
0.18
 45
0.0
 46
0.0
 47
0.0
 48
0.0
140
0.18
141
0.09
142
0.0
143
25.4
144
1.0
145
0.0
146
1.0
147
0.09
 71
     0
 72
     0
 73
     1
 74
     1
 75
     0
 76
     0
 77
     0
 78
     0
170
     0
171
     2
172
     0
173
     0
174
     0
175
     0
176
     0
177
     0
178
     0
270
     2
271
     4
272
     4
273
     2
274
     2
340
10
275
     0
280
     0
281
     0
282
     0
283
     1
284
     0
285
     0
286
     0
287
     3
288
     0
  0
DIMSTYLE
105
18D3
100
AcDbSymbolTableRecord
100
AcDbDimStyleTableRecord
  2
LEADER
 70
     0
  3

  4

  5
OBLIQUE
  6
_OPEN90
  7
_OPEN90
 40
8.0
 41
0.1875
 42
0.0625
 43
0.375
 44
0.1875
 45
0.0
 46
0.0
 47
0.0
 48
0.0
140
0.125
141
0.1875
142
0.0
143
25.4
144
1.0
145
0.0
146
1.0
147
0.125
 71
     0
 72
     0
 73
     1
 74
     1
 75
     0
 76
     0
 77
     0
 78
     0
170
     0
171
     1
172
     0
173
     1
174
     0
175
     0
176
     0
177
     0
178
     0
270
     4
271
     4
272
     2
273
     2
274
     1
340
72
275
     0
280
     0
281
     0
282
     0
283
     0
284
     0
285
     0
286
     0
287
     1
288
     1
  0
ENDTAB
  0
TABLE
  2
BLOCK_RECORD
  5
1
100
AcDbSymbolTable
 70
     1
  0
BLOCK_RECORD
  5
1A
100
AcDbSymbolTableRecord
100
AcDbBlockTableRecord
  2
*MODEL_SPACE
  0
BLOCK_RECORD
  5
17
100
AcDbSymbolTableRecord
100
AcDbBlockTableRecord
  2
*PAPER_SPACE
  0
BLOCK_RECORD
  5
1E8F
100
AcDbSymbolTableRecord
100
AcDbBlockTableRecord
  2
DETAIL_TITLE
  0
ENDTAB
  0
ENDSEC
  0
SECTION
  2
BLOCKS
  0
BLOCK
  5
1B
100
AcDbEntity
  8
0
100
AcDbBlockBegin
  2
*MODEL_SPACE
 70
     0
 10
0.0
 20
0.0
 30
0.0
  3
*MODEL_SPACE
  1

  0
ENDBLK
  5
1C
100
AcDbEntity
  8
0
100
AcDbBlockEnd
  0
BLOCK
  5
18
100
AcDbEntity
 67
     1
  8
0
100
AcDbBlockBegin
  2
*PAPER_SPACE
 70
     0
 10
0.0
 20
0.0
 30
0.0
  3
*PAPER_SPACE
  1

  0
ENDBLK
  5
19
100
AcDbEntity
 67
     1
  8
0
100
AcDbBlockEnd
  0
BLOCK
  5
1E98
100
AcDbEntity
  8
0
100
AcDbBlockBegin
  2
DETAIL_TITLE
 70
    66
 10
0.0
 20
0.0
 30
0.0
  3
DETAIL_TITLE
  1

  0
ATTDEF
  5
1E90
100
AcDbEntity
  8
D-TEXT
100
AcDbText
 10
1.163519
 20
0.650143
 30
0.0
 40
0.25
  1
TYP. 
  7
BLOCK
100
AcDbAttributeDefinition
  3
Enter the title of the detail
  2
DETAIL_DISCRIPTION
 70
     0
  0
POLYLINE
  5
1E91
100
AcDbEntity
  8
D-TEXT
100
AcDb2dPolyline
 66
     1
 10
0.0
 20
0.0
 30
0.0
 40
0.05
 41
0.05
  0
VERTEX
  5
1E92
100
AcDbEntity
  8
D-TEXT
100
AcDbVertex
100
AcDb2dVertex
 10
1.038519
 20
0.51926
 30
0.0
  0
VERTEX
  5
1E93
100
AcDbEntity
  8
D-TEXT
100
AcDbVertex
100
AcDb2dVertex
 10
7.93
 20
0.51926
 30
0.0
  0
SEQEND
  5
1E94
100
AcDbEntity
  8
D-TEXT
  0
ATTDEF
  5
1E95
100
AcDbEntity
  8
D-TEXT
100
AcDbText
 10
0.189467
 20
0.39426
 30
0.0
 40
0.25
  1
D-#
  7
BLD
 72
     1
 11
0.51926
 21
0.51926
 31
0.0
100
AcDbAttributeDefinition
  3
Enter the Detail number
  2
DETAIL_NO
 70
     0
 74
     2
  0
ATTDEF
  5
1E96
100
AcDbEntity
  8
D-TEXT
100
AcDbText
 10
1.163519
 20
0.172049
 30
0.0
 40
0.1875
  1
N. T. Scale 1-1/2" = 1'0"
  7
BLOCK
100
AcDbAttributeDefinition
  3
Type the defanition of scale
  2
SCALE
 70
     0
  0
CIRCLE
  5
1E97
100
AcDbEntity
  8
D-TEXT
100
AcDbCircle
 10
0.51926
 20
0.51926
 30
0.0
 40
0.51926
  0
ENDBLK
  5
1E99
100
AcDbEntity
  8
0
100
AcDbBlockEnd
  0
ENDSEC
  0
SECTION
  2
ENTITIES
  0
ELLIPSE
  5
1417
100
AcDbEntity
  8
FASTENER
100
AcDbEllipse
 10
24.732519
 20
21.685219
 30
0.0
 11
0.153093108923944
 21
-0.0000000000000026
 31
0.0
210
0.0
220
0.0
230
1.0
 40
0.57735
 41
-0.0423426978507401
 42
4.754731678252013
  0
LINE
  5
1418
100
AcDbEntity
  8
FASTENER
100
AcDbLine
 10
24.624265
 20
21.622719
 30
0.0
 11
24.840772
 21
21.747719
 31
0.0
  0
LINE
  5
1419
100
AcDbEntity
  8
FASTENER
100
AcDbLine
 10
24.811336
 20
21.638674
 30
0.0
 11
24.624885
 21
21.748781
 31
0.0
  0
LINE
  5
145F
100
AcDbEntity
  8
TRACK
100
AcDbLine
 10
23.571924
 20
23.468928
 30
0.0
 11
29.755717
 21
27.039143
 31
0.0
  0
LINE
  5
1460
100
AcDbEntity
  8
TRACK
100
AcDbLine
 10
37.172771
 20
27.616476
 30
0.0
 11
26.780466
 21
21.616476
 31
0.0
  0
LINE
  5
1461
100
AcDbEntity
  8
TRACK
100
AcDbLine
 10
26.780466
 20
20.065579
 30
0.0
 11
37.172771
 21
26.065579
 31
0.0
  0
LINE
  5
15B3
100
AcDbEntity
  8
STUD
100
AcDbLine
 10
18.913652
 20
27.668648
 30
0.0
 11
18.913652
 21
17.114521
 31
0.0
  0
LINE
  5
15B4
100
AcDbEntity
  8
STUD
100
AcDbLine
 10
18.457763
 20
27.931856
 30
0.0
 11
18.457763
 21
16.851314
 31
0.0
  0
LINE
  5
15B5
100
AcDbEntity
  8
STUD
100
AcDbLine
 10
16.3273
 20
29.201832
 30
0.0
 11
16.3273
 21
17.201832
 31
0.0
  0
LINE
  5
15B7
100
AcDbEntity
  8
STUD
100
AcDbLine
 10
17.226802
 20
30.227599
 30
0.0
 11
17.226802
 21
18.227599
 31
0.0
  0
LINE
  5
15B8
100
AcDbEntity
  8
STUD
100
AcDbLine
 10
20.258444
 20
17.890937
 30
0.0
 11
20.258444
 21
28.408979
 31
0.0
  0
LINE
  5
15B9
100
AcDbEntity
  8
STUD
100
AcDbLine
 10
18.976152
 20
27.668648
 30
0.0
 11
18.976152
 21
17.150606
 31
0.0
  0
LINE
  5
15BA
100
AcDbEntity
  8
STUD
100
AcDbLine
 10
16.2927
 20
29.181856
 30
0.0
 11
16.2927
 21
17.181856
 31
0.0
  0
LINE
  5
15BB
100
AcDbEntity
  8
STUD
100
AcDbLine
 10
15.89931
 20
17.408979
 30
0.0
 11
15.89931
 21
29.408979
 31
0.0
  0
LINE
  5
15CC
100
AcDbEntity
  8
STUD
100
AcDbLine
 10
29.755717
 20
26.798481
 30
0.0
 11
29.755717
 21
37.408979
 31
0.0
  0
LINE
  5
15CD
100
AcDbEntity
  8
STUD
100
AcDbLine
 10
30.149106
 20
37.181856
 30
0.0
 11
30.149106
 21
26.571358
 31
0.0
  0
LINE
  5
15CE
100
AcDbEntity
  8
STUD
100
AcDbLine
 10
32.832559
 20
35.668648
 30
0.0
 11
32.832559
 21
25.174084
 31
0.0
  0
LINE
  5
15CF
100
AcDbEntity
  8
STUD
100
AcDbLine
 10
34.11485
 20
25.919361
 30
0.0
 11
34.11485
 21
36.408979
 31
0.0
  0
LINE
  5
15D0
100
AcDbEntity
  8
STUD
100
AcDbLine
 10
31.083208
 20
38.227599
 30
0.0
 11
31.083208
 21
26.227599
 31
0.0
  0
LINE
  5
15D1
100
AcDbEntity
  8
STUD
100
AcDbLine
 10
30.183706
 20
37.201832
 30
0.0
 11
30.183706
 21
26.551382
 31
0.0
  0
LINE
  5
15D2
100
AcDbEntity
  8
STUD
100
AcDbLine
 10
32.31417
 20
35.931856
 30
0.0
 11
32.31417
 21
25.321358
 31
0.0
  0
LINE
  5
15D3
100
AcDbEntity
  8
STUD
100
AcDbLine
 10
32.770059
 20
35.668648
 30
0.0
 11
32.770059
 21
25.137758
 31
0.0
  0
LINE
  5
161C
100
AcDbEntity
  8
FASTENER
100
AcDbLine
 10
34.149925
 20
26.996657
 30
0.0
 11
34.11485
 21
27.01737
 31
0.0
  0
LINE
  5
161D
100
AcDbEntity
  8
FASTENER
100
AcDbLine
 10
34.11485
 20
27.102111
 30
0.0
 11
34.150545
 21
27.122719
 31
0.0
  0
ELLIPSE
  5
161E
100
AcDbEntity
  8
FASTENER
100
AcDbEllipse
 10
34.042292
 20
27.060219
 30
0.0
 11
0.153093108923944
 21
-0.0000000000000026
 31
0.0
210
0.0
220
0.0
230
1.0
 40
0.57735
 41
-1.077025098309506
 42
1.077025098309595
  0
ELLIPSE
  5
161F
100
AcDbEntity
  8
FASTENER
100
AcDbEllipse
 10
23.216974
 20
20.810219
 30
0.0
 11
0.153093108923944
 21
-0.0000000000000026
 31
0.0
210
0.0
220
0.0
230
1.0
 40
0.57735
 41
-0.0423426980135928
 42
3.459593301026135
  0
LINE
  5
1620
100
AcDbEntity
  8
FASTENER
100
AcDbLine
 10
23.126672
 20
20.758083
 30
0.0
 11
23.325227
 21
20.872719
 31
0.0
  0
LINE
  5
1621
100
AcDbEntity
  8
FASTENER
100
AcDbLine
 10
23.293331
 20
20.765127
 30
0.0
 11
23.109341
 21
20.873781
 31
0.0
  0
LINE
  5
162B
100
AcDbEntity
  8
TRACK
100
AcDbLine
 10
17.325306
 20
18.170728
 30
0.0
 11
16.3273
 21
17.59645
 31
0.0
  0
LINE
  5
162C
100
AcDbEntity
  8
TRACK
100
AcDbLine
 10
15.856374
 20
13.758551
 30
0.0
 11
26.347454
 21
19.815579
 31
0.0
  0
LINE
  5
162D
100
AcDbEntity
  8
TRACK
100
AcDbLine
 10
26.312854
 20
21.386452
 30
0.0
 11
15.920549
 21
15.386452
 31
0.0
  0
LINE
  5
162E
100
AcDbEntity
  8
TRACK
100
AcDbLine
 10
12.746607
 20
17.218928
 30
0.0
 11
15.89931
 21
19.039143
 31
0.0
  0
POLYLINE
  5
162F
100
AcDbEntity
  8
TRACK
100
AcDb2dPolyline
 66
     1
 10
0.0
 20
0.0
 30
0.0
 70
     1
  0
VERTEX
  5
1630
100
AcDbEntity
  8
TRACK
100
AcDbVertex
100
AcDb2dVertex
 10
12.781207
 20
17.198952
 30
0.0
  0
VERTEX
  5
1631
100
AcDbEntity
  8
TRACK
100
AcDbVertex
100
AcDb2dVertex
 10
12.781207
 20
15.591994
 30
0.0
 42
0.267949
  0
VERTEX
  5
1632
100
AcDbEntity
  8
TRACK
100
AcDbVertex
100
AcDb2dVertex
 10
12.796832
 20
15.564931
 30
0.0
  0
VERTEX
  5
1633
100
AcDbEntity
  8
TRACK
100
AcDbVertex
100
AcDb2dVertex
 10
15.873674
 20
13.788515
 30
0.0
 42
0.57735
  0
VERTEX
  5
1634
100
AcDbEntity
  8
TRACK
100
AcDbVertex
100
AcDb2dVertex
 10
15.920549
 20
13.815579
 30
0.0
  0
VERTEX
  5
1635
100
AcDbEntity
  8
TRACK
100
AcDbVertex
100
AcDb2dVertex
 10
15.920549
 20
15.386452
 30
0.0
  0
VERTEX
  5
1636
100
AcDbEntity
  8
TRACK
100
AcDbVertex
100
AcDb2dVertex
 10
15.955149
 20
15.366476
 30
0.0
  0
VERTEX
  5
1637
100
AcDbEntity
  8
TRACK
100
AcDbVertex
100
AcDb2dVertex
 10
15.955149
 20
13.815579
 30
0.0
 42
-0.57735
  0
VERTEX
  5
1638
100
AcDbEntity
  8
TRACK
100
AcDbVertex
100
AcDb2dVertex
 10
15.856374
 20
13.758551
 30
0.0
  0
VERTEX
  5
1639
100
AcDbEntity
  8
TRACK
100
AcDbVertex
100
AcDb2dVertex
 10
12.779532
 20
15.534967
 30
0.0
 42
-0.267949
  0
VERTEX
  5
163A
100
AcDbEntity
  8
TRACK
100
AcDbVertex
100
AcDb2dVertex
 10
12.746607
 20
15.591994
 30
0.0
  0
VERTEX
  5
163B
100
AcDbEntity
  8
TRACK
100
AcDbVertex
100
AcDb2dVertex
 10
12.746607
 20
17.218928
 30
0.0
  0
SEQEND
  5
163C
100
AcDbEntity
  8
TRACK
  0
LINE
  5
1662
100
AcDbEntity
  8
FASTENER
100
AcDbLine
 10
20.397186
 20
18.728804
 30
0.0
 11
20.258444
 21
18.810737
 31
0.0
  0
LINE
  5
1663
100
AcDbEntity
  8
FASTENER
100
AcDbLine
 10
20.258444
 20
18.774405
 30
0.0
 11
20.397806
 21
18.854866
 31
0.0
  0
ELLIPSE
  5
1664
100
AcDbEntity
  8
FASTENER
100
AcDbEllipse
 10
20.289553
 20
18.792366
 30
0.0
 11
0.153093108923944
 21
-0.0000000000000025
 31
0.0
210
0.0
220
0.0
230
1.0
 40
0.57735
 41
-1.775428075812778
 42
1.775428075812844
  0
POLYLINE
  5
1688
100
AcDbEntity
  8
STUD
100
AcDb2dPolyline
 66
     1
 10
0.0
 20
0.0
 30
0.0
 70
     1
  0
VERTEX
  5
1689
100
AcDbEntity
  8
STUD
100
AcDbVertex
100
AcDb2dVertex
 10
23.32505
 20
20.780566
 30
0.0
 42
-0.267949
  0
VERTEX
  5
168A
100
AcDbEntity
  8
STUD
100
AcDbVertex
100
AcDb2dVertex
 10
23.07505
 20
20.780566
 30
0.0
  0
VERTEX
  5
168B
100
AcDbEntity
  8
STUD
100
AcDbVertex
100
AcDb2dVertex
 10
22.276012
 20
21.241891
 30
0.0
 42
-0.57735
  0
VERTEX
  5
168C
100
AcDbEntity
  8
STUD
100
AcDbVertex
100
AcDb2dVertex
 10
22.276012
 20
21.674904
 30
0.0
  0
VERTEX
  5
168D
100
AcDbEntity
  8
STUD
100
AcDbVertex
100
AcDb2dVertex
 10
24.590594
 20
23.011229
 30
0.0
 42
-0.267949
  0
VERTEX
  5
168E
100
AcDbEntity
  8
STUD
100
AcDbVertex
100
AcDb2dVertex
 10
24.840594
 20
23.011229
 30
0.0
  0
VERTEX
  5
168F
100
AcDbEntity
  8
STUD
100
AcDbVertex
100
AcDb2dVertex
 10
25.639632
 20
22.549904
 30
0.0
 42
-0.57735
  0
VERTEX
  5
1690
100
AcDbEntity
  8
STUD
100
AcDbVertex
100
AcDb2dVertex
 10
25.639632
 20
22.116891
 30
0.0
  0
SEQEND
  5
1691
100
AcDbEntity
  8
STUD
  0
LINE
  5
1694
100
AcDbEntity
  8
STUD
100
AcDbLine
 10
22.80944
 20
20.933916
 30
0.0
 11
25.624023
 21
22.558916
 31
0.0
  0
LINE
  5
1695
100
AcDbEntity
  8
STUD
100
AcDbLine
 10
22.84404
 20
20.91394
 30
0.0
 11
25.657705
 21
22.53841
 31
0.0
  0
LINE
  5
16F9
100
AcDbEntity
  8
STUD
100
AcDbLine
 10
20.485347
 20
18.150732
 30
0.0
 11
32.609703
 21
25.150732
 31
0.0
  0
LINE
  5
16FA
100
AcDbEntity
  8
STUD
100
AcDbLine
 10
29.595361
 20
26.891063
 30
0.0
 11
20.258444
 21
21.500391
 31
0.0
  0
LINE
  5
16FB
100
AcDbEntity
  8
STUD
100
AcDbLine
 10
22.342951
 20
21.203244
 30
0.0
 11
25.157534
 21
22.828244
 31
0.0
  0
LINE
  5
16FC
100
AcDbEntity
  8
STUD
100
AcDbLine
 10
20.516597
 20
18.096605
 30
0.0
 11
32.640953
 21
25.096605
 31
0.0
  0
ELLIPSE
  5
1722
100
AcDbEntity
  8
FASTENER
100
AcDbEllipse
 10
23.908224
 20
19.444892
 30
0.0
 11
-0.0765465544619743
 21
-0.1325825214724723
 31
0.0
210
0.0
220
0.0
230
1.0
 40
0.57735
 41
0.0000000000004707
 42
6.283185307180071
  0
ELLIPSE
  5
1723
100
AcDbEntity
  8
FASTENER
100
AcDbEllipse
 10
29.094622
 20
22.46198
 30
0.0
 11
-0.0765465544619742
 21
-0.1325825214724724
 31
0.0
210
0.0
220
0.0
230
1.0
 40
0.57735
 41
0.0000000000004696
 42
6.28318530718007
  0
LINE
  5
1724
100
AcDbEntity
  8
FASTENER
100
AcDbLine
 10
23.908224
 20
19.569892
 30
0.0
 11
23.908224
 21
19.319892
 31
0.0
  0
LINE
  5
1725
100
AcDbEntity
  8
FASTENER
100
AcDbLine
 10
23.799361
 20
19.38346
 30
0.0
 11
24.017087
 21
19.506324
 31
0.0
  0
LINE
  5
1726
100
AcDbEntity
  8
FASTENER
100
AcDbLine
 10
29.094622
 20
22.58698
 30
0.0
 11
29.094622
 21
22.33698
 31
0.0
  0
LINE
  5
1727
100
AcDbEntity
  8
FASTENER
100
AcDbLine
 10
28.985759
 20
22.400548
 30
0.0
 11
29.203485
 21
22.523412
 31
0.0
  0
LINE
  5
1728
100
AcDbEntity
  8
FASTENER
100
AcDbLine
 10
27.293206
 20
21.400632
 30
0.0
 11
27.510932
 21
21.523496
 31
0.0
  0
LINE
  5
1729
100
AcDbEntity
  8
FASTENER
100
AcDbLine
 10
27.402069
 20
21.587064
 30
0.0
 11
27.402069
 21
21.337064
 31
0.0
  0
ELLIPSE
  5
172A
100
AcDbEntity
  8
FASTENER
100
AcDbEllipse
 10
27.402069
 20
21.462064
 30
0.0
 11
-0.0765465544619743
 21
-0.1325825214724723
 31
0.0
210
0.0
220
0.0
230
1.0
 40
0.57735
 41
0.0000000000004707
 42
6.283185307180071
  0
LINE
  5
172B
100
AcDbEntity
  8
FASTENER
100
AcDbLine
 10
25.554635
 20
20.419588
 30
0.0
 11
25.77236
 21
20.542452
 31
0.0
  0
LINE
  5
172C
100
AcDbEntity
  8
FASTENER
100
AcDbLine
 10
25.663498
 20
20.60602
 30
0.0
 11
25.663498
 21
20.35602
 31
0.0
  0
ELLIPSE
  5
172D
100
AcDbEntity
  8
FASTENER
100
AcDbEllipse
 10
25.663498
 20
20.48102
 30
0.0
 11
-0.0765465544619742
 21
-0.1325825214724724
 31
0.0
210
0.0
220
0.0
230
1.0
 40
0.57735
 41
0.0000000000004696
 42
6.28318530718007
  0
LINE
  5
172E
100
AcDbEntity
  8
FASTENER
100
AcDbLine
 10
21.201285
 20
17.88346
 30
0.0
 11
21.419011
 21
18.006324
 31
0.0
  0
LINE
  5
172F
100
AcDbEntity
  8
FASTENER
100
AcDbLine
 10
21.310148
 20
18.069892
 30
0.0
 11
21.310148
 21
17.819892
 31
0.0
  0
ELLIPSE
  5
1730
100
AcDbEntity
  8
FASTENER
100
AcDbEllipse
 10
21.310148
 20
17.944892
 30
0.0
 11
-0.0765465544619743
 21
-0.1325825214724723
 31
0.0
210
0.0
220
0.0
230
1.0
 40
0.57735
 41
0.0000000000004707
 42
6.283185307180071
  0
LINE
  5
1731
100
AcDbEntity
  8
FASTENER
100
AcDbLine
 10
19.45948
 20
16.900548
 30
0.0
 11
19.677205
 21
17.023412
 31
0.0
  0
LINE
  5
1732
100
AcDbEntity
  8
FASTENER
100
AcDbLine
 10
19.568343
 20
17.08698
 30
0.0
 11
19.568343
 21
16.83698
 31
0.0
  0
ELLIPSE
  5
1733
100
AcDbEntity
  8
FASTENER
100
AcDbEllipse
 10
19.568343
 20
16.96198
 30
0.0
 11
-0.0765465544619742
 21
-0.1325825214724724
 31
0.0
210
0.0
220
0.0
230
1.0
 40
0.57735
 41
0.0000000000004696
 42
6.28318530718007
  0
LINE
  5
1734
100
AcDbEntity
  8
FASTENER
100
AcDbLine
 10
33.325641
 20
24.88346
 30
0.0
 11
33.543366
 21
25.006324
 31
0.0
  0
LINE
  5
1735
100
AcDbEntity
  8
FASTENER
100
AcDbLine
 10
33.434503
 20
25.069892
 30
0.0
 11
33.434503
 21
24.819892
 31
0.0
  0
ELLIPSE
  5
1736
100
AcDbEntity
  8
FASTENER
100
AcDbEllipse
 10
33.434503
 20
24.944892
 30
0.0
 11
-0.0765465544619743
 21
-0.1325825214724723
 31
0.0
210
0.0
220
0.0
230
1.0
 40
0.57735
 41
0.0000000000003261
 42
6.283185307179926
  0
LINE
  5
1737
100
AcDbEntity
  8
FASTENER
100
AcDbLine
 10
31.583835
 20
23.900548
 30
0.0
 11
31.801561
 21
24.023412
 31
0.0
  0
LINE
  5
1738
100
AcDbEntity
  8
FASTENER
100
AcDbLine
 10
31.692698
 20
24.08698
 30
0.0
 11
31.692698
 21
23.83698
 31
0.0
  0
ELLIPSE
  5
1739
100
AcDbEntity
  8
FASTENER
100
AcDbEllipse
 10
31.692698
 20
23.96198
 30
0.0
 11
-0.0765465544619742
 21
-0.1325825214724724
 31
0.0
210
0.0
220
0.0
230
1.0
 40
0.57735
 41
0.0000000000004696
 42
6.28318530718007
  0
POLYLINE
  5
174D
100
AcDbEntity
  8
STUD
100
AcDb2dPolyline
 66
     1
 10
0.0
 20
0.0
 30
0.0
  0
VERTEX
  5
174E
100
AcDbEntity
  8
STUD
100
AcDbVertex
100
AcDb2dVertex
 10
22.151811
 20
21.438421
 30
0.0
 42
-0.246627
  0
VERTEX
  5
174F
100
AcDbEntity
  8
STUD
100
AcDbVertex
100
AcDb2dVertex
 10
22.276012
 20
21.634951
 30
0.0
  0
VERTEX
  5
1750
100
AcDbEntity
  8
STUD
100
AcDbVertex
100
AcDb2dVertex
 10
24.590594
 20
22.971276
 30
0.0
 42
-0.267949
  0
VERTEX
  5
1751
100
AcDbEntity
  8
STUD
100
AcDbVertex
100
AcDb2dVertex
 10
24.840594
 20
22.971276
 30
0.0
  0
VERTEX
  5
1752
100
AcDbEntity
  8
STUD
100
AcDbVertex
100
AcDb2dVertex
 10
25.639632
 20
22.509951
 30
0.0
 42
-0.246627
  0
VERTEX
  5
1753
100
AcDbEntity
  8
STUD
100
AcDbVertex
100
AcDb2dVertex
 10
25.763833
 20
22.313421
 30
0.0
  0
SEQEND
  5
1754
100
AcDbEntity
  8
STUD
  0
LINE
  5
1755
100
AcDbEntity
  8
STUD
100
AcDbLine
 10
26.347454
 20
19.982389
 30
0.0
 11
26.780466
 21
20.232389
 31
0.0
  0
LINE
  5
1758
100
AcDbEntity
  8
TRACK
100
AcDbLine
 10
37.138171
 20
27.636452
 30
0.0
 11
26.745866
 21
21.636452
 31
0.0
  0
LINE
  5
1759
100
AcDbEntity
  8
TRACK
100
AcDbLine
 10
26.347454
 20
21.366476
 30
0.0
 11
15.955149
 21
15.366476
 31
0.0
  0
POLYLINE
  5
1761
100
AcDbEntity
  8
TRACK
100
AcDb2dPolyline
 66
     1
 10
0.0
 20
0.0
 30
0.0
  0
VERTEX
  5
1762
100
AcDbEntity
  8
TRACK
100
AcDbVertex
100
AcDb2dVertex
 10
23.138911
 20
23.218928
 30
0.0
  0
VERTEX
  5
1763
100
AcDbEntity
  8
TRACK
100
AcDbVertex
100
AcDb2dVertex
 10
23.173511
 20
23.198952
 30
0.0
  0
SEQEND
  5
1764
100
AcDbEntity
  8
TRACK
  0
POLYLINE
  5
177E
100
AcDbEntity
  8
TRACK
100
AcDb2dPolyline
 66
     1
 10
0.0
 20
0.0
 30
0.0
  0
VERTEX
  5
177F
100
AcDbEntity
  8
TRACK
100
AcDbVertex
100
AcDb2dVertex
 10
26.571829
 20
20.111933
 30
0.0
  0
VERTEX
  5
1780
100
AcDbEntity
  8
TRACK
100
AcDbVertex
100
AcDb2dVertex
 10
26.698991
 20
20.038515
 30
0.0
 42
0.57735
  0
VERTEX
  5
1781
100
AcDbEntity
  8
TRACK
100
AcDbVertex
100
AcDb2dVertex
 10
26.745866
 20
20.065579
 30
0.0
  0
VERTEX
  5
1782
100
AcDbEntity
  8
TRACK
100
AcDbVertex
100
AcDb2dVertex
 10
26.745866
 20
21.636452
 30
0.0
  0
VERTEX
  5
1783
100
AcDbEntity
  8
TRACK
100
AcDbVertex
100
AcDb2dVertex
 10
26.780466
 20
21.616476
 30
0.0
  0
VERTEX
  5
1784
100
AcDbEntity
  8
TRACK
100
AcDbVertex
100
AcDb2dVertex
 10
26.780466
 20
20.065579
 30
0.0
 42
-0.57735
  0
VERTEX
  5
1785
100
AcDbEntity
  8
TRACK
100
AcDbVertex
100
AcDb2dVertex
 10
26.681691
 20
20.008551
 30
0.0
  0
VERTEX
  5
1786
100
AcDbEntity
  8
TRACK
100
AcDbVertex
100
AcDb2dVertex
 10
26.537229
 20
20.091956
 30
0.0
 42
-0.267949
  0
SEQEND
  5
1787
100
AcDbEntity
  8
TRACK
  0
POLYLINE
  5
1788
100
AcDbEntity
  8
TRACK
100
AcDb2dPolyline
 66
     1
 10
0.0
 20
0.0
 30
0.0
  0
VERTEX
  5
1789
100
AcDbEntity
  8
TRACK
100
AcDbVertex
100
AcDb2dVertex
 10
24.334786
 20
21.363537
 30
0.0
  0
VERTEX
  5
178A
100
AcDbEntity
  8
TRACK
100
AcDbVertex
100
AcDb2dVertex
 10
23.978776
 20
21.56908
 30
0.0
 42
-0.267949
  0
SEQEND
  5
178B
100
AcDbEntity
  8
TRACK
  0
POLYLINE
  5
178C
100
AcDbEntity
  8
TRACK
100
AcDb2dPolyline
 66
     1
 10
0.0
 20
0.0
 30
0.0
  0
VERTEX
  5
178D
100
AcDbEntity
  8
TRACK
100
AcDbVertex
100
AcDb2dVertex
 10
23.571924
 20
23.41343
 30
0.0
  0
VERTEX
  5
178E
100
AcDbEntity
  8
TRACK
100
AcDbVertex
100
AcDb2dVertex
 10
23.571924
 20
23.468928
 30
0.0
  0
VERTEX
  5
178F
100
AcDbEntity
  8
TRACK
100
AcDbVertex
100
AcDb2dVertex
 10
23.606524
 20
23.448952
 30
0.0
  0
SEQEND
  5
1790
100
AcDbEntity
  8
TRACK
  0
POLYLINE
  5
1791
100
AcDbEntity
  8
TRACK
100
AcDb2dPolyline
 66
     1
 10
0.0
 20
0.0
 30
0.0
  0
VERTEX
  5
1792
100
AcDbEntity
  8
TRACK
100
AcDbVertex
100
AcDb2dVertex
 10
23.606524
 20
23.448952
 30
0.0
  0
VERTEX
  5
1793
100
AcDbEntity
  8
TRACK
100
AcDbVertex
100
AcDb2dVertex
 10
23.606524
 20
23.433407
 30
0.0
 42
0.267949
  0
SEQEND
  5
1794
100
AcDbEntity
  8
TRACK
  0
POLYLINE
  5
1795
100
AcDbEntity
  8
TRACK
100
AcDb2dPolyline
 66
     1
 10
0.0
 20
0.0
 30
0.0
  0
VERTEX
  5
1796
100
AcDbEntity
  8
TRACK
100
AcDbVertex
100
AcDb2dVertex
 10
24.013376
 20
21.589056
 30
0.0
  0
VERTEX
  5
1797
100
AcDbEntity
  8
TRACK
100
AcDbVertex
100
AcDb2dVertex
 10
24.369386
 20
21.383514
 30
0.0
 42
0.57735
  0
SEQEND
  5
1798
100
AcDbEntity
  8
TRACK
  0
POLYLINE
  5
1799
100
AcDbEntity
  8
TRACK
100
AcDb2dPolyline
 66
     1
 10
0.0
 20
0.0
 30
0.0
  0
VERTEX
  5
179A
100
AcDbEntity
  8
TRACK
100
AcDbVertex
100
AcDb2dVertex
 10
23.173511
 20
23.198952
 30
0.0
  0
VERTEX
  5
179B
100
AcDbEntity
  8
TRACK
100
AcDbVertex
100
AcDb2dVertex
 10
23.173511
 20
23.183407
 30
0.0
 42
0.267949
  0
SEQEND
  5
179C
100
AcDbEntity
  8
TRACK
  0
LINE
  5
179D
100
AcDbEntity
  8
TRACK
100
AcDbLine
 10
23.606524
 20
23.448952
 30
0.0
 11
29.755717
 21
26.99919
 31
0.0
  0
LINE
  5
179E
100
AcDbEntity
  8
TRACK
100
AcDbLine
 10
12.781207
 20
17.198952
 30
0.0
 11
15.89931
 21
18.99919
 31
0.0
  0
POLYLINE
  5
179F
100
AcDbEntity
  8
TRACK
100
AcDb2dPolyline
 66
     1
 10
0.0
 20
0.0
 30
0.0
  0
VERTEX
  5
17A0
100
AcDbEntity
  8
TRACK
100
AcDbVertex
100
AcDb2dVertex
 10
26.312854
 20
21.386452
 30
0.0
  0
VERTEX
  5
17A1
100
AcDbEntity
  8
TRACK
100
AcDbVertex
100
AcDb2dVertex
 10
26.347454
 20
21.366476
 30
0.0
  0
VERTEX
  5
17A2
100
AcDbEntity
  8
TRACK
100
AcDbVertex
100
AcDb2dVertex
 10
26.347454
 20
19.815579
 30
0.0
 42
-0.57735
  0
VERTEX
  5
17A3
100
AcDbEntity
  8
TRACK
100
AcDbVertex
100
AcDb2dVertex
 10
26.248679
 20
19.758551
 30
0.0
  0
SEQEND
  5
17A4
100
AcDbEntity
  8
TRACK
  0
POLYLINE
  5
17A5
100
AcDbEntity
  8
TRACK
100
AcDb2dPolyline
 66
     1
 10
0.0
 20
0.0
 30
0.0
  0
VERTEX
  5
17A6
100
AcDbEntity
  8
TRACK
100
AcDbVertex
100
AcDb2dVertex
 10
23.901773
 20
21.113537
 30
0.0
  0
VERTEX
  5
17A7
100
AcDbEntity
  8
TRACK
100
AcDbVertex
100
AcDb2dVertex
 10
23.545764
 20
21.31908
 30
0.0
 42
-0.267949
  0
SEQEND
  5
17A8
100
AcDbEntity
  8
TRACK
  0
POLYLINE
  5
17E9
100
AcDbEntity
  8
STUD
100
AcDb2dPolyline
 66
     1
 10
0.0
 20
0.0
 30
0.0
  0
VERTEX
  5
17EA
100
AcDbEntity
  8
STUD
100
AcDbVertex
100
AcDb2dVertex
 10
30.899911
 20
26.137881
 30
0.0
  0
VERTEX
  5
17EB
100
AcDbEntity
  8
STUD
100
AcDbVertex
100
AcDb2dVertex
 10
31.055308
 20
26.227599
 30
0.0
 42
-0.267949
  0
VERTEX
  5
17EC
100
AcDbEntity
  8
STUD
100
AcDbVertex
100
AcDb2dVertex
 10
31.083208
 20
26.227599
 30
0.0
  0
VERTEX
  5
17ED
100
AcDbEntity
  8
STUD
100
AcDbVertex
100
AcDb2dVertex
 10
32.31417
 20
25.516903
 30
0.0
 42
-0.57735
  0
SEQEND
  5
17EE
100
AcDbEntity
  8
STUD
  0
POLYLINE
  5
17EF
100
AcDbEntity
  8
STUD
100
AcDb2dPolyline
 66
     1
 10
0.0
 20
0.0
 30
0.0
  0
VERTEX
  5
17F0
100
AcDbEntity
  8
STUD
100
AcDbVertex
100
AcDb2dVertex
 10
32.31417
 20
25.556856
 30
0.0
  0
VERTEX
  5
17F1
100
AcDbEntity
  8
STUD
100
AcDbVertex
100
AcDb2dVertex
 10
31.100508
 20
26.257564
 30
0.0
 42
0.267949
  0
VERTEX
  5
17F2
100
AcDbEntity
  8
STUD
100
AcDbVertex
100
AcDb2dVertex
 10
31.038008
 20
26.257564
 30
0.0
  0
VERTEX
  5
17F3
100
AcDbEntity
  8
STUD
100
AcDbVertex
100
AcDb2dVertex
 10
30.865311
 20
26.157857
 30
0.0
 42
0.57735
  0
SEQEND
  5
17F4
100
AcDbEntity
  8
STUD
  0
POLYLINE
  5
180E
100
AcDbEntity
  8
STUD
100
AcDb2dPolyline
 66
     1
 10
0.0
 20
0.0
 30
0.0
  0
VERTEX
  5
180F
100
AcDbEntity
  8
STUD
100
AcDbVertex
100
AcDb2dVertex
 10
29.503935
 20
26.853824
 30
0.0
 42
-0.489482
  0
VERTEX
  5
1810
100
AcDbEntity
  8
STUD
100
AcDbVertex
100
AcDb2dVertex
 10
29.595361
 20
26.891063
 30
0.0
  0
VERTEX
  5
1811
100
AcDbEntity
  8
STUD
100
AcDbVertex
100
AcDb2dVertex
 10
32.609703
 20
25.150732
 30
0.0
 42
-0.267949
  0
VERTEX
  5
1812
100
AcDbEntity
  8
STUD
100
AcDbVertex
100
AcDb2dVertex
 10
32.640953
 20
25.096605
 30
0.0
  0
VERTEX
  5
1813
100
AcDbEntity
  8
STUD
100
AcDbVertex
100
AcDb2dVertex
 10
32.640953
 20
25.062721
 30
0.0
 42
-0.57735
  0
SEQEND
  5
1814
100
AcDbEntity
  8
STUD
  0
POLYLINE
  5
181E
100
AcDbEntity
  8
TRACK
100
AcDb2dPolyline
 66
     1
 10
0.0
 20
0.0
 30
0.0
  0
VERTEX
  5
181F
100
AcDbEntity
  8
TRACK
100
AcDbVertex
100
AcDb2dVertex
 10
35.70108
 20
26.801204
 30
0.0
  0
VERTEX
  5
1820
100
AcDbEntity
  8
TRACK
100
AcDbVertex
100
AcDb2dVertex
 10
34.11485
 20
27.717015
 30
0.0
 42
-0.267949
  0
SEQEND
  5
1821
100
AcDbEntity
  8
TRACK
  0
POLYLINE
  5
1822
100
AcDbEntity
  8
TRACK
100
AcDb2dPolyline
 66
     1
 10
0.0
 20
0.0
 30
0.0
  0
VERTEX
  5
1823
100
AcDbEntity
  8
TRACK
100
AcDbVertex
100
AcDb2dVertex
 10
34.11485
 20
27.756967
 30
0.0
  0
VERTEX
  5
1824
100
AcDbEntity
  8
TRACK
100
AcDbVertex
100
AcDb2dVertex
 10
35.735565
 20
26.821247
 30
0.0
 42
0.57735
  0
SEQEND
  5
1825
100
AcDbEntity
  8
TRACK
  0
POLYLINE
  5
1826
100
AcDbEntity
  8
TRACK
100
AcDb2dPolyline
 66
     1
 10
0.0
 20
0.0
 30
0.0
  0
VERTEX
  5
1827
100
AcDbEntity
  8
TRACK
100
AcDbVertex
100
AcDb2dVertex
 10
37.138171
 20
27.636452
 30
0.0
  0
VERTEX
  5
1828
100
AcDbEntity
  8
TRACK
100
AcDbVertex
100
AcDb2dVertex
 10
37.172771
 20
27.616476
 30
0.0
  0
VERTEX
  5
1829
100
AcDbEntity
  8
TRACK
100
AcDbVertex
100
AcDb2dVertex
 10
37.172771
 20
26.065579
 30
0.0
 42
-0.57735
  0
VERTEX
  5
182A
100
AcDbEntity
  8
TRACK
100
AcDbVertex
100
AcDb2dVertex
 10
37.073996
 20
26.008551
 30
0.0
  0
SEQEND
  5
182B
100
AcDbEntity
  8
TRACK
  0
LINE
  5
1867
100
AcDbEntity
  8
TRACK
100
AcDbLine
 10
20.258444
 20
21.515937
 30
0.0
 11
23.173511
 21
23.198952
 31
0.0
  0
LINE
  5
1869
100
AcDbEntity
  8
TRACK
100
AcDbLine
 10
20.258444
 20
21.55589
 30
0.0
 11
23.138911
 21
23.218928
 31
0.0
  0
POLYLINE
  5
186C
100
AcDbEntity
  8
STUD
100
AcDb2dPolyline
 66
     1
 10
0.0
 20
0.0
 30
0.0
  0
VERTEX
  5
186D
100
AcDbEntity
  8
STUD
100
AcDbVertex
100
AcDb2dVertex
 10
20.258444
 20
18.281735
 30
0.0
  0
VERTEX
  5
186E
100
AcDbEntity
  8
STUD
100
AcDbVertex
100
AcDb2dVertex
 10
20.485347
 20
18.150732
 30
0.0
 42
-0.267949
  0
VERTEX
  5
186F
100
AcDbEntity
  8
STUD
100
AcDbVertex
100
AcDb2dVertex
 10
20.516597
 20
18.096605
 30
0.0
  0
VERTEX
  5
1870
100
AcDbEntity
  8
STUD
100
AcDbVertex
100
AcDb2dVertex
 10
20.516597
 20
18.039982
 30
0.0
 42
-0.57735
  0
SEQEND
  5
1871
100
AcDbEntity
  8
STUD
  0
POLYLINE
  5
1872
100
AcDbEntity
  8
STUD
100
AcDb2dPolyline
 66
     1
 10
0.0
 20
0.0
 30
0.0
  0
VERTEX
  5
1873
100
AcDbEntity
  8
STUD
100
AcDbVertex
100
AcDb2dVertex
 10
20.481997
 20
18.020006
 30
0.0
  0
VERTEX
  5
1874
100
AcDbEntity
  8
STUD
100
AcDbVertex
100
AcDb2dVertex
 10
20.481997
 20
18.096605
 30
0.0
 42
0.267949
  0
VERTEX
  5
1875
100
AcDbEntity
  8
STUD
100
AcDbVertex
100
AcDb2dVertex
 10
20.468047
 20
18.120767
 30
0.0
  0
VERTEX
  5
1876
100
AcDbEntity
  8
STUD
100
AcDbVertex
100
AcDb2dVertex
 10
20.258444
 20
18.241782
 30
0.0
 42
0.57735
  0
SEQEND
  5
1877
100
AcDbEntity
  8
STUD
  0
POLYLINE
  5
189B
100
AcDbEntity
  8
STUD
100
AcDb2dPolyline
 66
     1
 10
0.0
 20
0.0
 30
0.0
  0
VERTEX
  5
189C
100
AcDbEntity
  8
STUD
100
AcDbVertex
100
AcDb2dVertex
 10
15.89931
 20
17.517232
 30
0.0
 42
0.57735
  0
VERTEX
  5
189D
100
AcDbEntity
  8
STUD
100
AcDbVertex
100
AcDb2dVertex
 10
15.89931
 20
17.408979
 30
0.0
  0
VERTEX
  5
189E
100
AcDbEntity
  8
STUD
100
AcDbVertex
100
AcDb2dVertex
 10
16.2927
 20
17.181856
 30
0.0
  0
VERTEX
  5
189F
100
AcDbEntity
  8
STUD
100
AcDbVertex
100
AcDb2dVertex
 10
16.3273
 20
17.201832
 30
0.0
  0
SEQEND
  5
18A0
100
AcDbEntity
  8
STUD
  0
LINE
  5
18A1
100
AcDbEntity
  8
TRACK
100
AcDbLine
 10
15.950322
 20
17.379528
 30
0.0
 11
12.796832
 21
15.564931
 31
0.0
  0
POLYLINE
  5
18A2
100
AcDbEntity
  8
STUD
100
AcDb2dPolyline
 66
     1
 10
0.0
 20
0.0
 30
0.0
  0
VERTEX
  5
18A3
100
AcDbEntity
  8
STUD
100
AcDbVertex
100
AcDb2dVertex
 10
18.457763
 20
17.556856
 30
0.0
  0
VERTEX
  5
18A4
100
AcDbEntity
  8
STUD
100
AcDbVertex
100
AcDb2dVertex
 10
17.244102
 20
18.257564
 30
0.0
 42
0.267949
  0
VERTEX
  5
18A5
100
AcDbEntity
  8
STUD
100
AcDbVertex
100
AcDb2dVertex
 10
17.181602
 20
18.257564
 30
0.0
  0
VERTEX
  5
18A6
100
AcDbEntity
  8
STUD
100
AcDbVertex
100
AcDb2dVertex
 10
16.3273
 20
17.764332
 30
0.0
 42
0.57735
  0
SEQEND
  5
18A7
100
AcDbEntity
  8
STUD
  0
POLYLINE
  5
18A8
100
AcDbEntity
  8
STUD
100
AcDb2dPolyline
 66
     1
 10
0.0
 20
0.0
 30
0.0
  0
VERTEX
  5
18A9
100
AcDbEntity
  8
STUD
100
AcDbVertex
100
AcDb2dVertex
 10
16.3273
 20
17.724379
 30
0.0
  0
VERTEX
  5
18AA
100
AcDbEntity
  8
STUD
100
AcDbVertex
100
AcDb2dVertex
 10
17.198902
 20
18.227599
 30
0.0
 42
-0.267949
  0
VERTEX
  5
18AB
100
AcDbEntity
  8
STUD
100
AcDbVertex
100
AcDb2dVertex
 10
17.226802
 20
18.227599
 30
0.0
  0
VERTEX
  5
18AC
100
AcDbEntity
  8
STUD
100
AcDbVertex
100
AcDb2dVertex
 10
18.457763
 20
17.516903
 30
0.0
 42
-0.57735
  0
SEQEND
  5
18AD
100
AcDbEntity
  8
STUD
  0
LEADER
  5
18D4
100
AcDbEntity
  8
D-TEXT
100
AcDbLeader
  3
LEADER
 73
     0
 40
2.0
 41
18.827586
 76
     3
 10
29.755717
 20
33.85373
 30
0.0
 10
26.787418
 20
35.312314
 30
0.0
 10
25.921392
 20
35.312314
 30
0.0
 77
   256
1001
ACAD
1000
DSTYLE
1002
{
1070
    77
1070
     0
1002
}
  0
MTEXT
  5
18D5
100
AcDbEntity
  8
D-TEXT
100
AcDbMText
 10
25.354405
 20
35.312314
 30
0.0
 40
1.0
 41
0.0
 71
     6
 72
     1
  1
STEEL STUD
  7
ARCH
  0
LEADER
  5
18D6
100
AcDbEntity
  8
D-TEXT
100
AcDbLeader
  3
LEADER
 73
     0
 40
8.666667
 41
23.724138
 76
     3
 10
29.66479
 20
24.645897
 30
0.0
 10
18.993189
 20
33.687314
 30
0.0
 10
15.637341
 20
33.749814
 30
0.0
 77
   256
1001
ACAD
1000
DSTYLE
1002
{
1070
    77
1070
     0
1002
}
  0
MTEXT
  5
18D7
100
AcDbEntity
  8
D-TEXT
100
AcDbMText
 10
15.158865
 20
34.270897
 30
0.0
 40
1.0
 41
0.0
 71
     3
 72
     1
  1
SPLICE PLAT - \PSTEEL STUD\PSECTION
  7
ARCH
  0
LEADER
  5
18D8
100
AcDbEntity
  8
D-TEXT
100
AcDbLeader
  3
LEADER
 73
     0
 40
1.0
 41
5.517241
 76
     3
 10
27.835485
 20
20.674694
 30
0.0
 10
33.128892
 20
18.895897
 30
0.0
 10
36.592993
 20
18.895897
 30
0.0
 77
   256
  0
MTEXT
  5
18D9
100
AcDbEntity
  8
D-TEXT
100
AcDbMText
 10
37.592993
 20
18.895897
 30
0.0
 40
1.0
 41
0.0
 71
     4
 72
     1
  1
TRACK
  7
ARCH
  0
LEADER
  5
18DA
100
AcDbEntity
  8
D-TEXT
100
AcDbLeader
  3
LEADER
 76
     2
 10
24.864868
 20
18.959607
 30
0.0
 10
33.128892
 20
18.895897
 30
0.0
 77
   256
  0
LEADER
  5
18DB
100
AcDbEntity
  8
D-TEXT
100
AcDbLeader
  3
LEADER
 73
     0
 40
4.666667
 41
19.586207
 76
     3
 10
19.491796
 20
16.829398
 30
0.0
 10
23.819119
 20
14.270897
 30
0.0
 10
26.417195
 20
14.270897
 30
0.0
 77
   256
  0
MTEXT
  5
18DC
100
AcDbEntity
  8
D-TEXT
100
AcDbMText
 10
27.417195
 20
14.270897
 30
0.0
 40
1.0
 41
0.0
 71
     4
 72
     1
  1
5/8" LOW PROFILE\PHEAD FRAMING SCREWS\PAS REQUIRED
  7
ARCH
  0
POLYLINE
  5
198F
100
AcDbEntity
  8
STUD
100
AcDb2dPolyline
 66
     1
 10
0.0
 20
0.0
 30
0.0
  0
VERTEX
  5
1990
100
AcDbEntity
  8
STUD
100
AcDbVertex
100
AcDb2dVertex
 10
32.091254
 20
37.097936
 30
0.0
  0
VERTEX
  5
1991
100
AcDbEntity
  8
STUD
100
AcDbVertex
100
AcDb2dVertex
 10
32.091254
 20
37.688141
 30
0.0
  0
VERTEX
  5
1992
100
AcDbEntity
  8
STUD
100
AcDbVertex
100
AcDb2dVertex
 10
32.054415
 20
37.666872
 30
0.0
  0
VERTEX
  5
1993
100
AcDbEntity
  8
STUD
100
AcDbVertex
100
AcDb2dVertex
 10
32.054415
 20
37.076667
 30
0.0
  0
VERTEX
  5
1994
100
AcDbEntity
  8
STUD
100
AcDbVertex
100
AcDb2dVertex
 10
32.091254
 20
37.097936
 30
0.0
  0
VERTEX
  5
199C
100
AcDbEntity
  8
STUD
100
AcDbVertex
100
AcDb2dVertex
 10
32.484654
 20
37.776337
 30
0.0
  0
VERTEX
  5
1995
100
AcDbEntity
  8
STUD
100
AcDbVertex
100
AcDb2dVertex
 10
32.522617
 20
37.798255
 30
0.0
  0
VERTEX
  5
1996
100
AcDbEntity
  8
STUD
100
AcDbVertex
100
AcDb2dVertex
 10
32.521493
 20
37.439742
 30
0.0
  0
VERTEX
  5
1997
100
AcDbEntity
  8
STUD
100
AcDbVertex
100
AcDb2dVertex
 10
32.484654
 20
37.418474
 30
0.0
  0
VERTEX
  5
1998
100
AcDbEntity
  8
STUD
100
AcDbVertex
100
AcDb2dVertex
 10
32.484654
 20
37.776337
 30
0.0
  0
SEQEND
  5
1999
100
AcDbEntity
  8
STUD
  0
POLYLINE
  5
19B6
100
AcDbEntity
  8
STUD
100
AcDb2dPolyline
 66
     1
 10
0.0
 20
0.0
 30
0.0
  0
VERTEX
  5
19B7
100
AcDbEntity
  8
STUD
100
AcDbVertex
100
AcDb2dVertex
 10
18.232609
 20
29.096643
 30
0.0
  0
VERTEX
  5
19B8
100
AcDbEntity
  8
STUD
100
AcDbVertex
100
AcDb2dVertex
 10
18.232609
 20
29.686849
 30
0.0
  0
VERTEX
  5
19B9
100
AcDbEntity
  8
STUD
100
AcDbVertex
100
AcDb2dVertex
 10
18.19577
 20
29.66558
 30
0.0
  0
VERTEX
  5
19BA
100
AcDbEntity
  8
STUD
100
AcDbVertex
100
AcDb2dVertex
 10
18.19577
 20
29.075375
 30
0.0
  0
VERTEX
  5
19BB
100
AcDbEntity
  8
STUD
100
AcDbVertex
100
AcDb2dVertex
 10
18.232609
 20
29.096643
 30
0.0
  0
VERTEX
  5
19BC
100
AcDbEntity
  8
STUD
100
AcDbVertex
100
AcDb2dVertex
 10
18.62601
 20
29.775045
 30
0.0
  0
VERTEX
  5
19BD
100
AcDbEntity
  8
STUD
100
AcDbVertex
100
AcDb2dVertex
 10
18.663972
 20
29.796962
 30
0.0
  0
VERTEX
  5
19BE
100
AcDbEntity
  8
STUD
100
AcDbVertex
100
AcDb2dVertex
 10
18.662848
 20
29.43845
 30
0.0
  0
VERTEX
  5
19BF
100
AcDbEntity
  8
STUD
100
AcDbVertex
100
AcDb2dVertex
 10
18.62601
 20
29.417181
 30
0.0
  0
VERTEX
  5
19C0
100
AcDbEntity
  8
STUD
100
AcDbVertex
100
AcDb2dVertex
 10
18.62601
 20
29.775045
 30
0.0
  0
SEQEND
  5
19C1
100
AcDbEntity
  8
STUD
  0
POLYLINE
  5
19D4
100
AcDbEntity
  8
STUD
100
AcDb2dPolyline
 66
     1
 10
0.0
 20
0.0
 30
0.0
  0
VERTEX
  5
19D5
100
AcDbEntity
  8
STUD
100
AcDbVertex
100
AcDb2dVertex
 10
18.627129
 20
29.41912
 30
0.0
  0
VERTEX
  5
19D6
100
AcDbEntity
  8
STUD
100
AcDbVertex
100
AcDb2dVertex
 10
20.241144
 20
28.487268
 30
0.0
 42
-0.57735
  0
VERTEX
  5
19D7
100
AcDbEntity
  8
STUD
100
AcDbVertex
100
AcDb2dVertex
 10
20.241144
 20
28.438944
 30
0.0
  0
VERTEX
  5
19D8
100
AcDbEntity
  8
STUD
100
AcDbVertex
100
AcDb2dVertex
 10
18.958852
 20
27.698612
 30
0.0
 42
-0.267949
  0
VERTEX
  5
19D9
100
AcDbEntity
  8
STUD
100
AcDbVertex
100
AcDb2dVertex
 10
18.930952
 20
27.698612
 30
0.0
  0
VERTEX
  5
19DA
100
AcDbEntity
  8
STUD
100
AcDbVertex
100
AcDb2dVertex
 10
18.492363
 20
27.951832
 30
0.0
  0
VERTEX
  5
19DB
100
AcDbEntity
  8
STUD
100
AcDbVertex
100
AcDb2dVertex
 10
18.457763
 20
27.931856
 30
0.0
  0
SEQEND
  5
19DC
100
AcDbEntity
  8
STUD
  0
POLYLINE
  5
19DD
100
AcDbEntity
  8
STUD
100
AcDb2dPolyline
 66
     1
 10
0.0
 20
0.0
 30
0.0
  0
VERTEX
  5
19DE
100
AcDbEntity
  8
STUD
100
AcDbVertex
100
AcDb2dVertex
 10
18.457763
 20
27.931856
 30
0.0
  0
VERTEX
  5
19DF
100
AcDbEntity
  8
STUD
100
AcDbVertex
100
AcDb2dVertex
 10
18.913652
 20
27.668648
 30
0.0
 42
0.267949
  0
VERTEX
  5
19E0
100
AcDbEntity
  8
STUD
100
AcDbVertex
100
AcDb2dVertex
 10
18.976152
 20
27.668648
 30
0.0
  0
VERTEX
  5
19E1
100
AcDbEntity
  8
STUD
100
AcDbVertex
100
AcDb2dVertex
 10
20.258444
 20
28.408979
 30
0.0
 42
0.57735
  0
VERTEX
  5
19E2
100
AcDbEntity
  8
STUD
100
AcDbVertex
100
AcDb2dVertex
 10
20.258444
 20
28.517232
 30
0.0
  0
VERTEX
  5
19E3
100
AcDbEntity
  8
STUD
100
AcDbVertex
100
AcDb2dVertex
 10
18.662848
 20
29.43845
 30
0.0
 42
0.267949
  0
SEQEND
  5
19E4
100
AcDbEntity
  8
STUD
  0
POLYLINE
  5
19E5
100
AcDbEntity
  8
STUD
100
AcDb2dPolyline
 66
     1
 10
0.0
 20
0.0
 30
0.0
  0
VERTEX
  5
19E6
100
AcDbEntity
  8
STUD
100
AcDbVertex
100
AcDb2dVertex
 10
18.232609
 20
29.686849
 30
0.0
  0
VERTEX
  5
19E7
100
AcDbEntity
  8
STUD
100
AcDbVertex
100
AcDb2dVertex
 10
17.244102
 20
30.257564
 30
0.0
 42
0.267949
  0
VERTEX
  5
19E8
100
AcDbEntity
  8
STUD
100
AcDbVertex
100
AcDb2dVertex
 10
17.181602
 20
30.257564
 30
0.0
  0
VERTEX
  5
19E9
100
AcDbEntity
  8
STUD
100
AcDbVertex
100
AcDb2dVertex
 10
15.89931
 20
29.517232
 30
0.0
 42
0.57735
  0
VERTEX
  5
19EA
100
AcDbEntity
  8
STUD
100
AcDbVertex
100
AcDb2dVertex
 10
15.89931
 20
29.408979
 30
0.0
  0
VERTEX
  5
19EB
100
AcDbEntity
  8
STUD
100
AcDbVertex
100
AcDb2dVertex
 10
16.2927
 20
29.181856
 30
0.0
  0
VERTEX
  5
19EC
100
AcDbEntity
  8
STUD
100
AcDbVertex
100
AcDb2dVertex
 10
16.3273
 20
29.201832
 30
0.0
  0
VERTEX
  5
19ED
100
AcDbEntity
  8
STUD
100
AcDbVertex
100
AcDb2dVertex
 10
15.91661
 20
29.438944
 30
0.0
 42
-0.57735
  0
VERTEX
  5
19EE
100
AcDbEntity
  8
STUD
100
AcDbVertex
100
AcDb2dVertex
 10
15.91661
 20
29.487268
 30
0.0
  0
VERTEX
  5
19EF
100
AcDbEntity
  8
STUD
100
AcDbVertex
100
AcDb2dVertex
 10
17.198902
 20
30.227599
 30
0.0
 42
-0.267949
  0
VERTEX
  5
19F0
100
AcDbEntity
  8
STUD
100
AcDbVertex
100
AcDb2dVertex
 10
17.226802
 20
30.227599
 30
0.0
  0
VERTEX
  5
19F1
100
AcDbEntity
  8
STUD
100
AcDbVertex
100
AcDb2dVertex
 10
18.19689
 20
29.667518
 30
0.0
 42
-0.57735
  0
SEQEND
  5
19F2
100
AcDbEntity
  8
STUD
  0
POLYLINE
  5
1A05
100
AcDbEntity
  8
STUD
100
AcDb2dPolyline
 66
     1
 10
0.0
 20
0.0
 30
0.0
  0
VERTEX
  5
1A06
100
AcDbEntity
  8
STUD
100
AcDbVertex
100
AcDb2dVertex
 10
32.484654
 20
37.418474
 30
0.0
  0
VERTEX
  5
1A07
100
AcDbEntity
  8
STUD
100
AcDbVertex
100
AcDb2dVertex
 10
34.09755
 20
36.487268
 30
0.0
 42
-0.57735
  0
VERTEX
  5
1A08
100
AcDbEntity
  8
STUD
100
AcDbVertex
100
AcDb2dVertex
 10
34.09755
 20
36.438944
 30
0.0
  0
VERTEX
  5
1A09
100
AcDbEntity
  8
STUD
100
AcDbVertex
100
AcDb2dVertex
 10
32.815259
 20
35.698612
 30
0.0
 42
-0.267949
  0
VERTEX
  5
1A0A
100
AcDbEntity
  8
STUD
100
AcDbVertex
100
AcDb2dVertex
 10
32.787359
 20
35.698612
 30
0.0
  0
VERTEX
  5
1A0B
100
AcDbEntity
  8
STUD
100
AcDbVertex
100
AcDb2dVertex
 10
32.34877
 20
35.951832
 30
0.0
  0
VERTEX
  5
1A0C
100
AcDbEntity
  8
STUD
100
AcDbVertex
100
AcDb2dVertex
 10
32.31417
 20
35.931856
 30
0.0
  0
SEQEND
  5
1A0D
100
AcDbEntity
  8
STUD
  0
POLYLINE
  5
1A0E
100
AcDbEntity
  8
STUD
100
AcDb2dPolyline
 66
     1
 10
0.0
 20
0.0
 30
0.0
  0
VERTEX
  5
1A0F
100
AcDbEntity
  8
STUD
100
AcDbVertex
100
AcDb2dVertex
 10
32.31417
 20
35.931856
 30
0.0
  0
VERTEX
  5
1A10
100
AcDbEntity
  8
STUD
100
AcDbVertex
100
AcDb2dVertex
 10
32.770059
 20
35.668648
 30
0.0
 42
0.267949
  0
VERTEX
  5
1A11
100
AcDbEntity
  8
STUD
100
AcDbVertex
100
AcDb2dVertex
 10
32.832559
 20
35.668648
 30
0.0
  0
VERTEX
  5
1A12
100
AcDbEntity
  8
STUD
100
AcDbVertex
100
AcDb2dVertex
 10
34.11485
 20
36.408979
 30
0.0
 42
0.57735
  0
VERTEX
  5
1A13
100
AcDbEntity
  8
STUD
100
AcDbVertex
100
AcDb2dVertex
 10
34.11485
 20
36.517232
 30
0.0
  0
VERTEX
  5
1A14
100
AcDbEntity
  8
STUD
100
AcDbVertex
100
AcDb2dVertex
 10
32.520374
 20
37.437804
 30
0.0
 42
0.267949
  0
SEQEND
  5
1A15
100
AcDbEntity
  8
STUD
  0
POLYLINE
  5
1A16
100
AcDbEntity
  8
STUD
100
AcDb2dPolyline
 66
     1
 10
0.0
 20
0.0
 30
0.0
  0
VERTEX
  5
1A17
100
AcDbEntity
  8
STUD
100
AcDbVertex
100
AcDb2dVertex
 10
32.091254
 20
37.685556
 30
0.0
  0
VERTEX
  5
1A18
100
AcDbEntity
  8
STUD
100
AcDbVertex
100
AcDb2dVertex
 10
31.100508
 20
38.257564
 30
0.0
 42
0.267949
  0
VERTEX
  5
1A19
100
AcDbEntity
  8
STUD
100
AcDbVertex
100
AcDb2dVertex
 10
31.038008
 20
38.257564
 30
0.0
  0
VERTEX
  5
1A1A
100
AcDbEntity
  8
STUD
100
AcDbVertex
100
AcDb2dVertex
 10
29.755717
 20
37.517232
 30
0.0
 42
0.57735
  0
VERTEX
  5
1A1B
100
AcDbEntity
  8
STUD
100
AcDbVertex
100
AcDb2dVertex
 10
29.755717
 20
37.408979
 30
0.0
  0
VERTEX
  5
1A1C
100
AcDbEntity
  8
STUD
100
AcDbVertex
100
AcDb2dVertex
 10
30.149106
 20
37.181856
 30
0.0
  0
VERTEX
  5
1A1D
100
AcDbEntity
  8
STUD
100
AcDbVertex
100
AcDb2dVertex
 10
30.183706
 20
37.201832
 30
0.0
  0
VERTEX
  5
1A1E
100
AcDbEntity
  8
STUD
100
AcDbVertex
100
AcDb2dVertex
 10
29.773017
 20
37.438944
 30
0.0
 42
-0.57735
  0
VERTEX
  5
1A1F
100
AcDbEntity
  8
STUD
100
AcDbVertex
100
AcDb2dVertex
 10
29.773017
 20
37.487268
 30
0.0
  0
VERTEX
  5
1A20
100
AcDbEntity
  8
STUD
100
AcDbVertex
100
AcDb2dVertex
 10
31.055308
 20
38.227599
 30
0.0
 42
-0.267949
  0
VERTEX
  5
1A21
100
AcDbEntity
  8
STUD
100
AcDbVertex
100
AcDb2dVertex
 10
31.083208
 20
38.227599
 30
0.0
  0
VERTEX
  5
1A22
100
AcDbEntity
  8
STUD
100
AcDbVertex
100
AcDb2dVertex
 10
32.054415
 20
37.666872
 30
0.0
 42
-0.57735
  0
SEQEND
  5
1A23
100
AcDbEntity
  8
STUD
  0
TEXT
  5
1EDD
100
AcDbEntity
  8
LINK
 62
     1
100
AcDbText
 10
-14.548027
 20
15.338669
 30
0.0
 40
1.0
  1
drawing list
  7
BLOCK
 72
     1
 11
-9.36
 21
15.338669
 31
0.0
100
AcDbText
1001
PE_URL
1000
Cemco_drawings.htm
  0
TEXT
  5
1EDE
100
AcDbEntity
  8
LINK
 62
     1
100
AcDbText
 10
-11.10842
 20
7.338669
 30
0.0
 40
1.0
  1
home
  7
BLOCK
 72
     1
 11
-9.36
 21
7.338669
 31
0.0
100
AcDbText
1001
PE_URL
1000
Cemco_drawings.htm
  0
TEXT
  5
1EDF
100
AcDbEntity
  8
LINK
 62
     1
100
AcDbText
 10
-17.580857
 20
11.338669
 30
0.0
 40
1.0
  1
Assembly drawing 10
  7
BLOCK
 72
     1
 11
-9.36
 21
11.338669
 31
0.0
100
AcDbText
1001
PE_URL
1000
Cemco_drawings.htm
  0
TEXT
  5
1EE0
100
AcDbEntity
  8
LINK
 62
     1
100
AcDbText
 10
-17.14599
 20
9.338669
 30
0.0
 40
1.0
  1
Cemco drawing list
  7
BLOCK
 72
     1
 11
-9.36
 21
9.338669
 31
0.0
100
AcDbText
1001
PE_URL
1000
Cemco_drawings.htm
  0
TEXT
  5
1EEF
100
AcDbEntity
  8
LINK
 62
     1
100
AcDbText
 10
-17.151608
 20
13.338669
 30
0.0
 40
1.0
  1
Assembly drawing 9
  7
BLOCK
 72
     1
 11
-9.36
 21
13.338669
 31
0.0
100
AcDbText
1001
PE_URL
1000
Cemco_drawings.htm
  0
MTEXT
  5
1EF4
100
AcDbEntity
  8
LINK
100
AcDbMText
 10
-5.668198
 20
1.465497
 30
0.0
 40
1.0
 41
0.0
 71
     7
 72
     1
  1
{Back}\P{Button}
  7
ARCH
  0
LEADER
  5
1EF5
100
AcDbEntity
  8
LINK
100
AcDbLeader
  3
LEADER
 72
     1
 73
     0
 74
     0
 40
0.125
 41
0.556034
 76
     7
 10
-0.222026
 20
4.450852
 30
0.0
 10
-4.875361
 20
6.36732
 30
0.0
 10
-6.664449
 20
6.546952
 30
0.0
 10
-9.420744
 20
5.625939
 30
0.0
 10
-8.856202
 20
2.259475
 30
0.0
 10
-7.790199
 20
1.95
 30
0.0
 10
-5.906765
 20
1.992886
 30
0.0
 77
   256
  0
INSERT
  5
1EF6
100
AcDbEntity
  8
D-TEXT
100
AcDbBlockReference
 66
     1
  2
DETAIL_TITLE
 10
0.0
 20
0.0
 30
0.0
 41
8.0
 42
8.0
 43
8.0
1001
PE_URL
1000
6020-010.dwf
  0
ATTRIB
  5
1EF7
100
AcDbEntity
  8
D-TEXT
100
AcDbText
 10
9.308154
 20
5.201141
 30
0.0
 40
2.0
  1
TRACK SPLICE
  7
BLOCK
100
AcDbAttribute
  2
DETAIL_DISCRIPTION
 70
     0
  0
ATTRIB
  5
1EF8
100
AcDbEntity
  8
D-TEXT
100
AcDbText
 10
0.679709
 20
3.154077
 30
0.0
 40
2.0
  1
D-12
  7
BLD
 72
     1
 11
4.154077
 21
4.154077
 31
0.0
100
AcDbAttribute
  2
DETAIL_NO
 70
     0
 74
     2
  0
ATTRIB
  5
1EF9
100
AcDbEntity
  8
D-TEXT
100
AcDbText
 10
9.308154
 20
1.376392
 30
0.0
 40
1.5
  1
N. T. Scale 1-1/2" = 1'0"
  7
BLOCK
100
AcDbAttribute
  2
SCALE
 70
     0
  0
SEQEND
  5
1EFA
100
AcDbEntity
  8
D-TEXT
  0
LEADER
  5
1F04
100
AcDbEntity
  8
D-TEXT
100
AcDbLeader
  3
LEADER
 76
     2
 10
29.470786
 20
22.267314
 30
0.0
 10
35.957477
 20
21.150181
 30
0.0
 77
   256
  0
LEADER
  5
1F05
100
AcDbEntity
  8
D-TEXT
100
AcDbLeader
  3
LEADER
 73
     0
 40
1.0
 41
5.517241
 76
     3
 10
31.774115
 20
23.569862
 30
0.0
 10
35.957477
 20
21.150181
 30
0.0
 10
39.421579
 20
21.150181
 30
0.0
 77
   256
  0
MTEXT
  5
1F06
100
AcDbEntity
  8
D-TEXT
100
AcDbMText
 10
40.261315
 20
22.918551
 30
0.0
 40
1.0
 41
0.0
 71
     4
 72
     1
  1
{SCREW SIZE}\P{AND SPACING}\P{BY DESIGN}
  7
ARCH
  0
POLYLINE
  5
1F51
100
AcDbEntity
  8
LAYOUT
100
AcDb2dPolyline
 66
     1
 10
0.0
 20
0.0
 30
0.0
 70
     1
  0
VERTEX
  5
1F52
100
AcDbEntity
  8
LAYOUT
100
AcDbVertex
100
AcDb2dVertex
 10
0.0
 20
0.0
 30
0.0
  0
VERTEX
  5
1F54
100
AcDbEntity
  8
LAYOUT
100
AcDbVertex
100
AcDb2dVertex
 10
82.16
 20
0.0
 30
0.0
  0
VERTEX
  5
1F55
100
AcDbEntity
  8
LAYOUT
100
AcDbVertex
100
AcDb2dVertex
 10
82.16
 20
63.44
 30
0.0
  0
VERTEX
  5
1F56
100
AcDbEntity
  8
LAYOUT
100
AcDbVertex
100
AcDb2dVertex
 10
63.44
 20
63.44
 30
0.0
  0
VERTEX
  5
1F57
100
AcDbEntity
  8
LAYOUT
100
AcDbVertex
100
AcDb2dVertex
 10
63.44
 20
82.16
 30
0.0
  0
VERTEX
  5
1F58
100
AcDbEntity
  8
LAYOUT
100
AcDbVertex
100
AcDb2dVertex
 10
0.0
 20
82.16
 30
0.0
  0
SEQEND
  5
1F59
100
AcDbEntity
  8
LAYOUT
  0
POLYLINE
  5
1F97
100
AcDbEntity
  8
_KTI_CONTROL
 60
     1
100
AcDb3dPolyline
 66
     1
 10
0.0
 20
0.0
 30
0.0
 70
     8
1001
_KTI_ARCHT
1070
 12000
1000
ENVIRONMENT
1070
 10003
1000
6020-012
1070
 20000
1000
standard
1070
 20001
1000
f:\archt
1070
 20003
1000
j:\archt
1070
 20002
1000
f:\archt\tmp
1070
 20004
1002
{
1000
f:\archt\blks
1000
f:\archt\blks3d
1000
h:\archt\blks
1000
h:\archt\blks3d
1000
j:\archt\blks
1000
j:\archt\blks3d
1002
}
1070
 20005
1002
{
1000
f:\archt\slds
1002
}
1070
 20006
1002
{
1000
f:\archt\dclswin
1002
}
1070
 20007
1002
{
1000
f:\archt\docs
1002
}
1070
 20008
1002
{
1000
f:\archt\help
1002
}
  0
VERTEX
  5
1F98
100
AcDbEntity
  8
_KTI_CONTROL
100
AcDbVertex
100
AcDb3dPolylineVertex
 10
0.0
 20
0.0
 30
0.0
 70
    32
  0
VERTEX
  5
1F99
100
AcDbEntity
  8
_KTI_CONTROL
100
AcDbVertex
100
AcDb3dPolylineVertex
 10
0.0
 20
0.0
 30
0.0
 70
    32
  0
SEQEND
  5
1F9A
100
AcDbEntity
  8
_KTI_CONTROL
  0
POLYLINE
  5
1F9B
100
AcDbEntity
  8
_KTI_CONTROL
 60
     1
100
AcDb3dPolyline
 66
     1
 10
0.0
 20
0.0
 30
0.0
 70
     8
1001
_KTI_ARCHT
1070
 12000
1000
ARCHTVARS
1070
 10003
1000
6020-012
1070
 12030
1000
in
1070
 12020
1070
     1
1070
 12021
1070
     0
1070
 12070
1070
     0
1070
 12071
1070
     1
1070
 12907
1070
     0
1070
 12072
1070
     2
1070
 12073
1070
    48
1070
 12074
1070
     0
1070
 12080
1070
     1
1070
 12092
1070
     1
1070
 12096
1070
     0
1070
 12095
1070
     0
1070
 12081
1070
     1
1070
 12082
1070
     1
1070
 12083
1070
     1
1070
 12084
1070
     1
1070
 12085
1070
     0
1070
 12086
1070
     1
1070
 12087
1070
     0
1070
 12088
1070
     0
1070
 12097
1070
     1
1070
 12089
1070
     4
1070
 12090
1070
     6
1070
 12091
1070
     1
1070
 12045
1000
standard
1070
 12046
1000

1070
 12047
1000
standard
1070
 12048
1000

1070
 12049
1000

1070
 12093
1070
     1
1070
 12094
1070
     1
1070
 12908
1070
     0
1070
 12909
1070
     0
1070
 12911
1070
     0
1070
 12910
1070
     0
1070
 12912
1070
     0
1070
 12098
1070
   640
1070
 12060
1002
{
1000

1000

1000

1000

1002
}
1070
 12904
1002
{
1070
     0
1070
     0
1070
     0
1070
     0
1070
     0
1002
}
1070
 12905
1002
{
1040
0.0
1040
0.0
1040
0.0
1040
0.0
1040
0.0
1002
}
1070
 12906
1002
{
1000

1000

1000

1000

1000

1002
}
1070
 12040
1002
{
1002
}
  0
VERTEX
  5
1F9C
100
AcDbEntity
  8
_KTI_CONTROL
100
AcDbVertex
100
AcDb3dPolylineVertex
 10
0.0
 20
0.0
 30
0.0
 70
    32
  0
VERTEX
  5
1F9D
100
AcDbEntity
  8
_KTI_CONTROL
100
AcDbVertex
100
AcDb3dPolylineVertex
 10
0.0
 20
0.0
 30
0.0
 70
    32
  0
SEQEND
  5
1F9E
100
AcDbEntity
  8
_KTI_CONTROL
  0
ENDSEC
  0
SECTION
  2
OBJECTS
  0
DICTIONARY
  5
C
100
AcDbDictionary
  3
ACAD_GROUP
350
D
  3
ACAD_MLINESTYLE
350
E
  0
DICTIONARY
  5
D
102
{ACAD_REACTORS
330
C
102
}
100
AcDbDictionary
  0
DICTIONARY
  5
E
102
{ACAD_REACTORS
330
C
102
}
100
AcDbDictionary
  3
STANDARD
350
13
  0
MLINESTYLE
  5
13
102
{ACAD_REACTORS
330
E
102
}
100
AcDbMlineStyle
  2
STANDARD
 70
     0
  3

 62
     0
 51
90.0
 52
90.0
 71
     2
 49
0.5
 62
   256
  6
BYLAYER
 49
-0.5
 62
   256
  6
BYLAYER
  0
ENDSEC
  0
EOF
