  0
SECTION
  2
HEADER
  9
$ACADVER
  1
AC1012
  9
$DWGCODEPAGE
  3
ansi_1252
  9
$INSBASE
 10
0.0
 20
0.0
 30
0.0
  9
$EXTMIN
 10
-56.16
 20
0.0
 30
0.0
  9
$EXTMAX
 10
190.32
 20
135.668124
 30
0.0
  9
$LIMMIN
 10
0.0
 20
0.0
  9
$LIMMAX
 10
134.456804
 20
169.919952
  9
$ORTHOMODE
 70
     1
  9
$REGENMODE
 70
     1
  9
$FILLMODE
 70
     1
  9
$QTEXTMODE
 70
     0
  9
$MIRRTEXT
 70
     1
  9
$DRAGMODE
 70
     2
  9
$LTSCALE
 40
12.0
  9
$OSMODE
 70
    39
  9
$ATTMODE
 70
     1
  9
$TEXTSIZE
 40
3.0
  9
$TRACEWID
 40
3.0
  9
$TEXTSTYLE
  7
ARCH
  9
$CLAYER
  8
D-TEXT
  9
$CELTYPE
  6
BYLAYER
  9
$CECOLOR
 62
   256
  9
$CELTSCALE
 40
1.0
  9
$DELOBJ
 70
     1
  9
$DISPSILH
 70
     0
  9
$DIMSCALE
 40
24.0
  9
$DIMASZ
 40
0.1875
  9
$DIMEXO
 40
0.0625
  9
$DIMDLI
 40
0.375
  9
$DIMRND
 40
0.0
  9
$DIMDLE
 40
0.0
  9
$DIMEXE
 40
0.1875
  9
$DIMTP
 40
0.0
  9
$DIMTM
 40
0.0
  9
$DIMTXT
 40
0.125
  9
$DIMCEN
 40
0.1875
  9
$DIMTSZ
 40
0.0
  9
$DIMTOL
 70
     0
  9
$DIMLIM
 70
     0
  9
$DIMTIH
 70
     1
  9
$DIMTOH
 70
     1
  9
$DIMSE1
 70
     0
  9
$DIMSE2
 70
     0
  9
$DIMTAD
 70
     0
  9
$DIMZIN
 70
     0
  9
$DIMBLK
  1
OBLIQUE
  9
$DIMASO
 70
     1
  9
$DIMSHO
 70
     1
  9
$DIMPOST
  1

  9
$DIMAPOST
  1

  9
$DIMALT
 70
     0
  9
$DIMALTD
 70
     1
  9
$DIMALTF
 40
25.4
  9
$DIMLFAC
 40
1.0
  9
$DIMTOFL
 70
     0
  9
$DIMTVP
 40
0.0
  9
$DIMTIX
 70
     0
  9
$DIMSOXD
 70
     0
  9
$DIMSAH
 70
     1
  9
$DIMBLK1
  1
_OPEN90
  9
$DIMBLK2
  1
_OPEN90
  9
$DIMSTYLE
  2
LEADER
  9
$DIMCLRD
 70
     0
  9
$DIMCLRE
 70
     0
  9
$DIMCLRT
 70
     0
  9
$DIMTFAC
 40
1.0
  9
$DIMGAP
 40
0.125
  9
$DIMJUST
 70
     0
  9
$DIMSD1
 70
     0
  9
$DIMSD2
 70
     0
  9
$DIMTOLJ
 70
     0
  9
$DIMTZIN
 70
     0
  9
$DIMALTZ
 70
     0
  9
$DIMALTTZ
 70
     0
  9
$DIMFIT
 70
     1
  9
$DIMUPT
 70
     1
  9
$DIMUNIT
 70
     4
  9
$DIMDEC
 70
     4
  9
$DIMTDEC
 70
     2
  9
$DIMALTU
 70
     2
  9
$DIMALTTD
 70
     1
  9
$DIMTXSTY
  7
ARCH
  9
$DIMAUNIT
 70
     0
  9
$LUNITS
 70
     4
  9
$LUPREC
 70
     4
  9
$SKETCHINC
 40
12.0
  9
$FILLETRAD
 40
0.0
  9
$AUNITS
 70
     0
  9
$AUPREC
 70
     0
  9
$MENU
  1
.
  9
$ELEVATION
 40
0.0
  9
$PELEVATION
 40
0.0
  9
$THICKNESS
 40
0.0
  9
$LIMCHECK
 70
     0
  9
$BLIPMODE
 70
     1
  9
$CHAMFERA
 40
24.0
  9
$CHAMFERB
 40
24.0
  9
$CHAMFERC
 40
24.0
  9
$CHAMFERD
 40
0.785398
  9
$SKPOLY
 70
     0
  9
$TDCREATE
 40
2451083.741152083
  9
$TDUPDATE
 40
2451103.332651388
  9
$TDINDWG
 40
0.5881744213
  9
$TDUSRTIMER
 40
0.5881744213
  9
$USRTIMER
 70
     1
  9
$ANGBASE
 50
0.0
  9
$ANGDIR
 70
     0
  9
$PDMODE
 70
     0
  9
$PDSIZE
 40
0.0
  9
$PLINEWID
 40
0.0
  9
$COORDS
 70
     2
  9
$SPLFRAME
 70
     0
  9
$SPLINETYPE
 70
     6
  9
$SPLINESEGS
 70
     8
  9
$ATTDIA
 70
     0
  9
$ATTREQ
 70
     1
  9
$HANDLING
 70
     1
  9
$HANDSEED
  5
85EF
  9
$SURFTAB1
 70
     6
  9
$SURFTAB2
 70
     6
  9
$SURFTYPE
 70
     6
  9
$SURFU
 70
     6
  9
$SURFV
 70
     6
  9
$UCSNAME
  2

  9
$UCSORG
 10
0.0
 20
0.0
 30
0.0
  9
$UCSXDIR
 10
1.0
 20
0.0
 30
0.0
  9
$UCSYDIR
 10
0.0
 20
1.0
 30
0.0
  9
$PUCSNAME
  2

  9
$PUCSORG
 10
0.0
 20
0.0
 30
0.0
  9
$PUCSXDIR
 10
1.0
 20
0.0
 30
0.0
  9
$PUCSYDIR
 10
0.0
 20
1.0
 30
0.0
  9
$USERI1
 70
     0
  9
$USERI2
 70
     0
  9
$USERI3
 70
     0
  9
$USERI4
 70
     0
  9
$USERI5
 70
     0
  9
$USERR1
 40
0.0
  9
$USERR2
 40
0.0
  9
$USERR3
 40
0.0
  9
$USERR4
 40
0.0
  9
$USERR5
 40
0.0
  9
$WORLDVIEW
 70
     1
  9
$SHADEDGE
 70
     3
  9
$SHADEDIF
 70
    70
  9
$TILEMODE
 70
     1
  9
$MAXACTVP
 70
    16
  9
$PINSBASE
 10
0.0
 20
0.0
 30
0.0
  9
$PLIMCHECK
 70
     0
  9
$PEXTMIN
 10
1.000000E+20
 20
1.000000E+20
 30
1.000000E+20
  9
$PEXTMAX
 10
-1.000000E+20
 20
-1.000000E+20
 30
-1.000000E+20
  9
$PLIMMIN
 10
0.0
 20
0.0
  9
$PLIMMAX
 10
12.0
 20
9.0
  9
$UNITMODE
 70
     0
  9
$VISRETAIN
 70
     0
  9
$PLINEGEN
 70
     0
  9
$PSLTSCALE
 70
     1
  9
$TREEDEPTH
 70
  3020
  9
$PICKSTYLE
 70
     1
  9
$CMLSTYLE
  2
STANDARD
  9
$CMLJUST
 70
     0
  9
$CMLSCALE
 40
1.0
  9
$SAVEIMAGES
 70
     0
  0
ENDSEC
  0
SECTION
  2
CLASSES
  0
ENDSEC
  0
SECTION
  2
TABLES
  0
TABLE
  2
VPORT
  5
8
100
AcDbSymbolTable
 70
     3
  0
VPORT
  5
85EE
100
AcDbSymbolTableRecord
100
AcDbViewportTableRecord
  2
*ACTIVE
 70
     0
 10
0.0
 20
0.0
 11
1.0
 21
1.0
 12
67.08
 22
83.583008
 13
0.0
 23
0.0
 14
0.433013
 24
0.125
 15
20.78461
 25
6.0
 16
0.0
 26
0.0
 36
1.0
 17
0.0
 27
0.0
 37
0.0
 40
167.166016
 41
1.474462
 42
50.0
 43
0.0
 44
0.0
 50
0.0
 51
0.0
 71
     0
 72
   100
 73
     1
 74
     1
 75
     0
 76
     1
 77
     1
 78
     2
  0
ENDTAB
  0
TABLE
  2
LTYPE
  5
5
100
AcDbSymbolTable
 70
     1
  0
LTYPE
  5
14
100
AcDbSymbolTableRecord
100
AcDbLinetypeTableRecord
  2
BYBLOCK
 70
     0
  3

 72
    65
 73
     0
 40
0.0
  0
LTYPE
  5
15
100
AcDbSymbolTableRecord
100
AcDbLinetypeTableRecord
  2
BYLAYER
 70
     0
  3

 72
    65
 73
     0
 40
0.0
  0
LTYPE
  5
16
100
AcDbSymbolTableRecord
100
AcDbLinetypeTableRecord
  2
CONTINUOUS
 70
    64
  3
Solid line
 72
    65
 73
     0
 40
0.0
  0
ENDTAB
  0
TABLE
  2
LAYER
  5
2
100
AcDbSymbolTable
 70
    10
  0
LAYER
  5
F
100
AcDbSymbolTableRecord
100
AcDbLayerTableRecord
  2
0
 70
    64
 62
     7
  6
CONTINUOUS
  0
LAYER
  5
2F
100
AcDbSymbolTableRecord
100
AcDbLayerTableRecord
  2
STUD
 70
    64
 62
     5
  6
CONTINUOUS
  0
LAYER
  5
30
100
AcDbSymbolTableRecord
100
AcDbLayerTableRecord
  2
TRACK
 70
    64
 62
     1
  6
CONTINUOUS
  0
LAYER
  5
34
100
AcDbSymbolTableRecord
100
AcDbLayerTableRecord
  2
STEEL
 70
    64
 62
   144
  6
CONTINUOUS
  0
LAYER
  5
37
100
AcDbSymbolTableRecord
100
AcDbLayerTableRecord
  2
FASTENER
 70
    64
 62
   204
  6
CONTINUOUS
  0
LAYER
  5
38
100
AcDbSymbolTableRecord
100
AcDbLayerTableRecord
  2
GYPSUM
 70
    64
 62
     7
  6
CONTINUOUS
  0
LAYER
  5
3B
100
AcDbSymbolTableRecord
100
AcDbLayerTableRecord
  2
_KTI_CONTROL
 70
    69
 62
     7
  6
CONTINUOUS
  0
LAYER
  5
80E6
100
AcDbSymbolTableRecord
100
AcDbLayerTableRecord
  2
LINK
 70
    64
 62
     7
  6
CONTINUOUS
  0
LAYER
  5
84CC
100
AcDbSymbolTableRecord
100
AcDbLayerTableRecord
  2
D-TEXT
 70
    64
 62
    94
  6
CONTINUOUS
  0
LAYER
  5
84CD
100
AcDbSymbolTableRecord
100
AcDbLayerTableRecord
  2
LAYOUT
 70
    65
 62
    52
  6
CONTINUOUS
  0
ENDTAB
  0
TABLE
  2
STYLE
  5
3
100
AcDbSymbolTable
 70
     4
  0
STYLE
  5
10
100
AcDbSymbolTableRecord
100
AcDbTextStyleTableRecord
  2
STANDARD
 70
    64
 40
0.0
 41
1.0
 50
0.0
 71
     0
 42
2.0
  3
txt
  4

  0
STYLE
  5
72
100
AcDbSymbolTableRecord
100
AcDbTextStyleTableRecord
  2
ARCH
 70
    64
 40
3.0
 41
1.0
 50
0.0
 71
     0
 42
3.0
  3
F:\r13\com\fonts\Architxt.shx
  4

  0
STYLE
  5
6C50
100
AcDbSymbolTableRecord
100
AcDbTextStyleTableRecord
  2
BLOCK
 70
    64
 40
0.0
 41
1.0
 50
0.0
 71
     0
 42
2.0
  3
F:\r13\com\fonts\monos.ttf
  4

  0
STYLE
  5
84D6
100
AcDbSymbolTableRecord
100
AcDbTextStyleTableRecord
  2
BLD
 70
    64
 40
0.0
 41
1.0
 50
0.0
 71
     0
 42
1.5
  3
F:\r13\com\fonts\monos.ttf
  4

  0
ENDTAB
  0
TABLE
  2
VIEW
  5
6
100
AcDbSymbolTable
 70
     0
  0
ENDTAB
  0
TABLE
  2
UCS
  5
7
100
AcDbSymbolTable
 70
     0
  0
ENDTAB
  0
TABLE
  2
APPID
  5
9
100
AcDbSymbolTable
 70
     5
  0
APPID
  5
11
100
AcDbSymbolTableRecord
100
AcDbRegAppTableRecord
  2
ACAD
 70
     0
  0
APPID
  5
3A
100
AcDbSymbolTableRecord
100
AcDbRegAppTableRecord
  2
_KTI_ARCHT
 70
     0
  0
APPID
  5
280D
100
AcDbSymbolTableRecord
100
AcDbRegAppTableRecord
  2
AVE_FINISH
 70
     0
  0
APPID
  5
280E
100
AcDbSymbolTableRecord
100
AcDbRegAppTableRecord
  2
ADE
 70
     0
  0
APPID
  5
8094
100
AcDbSymbolTableRecord
100
AcDbRegAppTableRecord
  2
PE_URL
 70
     0
  0
ENDTAB
  0
TABLE
  2
DIMSTYLE
  5
A
100
AcDbSymbolTable
 70
     2
  0
DIMSTYLE
105
1D
100
AcDbSymbolTableRecord
100
AcDbDimStyleTableRecord
  2
STANDARD
 70
     0
  3

  4

  5

  6
_CLOSED
  7
_CLOSED
 40
24.0
 41
0.1875
 42
0.0625
 43
0.375
 44
0.1875
 45
0.0
 46
0.0
 47
0.0
 48
0.0
140
0.18
141
0.0625
142
0.0
143
25.4
144
1.0
145
0.0
146
1.0
147
0.0625
 71
     0
 72
     0
 73
     1
 74
     1
 75
     0
 76
     0
 77
     0
 78
     0
170
     0
171
     2
172
     0
173
     1
174
     0
175
     0
176
     0
177
     0
178
     0
270
     2
271
     4
272
     4
273
     2
274
     2
340
6C50
275
     0
280
     0
281
     0
282
     0
283
     1
284
     0
285
     0
286
     0
287
     3
288
     0
  0
DIMSTYLE
105
18D3
100
AcDbSymbolTableRecord
100
AcDbDimStyleTableRecord
  2
LEADER
 70
     0
  3

  4

  5
OBLIQUE
  6
_OPEN90
  7
_OPEN90
 40
24.0
 41
0.1875
 42
0.0625
 43
0.375
 44
0.1875
 45
0.0
 46
0.0
 47
0.0
 48
0.0
140
0.125
141
0.1875
142
0.0
143
25.4
144
1.0
145
0.0
146
1.0
147
0.125
 71
     0
 72
     0
 73
     1
 74
     1
 75
     0
 76
     0
 77
     0
 78
     0
170
     0
171
     1
172
     0
173
     1
174
     0
175
     0
176
     0
177
     0
178
     0
270
     4
271
     4
272
     2
273
     2
274
     1
340
72
275
     0
280
     0
281
     0
282
     0
283
     0
284
     0
285
     0
286
     0
287
     1
288
     1
  0
ENDTAB
  0
TABLE
  2
BLOCK_RECORD
  5
1
100
AcDbSymbolTable
 70
     2
  0
BLOCK_RECORD
  5
1A
100
AcDbSymbolTableRecord
100
AcDbBlockTableRecord
  2
*MODEL_SPACE
  0
BLOCK_RECORD
  5
17
100
AcDbSymbolTableRecord
100
AcDbBlockTableRecord
  2
*PAPER_SPACE
  0
BLOCK_RECORD
  5
4C7A
100
AcDbSymbolTableRecord
100
AcDbBlockTableRecord
  2
CEMCO_BLANK
  0
BLOCK_RECORD
  5
84B7
100
AcDbSymbolTableRecord
100
AcDbBlockTableRecord
  2
DETAIL_TITLE
  0
ENDTAB
  0
ENDSEC
  0
SECTION
  2
BLOCKS
  0
BLOCK
  5
1B
100
AcDbEntity
  8
0
100
AcDbBlockBegin
  2
*MODEL_SPACE
 70
     0
 10
0.0
 20
0.0
 30
0.0
  3
*MODEL_SPACE
  1

  0
ENDBLK
  5
1C
100
AcDbEntity
  8
0
100
AcDbBlockEnd
  0
BLOCK
  5
18
100
AcDbEntity
 67
     1
  8
0
100
AcDbBlockBegin
  2
*PAPER_SPACE
 70
     0
 10
0.0
 20
0.0
 30
0.0
  3
*PAPER_SPACE
  1

  0
ENDBLK
  5
19
100
AcDbEntity
 67
     1
  8
0
100
AcDbBlockEnd
  0
BLOCK
  5
4C83
100
AcDbEntity
  8
0
100
AcDbBlockBegin
  2
CEMCO_BLANK
 70
     0
 10
0.0
 20
0.0
 30
0.0
  3
CEMCO_BLANK
  1

  0
POLYLINE
  5
4C7B
100
AcDbEntity
  8
_KTI_CONTROL
 60
     1
100
AcDb3dPolyline
 66
     1
 10
0.0
 20
0.0
 30
0.0
 70
     8
1001
_KTI_ARCHT
1070
 12000
1000
ENVIRONMENT
1070
 10003
1000
cemco_blank
1070
 20000
1000
standard
1070
 20001
1000
f:\archt
1070
 20003
1000
h:\archt
1070
 20002
1000
f:\archt\tmp
1070
 20004
1002
{
1000
f:\archt\blks
1000
f:\archt\blks3d
1000
h:\archt\blks
1000
h:\archt\blks3d
1002
}
1070
 20005
1002
{
1000
f:\archt\slds
1002
}
1070
 20006
1002
{
1000
f:\archt\dclswin
1002
}
1070
 20007
1002
{
1000
f:\archt\docs
1002
}
1070
 20008
1002
{
1000
f:\archt\help
1002
}
  0
VERTEX
  5
4C7C
100
AcDbEntity
  8
_KTI_CONTROL
100
AcDbVertex
100
AcDb3dPolylineVertex
 10
0.0
 20
0.0
 30
0.0
 70
    32
  0
VERTEX
  5
4C7D
100
AcDbEntity
  8
_KTI_CONTROL
100
AcDbVertex
100
AcDb3dPolylineVertex
 10
0.0
 20
0.0
 30
0.0
 70
    32
  0
SEQEND
  5
4C7E
100
AcDbEntity
  8
_KTI_CONTROL
  0
POLYLINE
  5
4C7F
100
AcDbEntity
  8
_KTI_CONTROL
 60
     1
100
AcDb3dPolyline
 66
     1
 10
0.0
 20
0.0
 30
0.0
 70
     8
1001
_KTI_ARCHT
1070
 12000
1000
ARCHTVARS
1070
 10003
1000
cemco_blank
1070
 12030
1000
in
1070
 12020
1070
     1
1070
 12021
1070
     0
1070
 12070
1070
     0
1070
 12071
1070
     1
1070
 12907
1070
     0
1070
 12072
1070
     2
1070
 12073
1070
    48
1070
 12074
1070
     0
1070
 12080
1070
     1
1070
 12092
1070
     1
1070
 12096
1070
     0
1070
 12095
1070
     0
1070
 12081
1070
     1
1070
 12082
1070
     1
1070
 12083
1070
     1
1070
 12084
1070
     1
1070
 12085
1070
     0
1070
 12086
1070
     1
1070
 12087
1070
     0
1070
 12088
1070
     0
1070
 12097
1070
     1
1070
 12089
1070
     4
1070
 12090
1070
     6
1070
 12091
1070
     1
1070
 12045
1000
standard
1070
 12046
1000

1070
 12047
1000
standard
1070
 12048
1000

1070
 12049
1000

1070
 12093
1070
     1
1070
 12094
1070
     1
1070
 12908
1070
     0
1070
 12909
1070
     0
1070
 12911
1070
     0
1070
 12910
1070
     0
1070
 12912
1070
     0
1070
 12098
1070
   640
1070
 12060
1002
{
1000

1000

1000

1000

1002
}
1070
 12904
1002
{
1070
     0
1070
     0
1070
     0
1070
     0
1070
     0
1002
}
1070
 12905
1002
{
1040
0.0
1040
0.0
1040
0.0
1040
0.0
1040
0.0
1002
}
1070
 12906
1002
{
1000

1000

1000

1000

1000

1002
}
1070
 12040
1002
{
1002
}
  0
VERTEX
  5
4C80
100
AcDbEntity
  8
_KTI_CONTROL
100
AcDbVertex
100
AcDb3dPolylineVertex
 10
0.0
 20
0.0
 30
0.0
 70
    32
  0
VERTEX
  5
4C81
100
AcDbEntity
  8
_KTI_CONTROL
100
AcDbVertex
100
AcDb3dPolylineVertex
 10
0.0
 20
0.0
 30
0.0
 70
    32
  0
SEQEND
  5
4C82
100
AcDbEntity
  8
_KTI_CONTROL
  0
ENDBLK
  5
4C84
100
AcDbEntity
  8
0
100
AcDbBlockEnd
  0
BLOCK
  5
84C0
100
AcDbEntity
  8
0
100
AcDbBlockBegin
  2
DETAIL_TITLE
 70
    66
 10
0.0
 20
0.0
 30
0.0
  3
DETAIL_TITLE
  1

  0
ATTDEF
  5
84B8
100
AcDbEntity
  8
D-TEXT
100
AcDbText
 10
1.163519
 20
0.650143
 30
0.0
 40
0.25
  1
TYP. 
  7
BLOCK
100
AcDbAttributeDefinition
  3
Enter the title of the detail
  2
DETAIL_DISCRIPTION
 70
     0
  0
POLYLINE
  5
84B9
100
AcDbEntity
  8
D-TEXT
100
AcDb2dPolyline
 66
     1
 10
0.0
 20
0.0
 30
0.0
 40
0.05
 41
0.05
  0
VERTEX
  5
84BA
100
AcDbEntity
  8
D-TEXT
100
AcDbVertex
100
AcDb2dVertex
 10
1.038519
 20
0.51926
 30
0.0
  0
VERTEX
  5
84BB
100
AcDbEntity
  8
D-TEXT
100
AcDbVertex
100
AcDb2dVertex
 10
7.93
 20
0.51926
 30
0.0
  0
SEQEND
  5
84BC
100
AcDbEntity
  8
D-TEXT
  0
ATTDEF
  5
84BD
100
AcDbEntity
  8
D-TEXT
100
AcDbText
 10
0.189467
 20
0.39426
 30
0.0
 40
0.25
  1
D-#
  7
BLD
 72
     1
 11
0.51926
 21
0.51926
 31
0.0
100
AcDbAttributeDefinition
  3
Enter the Detail number
  2
DETAIL_NO
 70
     0
 74
     2
  0
ATTDEF
  5
84BE
100
AcDbEntity
  8
D-TEXT
100
AcDbText
 10
1.163519
 20
0.172049
 30
0.0
 40
0.1875
  1
N. T. Scale 1-1/2" = 1'0"
  7
BLOCK
100
AcDbAttributeDefinition
  3
Type the defanition of scale
  2
SCALE
 70
     0
  0
CIRCLE
  5
84BF
100
AcDbEntity
  8
D-TEXT
100
AcDbCircle
 10
0.51926
 20
0.51926
 30
0.0
 40
0.51926
  0
ENDBLK
  5
84C1
100
AcDbEntity
  8
0
100
AcDbBlockEnd
  0
ENDSEC
  0
SECTION
  2
ENTITIES
  0
POLYLINE
  5
21DC
100
AcDbEntity
  8
STEEL
100
AcDb2dPolyline
 66
     1
 10
0.0
 20
0.0
 30
0.0
  0
VERTEX
  5
21DD
100
AcDbEntity
  8
STEEL
100
AcDbVertex
100
AcDb2dVertex
 10
216.677889
 20
326.933984
 30
0.0
  0
SEQEND
  5
21DE
100
AcDbEntity
  8
STEEL
  0
INSERT
  5
5610
100
AcDbEntity
  8
0
100
AcDbBlockReference
  2
CEMCO_BLANK
 10
-222.923637
 20
277.385045
 30
0.0
 41
0.5
 42
0.5
 43
-0.5
210
0.0
220
0.0
230
-1.0
  0
ELLIPSE
  5
6007
100
AcDbEntity
  8
FASTENER
100
AcDbEllipse
 10
71.349404
 20
91.091078
 30
0.0
 11
0.0765465544619698
 21
0.1325825214724749
 31
0.0
210
0.0
220
0.0
230
-1.0
 40
0.57735
 41
0.0000000000000219
 42
6.283185307179622
  0
LINE
  5
600A
100
AcDbEntity
  8
FASTENER
100
AcDbLine
 10
71.24115
 20
91.028578
 30
0.0
 11
71.457657
 21
91.153578
 31
0.0
  0
LINE
  5
600B
100
AcDbEntity
  8
FASTENER
100
AcDbLine
 10
71.348174
 20
91.216072
 30
0.0
 11
71.350633
 21
90.966084
 31
0.0
  0
POLYLINE
  5
6019
100
AcDbEntity
  8
TRACK
100
AcDb2dPolyline
 66
     1
 10
0.0
 20
0.0
 30
0.0
 70
     1
  0
VERTEX
  5
601A
100
AcDbEntity
  8
TRACK
100
AcDbVertex
100
AcDb2dVertex
 10
70.839468
 20
90.290857
 30
0.0
  0
VERTEX
  5
601B
100
AcDbEntity
  8
TRACK
100
AcDbVertex
100
AcDb2dVertex
 10
70.839468
 20
91.897815
 30
0.0
 42
0.267949
  0
VERTEX
  5
601C
100
AcDbEntity
  8
TRACK
100
AcDbVertex
100
AcDb2dVertex
 10
70.823843
 20
91.924878
 30
0.0
  0
VERTEX
  5
601D
100
AcDbEntity
  8
TRACK
100
AcDbVertex
100
AcDb2dVertex
 10
67.747001
 20
93.701294
 30
0.0
 42
0.57735
  0
VERTEX
  5
601E
100
AcDbEntity
  8
TRACK
100
AcDbVertex
100
AcDb2dVertex
 10
67.700126
 20
93.67423
 30
0.0
  0
VERTEX
  5
601F
100
AcDbEntity
  8
TRACK
100
AcDbVertex
100
AcDb2dVertex
 10
67.700126
 20
92.103357
 30
0.0
  0
VERTEX
  5
6020
100
AcDbEntity
  8
TRACK
100
AcDbVertex
100
AcDb2dVertex
 10
67.665526
 20
92.123333
 30
0.0
  0
VERTEX
  5
6021
100
AcDbEntity
  8
TRACK
100
AcDbVertex
100
AcDb2dVertex
 10
67.665526
 20
93.67423
 30
0.0
 42
-0.57735
  0
VERTEX
  5
6022
100
AcDbEntity
  8
TRACK
100
AcDbVertex
100
AcDb2dVertex
 10
67.764301
 20
93.731258
 30
0.0
  0
VERTEX
  5
6023
100
AcDbEntity
  8
TRACK
100
AcDbVertex
100
AcDb2dVertex
 10
70.841143
 20
91.954843
 30
0.0
 42
-0.267949
  0
VERTEX
  5
6024
100
AcDbEntity
  8
TRACK
100
AcDbVertex
100
AcDb2dVertex
 10
70.874068
 20
91.897815
 30
0.0
  0
VERTEX
  5
6025
100
AcDbEntity
  8
TRACK
100
AcDbVertex
100
AcDb2dVertex
 10
70.874068
 20
90.270881
 30
0.0
  0
SEQEND
  5
6026
100
AcDbEntity
  8
TRACK
  0
POLYLINE
  5
6038
100
AcDbEntity
  8
TRACK
100
AcDb2dPolyline
 66
     1
 10
0.0
 20
0.0
 30
0.0
 70
     1
  0
VERTEX
  5
6039
100
AcDbEntity
  8
TRACK
100
AcDbVertex
100
AcDb2dVertex
 10
131.739694
 20
72.071289
 30
0.0
  0
VERTEX
  5
603A
100
AcDbEntity
  8
TRACK
100
AcDbVertex
100
AcDb2dVertex
 10
131.739694
 20
70.464331
 30
0.0
 42
0.267949
  0
VERTEX
  5
603B
100
AcDbEntity
  8
TRACK
100
AcDbVertex
100
AcDb2dVertex
 10
131.755319
 20
70.437267
 30
0.0
  0
VERTEX
  5
603C
100
AcDbEntity
  8
TRACK
100
AcDbVertex
100
AcDb2dVertex
 10
134.832161
 20
68.660852
 30
0.0
 42
0.57735
  0
VERTEX
  5
603D
100
AcDbEntity
  8
TRACK
100
AcDbVertex
100
AcDb2dVertex
 10
134.879036
 20
68.687915
 30
0.0
  0
VERTEX
  5
603E
100
AcDbEntity
  8
TRACK
100
AcDbVertex
100
AcDb2dVertex
 10
134.879036
 20
70.258789
 30
0.0
  0
VERTEX
  5
603F
100
AcDbEntity
  8
TRACK
100
AcDbVertex
100
AcDb2dVertex
 10
134.913636
 20
70.238812
 30
0.0
  0
VERTEX
  5
6040
100
AcDbEntity
  8
TRACK
100
AcDbVertex
100
AcDb2dVertex
 10
134.913636
 20
68.687915
 30
0.0
 42
-0.57735
  0
VERTEX
  5
6041
100
AcDbEntity
  8
TRACK
100
AcDbVertex
100
AcDb2dVertex
 10
134.814861
 20
68.630887
 30
0.0
  0
VERTEX
  5
6042
100
AcDbEntity
  8
TRACK
100
AcDbVertex
100
AcDb2dVertex
 10
131.738019
 20
70.407303
 30
0.0
 42
-0.267949
  0
VERTEX
  5
6043
100
AcDbEntity
  8
TRACK
100
AcDbVertex
100
AcDb2dVertex
 10
131.705094
 20
70.464331
 30
0.0
  0
VERTEX
  5
6044
100
AcDbEntity
  8
TRACK
100
AcDbVertex
100
AcDb2dVertex
 10
131.705094
 20
72.091265
 30
0.0
  0
SEQEND
  5
6045
100
AcDbEntity
  8
TRACK
  0
POLYLINE
  5
6046
100
AcDbEntity
  8
TRACK
100
AcDb2dPolyline
 66
     1
 10
0.0
 20
0.0
 30
0.0
 70
     1
  0
VERTEX
  5
6047
100
AcDbEntity
  8
TRACK
100
AcDbVertex
100
AcDb2dVertex
 10
67.765976
 20
35.361564
 30
0.0
  0
VERTEX
  5
6048
100
AcDbEntity
  8
TRACK
100
AcDbVertex
100
AcDb2dVertex
 10
67.765976
 20
33.754606
 30
0.0
 42
0.267949
  0
VERTEX
  5
6049
100
AcDbEntity
  8
TRACK
100
AcDbVertex
100
AcDb2dVertex
 10
67.781601
 20
33.727543
 30
0.0
  0
VERTEX
  5
604A
100
AcDbEntity
  8
TRACK
100
AcDbVertex
100
AcDb2dVertex
 10
70.858443
 20
31.951127
 30
0.0
 42
0.57735
  0
VERTEX
  5
604B
100
AcDbEntity
  8
TRACK
100
AcDbVertex
100
AcDb2dVertex
 10
70.905318
 20
31.97819
 30
0.0
  0
VERTEX
  5
604C
100
AcDbEntity
  8
TRACK
100
AcDbVertex
100
AcDb2dVertex
 10
70.905318
 20
33.549064
 30
0.0
  0
VERTEX
  5
604D
100
AcDbEntity
  8
TRACK
100
AcDbVertex
100
AcDb2dVertex
 10
70.939918
 20
33.529088
 30
0.0
  0
VERTEX
  5
604E
100
AcDbEntity
  8
TRACK
100
AcDbVertex
100
AcDb2dVertex
 10
70.939918
 20
31.97819
 30
0.0
 42
-0.57735
  0
VERTEX
  5
604F
100
AcDbEntity
  8
TRACK
100
AcDbVertex
100
AcDb2dVertex
 10
70.841143
 20
31.921163
 30
0.0
  0
VERTEX
  5
6050
100
AcDbEntity
  8
TRACK
100
AcDbVertex
100
AcDb2dVertex
 10
67.764301
 20
33.697578
 30
0.0
 42
-0.267949
  0
VERTEX
  5
6051
100
AcDbEntity
  8
TRACK
100
AcDbVertex
100
AcDb2dVertex
 10
67.731376
 20
33.754606
 30
0.0
  0
VERTEX
  5
6052
100
AcDbEntity
  8
TRACK
100
AcDbVertex
100
AcDb2dVertex
 10
67.731376
 20
35.38154
 30
0.0
  0
SEQEND
  5
6053
100
AcDbEntity
  8
TRACK
  0
LINE
  5
6054
100
AcDbEntity
  8
TRACK
100
AcDbLine
 10
72.154685
 20
37.919745
 30
0.0
 11
81.673092
 21
43.381647
 31
0.0
  0
LINE
  5
6055
100
AcDbEntity
  8
TRACK
100
AcDbLine
 10
134.913636
 20
70.238812
 30
0.0
 11
70.939918
 21
33.529088
 31
0.0
  0
LINE
  5
6056
100
AcDbEntity
  8
TRACK
100
AcDbLine
 10
70.841143
 20
31.921163
 30
0.0
 11
134.913636
 21
68.687915
 31
0.0
  0
LINE
  5
6057
100
AcDbEntity
  8
TRACK
100
AcDbLine
 10
131.738019
 20
70.407303
 30
0.0
 11
127.58031
 21
68.022808
 31
0.0
  0
LINE
  5
6069
100
AcDbEntity
  8
TRACK
100
AcDbLine
 10
70.874068
 20
91.897815
 30
0.0
 11
134.584957
 21
128.681313
 31
0.0
  0
ELLIPSE
  5
6150
100
AcDbEntity
  8
FASTENER
100
AcDbEllipse
 10
71.35774
 20
33.038708
 30
0.0
 11
0.0765465544619698
 21
0.1325825214724749
 31
0.0
210
0.0
220
0.0
230
-1.0
 40
0.57735
 41
0.0000000000000219
 42
6.283185307179622
  0
LINE
  5
6151
100
AcDbEntity
  8
FASTENER
100
AcDbLine
 10
71.249487
 20
32.976208
 30
0.0
 11
71.465993
 21
33.101208
 31
0.0
  0
LINE
  5
6152
100
AcDbEntity
  8
FASTENER
100
AcDbLine
 10
71.35651
 20
33.163702
 30
0.0
 11
71.35897
 21
32.913714
 31
0.0
  0
POLYLINE
  5
615F
100
AcDbEntity
  8
STUD
100
AcDb2dPolyline
 66
     1
 10
0.0
 20
0.0
 30
0.0
 70
     1
  0
VERTEX
  5
6160
100
AcDbEntity
  8
STUD
100
AcDbVertex
100
AcDb2dVertex
 10
70.077241
 20
46.041211
 30
0.0
 42
0.267949
  0
VERTEX
  5
6161
100
AcDbEntity
  8
STUD
100
AcDbVertex
100
AcDb2dVertex
 10
69.952241
 20
46.257717
 30
0.0
  0
VERTEX
  5
6162
100
AcDbEntity
  8
STUD
100
AcDbVertex
100
AcDb2dVertex
 10
69.153203
 20
46.719042
 30
0.0
 42
0.57735
  0
VERTEX
  5
6163
100
AcDbEntity
  8
STUD
100
AcDbVertex
100
AcDb2dVertex
 10
68.778203
 20
46.502536
 30
0.0
  0
VERTEX
  5
6164
100
AcDbEntity
  8
STUD
100
AcDbVertex
100
AcDb2dVertex
 10
68.778203
 20
43.829886
 30
0.0
 42
0.267949
  0
VERTEX
  5
6165
100
AcDbEntity
  8
STUD
100
AcDbVertex
100
AcDb2dVertex
 10
68.903203
 20
43.61338
 30
0.0
  0
VERTEX
  5
6166
100
AcDbEntity
  8
STUD
100
AcDbVertex
100
AcDb2dVertex
 10
69.702241
 20
43.152055
 30
0.0
 42
0.57735
  0
VERTEX
  5
6167
100
AcDbEntity
  8
STUD
100
AcDbVertex
100
AcDb2dVertex
 10
70.077241
 20
43.368561
 30
0.0
  0
SEQEND
  5
6168
100
AcDbEntity
  8
STUD
  0
POLYLINE
  5
619D
100
AcDbEntity
  8
STUD
100
AcDb2dPolyline
 66
     1
 10
0.0
 20
0.0
 30
0.0
 70
     1
  0
VERTEX
  5
619E
100
AcDbEntity
  8
STUD
100
AcDbVertex
100
AcDb2dVertex
 10
70.077241
 20
58.074891
 30
0.0
 42
0.267949
  0
VERTEX
  5
619F
100
AcDbEntity
  8
STUD
100
AcDbVertex
100
AcDb2dVertex
 10
69.952241
 20
58.291397
 30
0.0
  0
VERTEX
  5
61A0
100
AcDbEntity
  8
STUD
100
AcDbVertex
100
AcDb2dVertex
 10
69.153203
 20
58.752722
 30
0.0
 42
0.57735
  0
VERTEX
  5
61A1
100
AcDbEntity
  8
STUD
100
AcDbVertex
100
AcDb2dVertex
 10
68.778203
 20
58.536216
 30
0.0
  0
VERTEX
  5
61A2
100
AcDbEntity
  8
STUD
100
AcDbVertex
100
AcDb2dVertex
 10
68.778203
 20
55.863566
 30
0.0
 42
0.267949
  0
VERTEX
  5
61A3
100
AcDbEntity
  8
STUD
100
AcDbVertex
100
AcDb2dVertex
 10
68.903203
 20
55.64706
 30
0.0
  0
VERTEX
  5
61A4
100
AcDbEntity
  8
STUD
100
AcDbVertex
100
AcDb2dVertex
 10
69.702241
 20
55.185735
 30
0.0
 42
0.57735
  0
VERTEX
  5
61A5
100
AcDbEntity
  8
STUD
100
AcDbVertex
100
AcDb2dVertex
 10
70.077241
 20
55.402241
 30
0.0
  0
SEQEND
  5
61A6
100
AcDbEntity
  8
STUD
  0
POLYLINE
  5
61A7
100
AcDbEntity
  8
STUD
100
AcDb2dPolyline
 66
     1
 10
0.0
 20
0.0
 30
0.0
 70
     1
  0
VERTEX
  5
61A8
100
AcDbEntity
  8
STUD
100
AcDbVertex
100
AcDb2dVertex
 10
70.077241
 20
82.074891
 30
0.0
 42
0.267949
  0
VERTEX
  5
61A9
100
AcDbEntity
  8
STUD
100
AcDbVertex
100
AcDb2dVertex
 10
69.952241
 20
82.291397
 30
0.0
  0
VERTEX
  5
61AA
100
AcDbEntity
  8
STUD
100
AcDbVertex
100
AcDb2dVertex
 10
69.153203
 20
82.752722
 30
0.0
 42
0.57735
  0
VERTEX
  5
61AB
100
AcDbEntity
  8
STUD
100
AcDbVertex
100
AcDb2dVertex
 10
68.778203
 20
82.536216
 30
0.0
  0
VERTEX
  5
61AC
100
AcDbEntity
  8
STUD
100
AcDbVertex
100
AcDb2dVertex
 10
68.778203
 20
79.863566
 30
0.0
 42
0.267949
  0
VERTEX
  5
61AD
100
AcDbEntity
  8
STUD
100
AcDbVertex
100
AcDb2dVertex
 10
68.903203
 20
79.64706
 30
0.0
  0
VERTEX
  5
61AE
100
AcDbEntity
  8
STUD
100
AcDbVertex
100
AcDb2dVertex
 10
69.702241
 20
79.185735
 30
0.0
 42
0.57735
  0
VERTEX
  5
61AF
100
AcDbEntity
  8
STUD
100
AcDbVertex
100
AcDb2dVertex
 10
70.077241
 20
79.402241
 30
0.0
  0
SEQEND
  5
61B0
100
AcDbEntity
  8
STUD
  0
LINE
  5
61D2
100
AcDbEntity
  8
STUD
100
AcDbLine
 10
81.673092
 20
96.5057
 30
0.0
 11
81.673092
 21
72.859315
 31
0.0
  0
LINE
  5
61D3
100
AcDbEntity
  8
STUD
100
AcDbLine
 10
84.687435
 20
98.246031
 30
0.0
 11
84.687435
 21
74.599646
 31
0.0
  0
LINE
  5
61D4
100
AcDbEntity
  8
STUD
100
AcDbLine
 10
84.749935
 20
98.282116
 30
0.0
 11
84.749935
 21
74.63573
 31
0.0
  0
LINE
  5
61D5
100
AcDbEntity
  8
STUD
100
AcDbLine
 10
86.032226
 20
99.022447
 30
0.0
 11
86.032226
 21
75.376061
 31
0.0
  0
POLYLINE
  5
61F3
100
AcDbEntity
  8
STUD
100
AcDb2dPolyline
 66
     1
 10
0.0
 20
0.0
 30
0.0
 70
     1
  0
VERTEX
  5
61F4
100
AcDbEntity
  8
STUD
100
AcDbVertex
100
AcDb2dVertex
 10
83.954783
 20
90.038172
 30
0.0
 42
0.267949
  0
VERTEX
  5
61F5
100
AcDbEntity
  8
STUD
100
AcDbVertex
100
AcDb2dVertex
 10
83.829783
 20
90.254679
 30
0.0
  0
VERTEX
  5
61F6
100
AcDbEntity
  8
STUD
100
AcDbVertex
100
AcDb2dVertex
 10
83.030744
 20
90.716003
 30
0.0
 42
0.57735
  0
VERTEX
  5
61F7
100
AcDbEntity
  8
STUD
100
AcDbVertex
100
AcDb2dVertex
 10
82.655744
 20
90.499497
 30
0.0
  0
VERTEX
  5
61F8
100
AcDbEntity
  8
STUD
100
AcDbVertex
100
AcDb2dVertex
 10
82.655744
 20
87.826847
 30
0.0
 42
0.267949
  0
VERTEX
  5
61F9
100
AcDbEntity
  8
STUD
100
AcDbVertex
100
AcDb2dVertex
 10
82.780744
 20
87.610341
 30
0.0
  0
VERTEX
  5
61FA
100
AcDbEntity
  8
STUD
100
AcDbVertex
100
AcDb2dVertex
 10
83.579783
 20
87.149016
 30
0.0
 42
0.57735
  0
VERTEX
  5
61FB
100
AcDbEntity
  8
STUD
100
AcDbVertex
100
AcDb2dVertex
 10
83.954783
 20
87.365522
 30
0.0
  0
SEQEND
  5
61FC
100
AcDbEntity
  8
STUD
  0
POLYLINE
  5
61FD
100
AcDbEntity
  8
STUD
100
AcDb2dPolyline
 66
     1
 10
0.0
 20
0.0
 30
0.0
 70
     1
  0
VERTEX
  5
61FE
100
AcDbEntity
  8
STUD
100
AcDbVertex
100
AcDb2dVertex
 10
83.954783
 20
66.038172
 30
0.0
 42
0.267949
  0
VERTEX
  5
61FF
100
AcDbEntity
  8
STUD
100
AcDbVertex
100
AcDb2dVertex
 10
83.829783
 20
66.254679
 30
0.0
  0
VERTEX
  5
6200
100
AcDbEntity
  8
STUD
100
AcDbVertex
100
AcDb2dVertex
 10
83.030744
 20
66.716003
 30
0.0
 42
0.57735
  0
VERTEX
  5
6201
100
AcDbEntity
  8
STUD
100
AcDbVertex
100
AcDb2dVertex
 10
82.655744
 20
66.499497
 30
0.0
  0
VERTEX
  5
6202
100
AcDbEntity
  8
STUD
100
AcDbVertex
100
AcDb2dVertex
 10
82.655744
 20
63.826847
 30
0.0
 42
0.267949
  0
VERTEX
  5
6203
100
AcDbEntity
  8
STUD
100
AcDbVertex
100
AcDb2dVertex
 10
82.780744
 20
63.610341
 30
0.0
  0
VERTEX
  5
6204
100
AcDbEntity
  8
STUD
100
AcDbVertex
100
AcDb2dVertex
 10
83.579783
 20
63.149016
 30
0.0
 42
0.57735
  0
VERTEX
  5
6205
100
AcDbEntity
  8
STUD
100
AcDbVertex
100
AcDb2dVertex
 10
83.954783
 20
63.365522
 30
0.0
  0
SEQEND
  5
6206
100
AcDbEntity
  8
STUD
  0
POLYLINE
  5
6207
100
AcDbEntity
  8
STUD
100
AcDb2dPolyline
 66
     1
 10
0.0
 20
0.0
 30
0.0
 70
     1
  0
VERTEX
  5
6208
100
AcDbEntity
  8
STUD
100
AcDbVertex
100
AcDb2dVertex
 10
83.954783
 20
54.004492
 30
0.0
 42
0.267949
  0
VERTEX
  5
6209
100
AcDbEntity
  8
STUD
100
AcDbVertex
100
AcDb2dVertex
 10
83.829783
 20
54.220999
 30
0.0
  0
VERTEX
  5
620A
100
AcDbEntity
  8
STUD
100
AcDbVertex
100
AcDb2dVertex
 10
83.030744
 20
54.682324
 30
0.0
 42
0.57735
  0
VERTEX
  5
620B
100
AcDbEntity
  8
STUD
100
AcDbVertex
100
AcDb2dVertex
 10
82.655744
 20
54.465817
 30
0.0
  0
VERTEX
  5
620C
100
AcDbEntity
  8
STUD
100
AcDbVertex
100
AcDb2dVertex
 10
82.655744
 20
51.793167
 30
0.0
 42
0.267949
  0
VERTEX
  5
620D
100
AcDbEntity
  8
STUD
100
AcDbVertex
100
AcDb2dVertex
 10
82.780744
 20
51.576661
 30
0.0
  0
VERTEX
  5
620E
100
AcDbEntity
  8
STUD
100
AcDbVertex
100
AcDb2dVertex
 10
83.579783
 20
51.115336
 30
0.0
 42
0.57735
  0
VERTEX
  5
620F
100
AcDbEntity
  8
STUD
100
AcDbVertex
100
AcDb2dVertex
 10
83.954783
 20
51.331843
 30
0.0
  0
SEQEND
  5
6210
100
AcDbEntity
  8
STUD
  0
LINE
  5
6237
100
AcDbEntity
  8
STUD
100
AcDbLine
 10
95.508364
 20
104.493498
 30
0.0
 11
95.508364
 21
80.847112
 31
0.0
  0
LINE
  5
6238
100
AcDbEntity
  8
STUD
100
AcDbLine
 10
98.522706
 20
106.233829
 30
0.0
 11
98.522706
 21
82.587444
 31
0.0
  0
LINE
  5
6239
100
AcDbEntity
  8
STUD
100
AcDbLine
 10
98.585206
 20
106.269914
 30
0.0
 11
98.585206
 21
82.623528
 31
0.0
  0
LINE
  5
623A
100
AcDbEntity
  8
STUD
100
AcDbLine
 10
99.867498
 20
107.010245
 30
0.0
 11
99.867498
 21
86.978179
 31
0.0
  0
POLYLINE
  5
6258
100
AcDbEntity
  8
STUD
100
AcDb2dPolyline
 66
     1
 10
0.0
 20
0.0
 30
0.0
 70
     1
  0
VERTEX
  5
6259
100
AcDbEntity
  8
STUD
100
AcDbVertex
100
AcDb2dVertex
 10
97.790054
 20
98.074891
 30
0.0
 42
0.267949
  0
VERTEX
  5
625A
100
AcDbEntity
  8
STUD
100
AcDbVertex
100
AcDb2dVertex
 10
97.665054
 20
98.291397
 30
0.0
  0
VERTEX
  5
625B
100
AcDbEntity
  8
STUD
100
AcDbVertex
100
AcDb2dVertex
 10
96.866016
 20
98.752722
 30
0.0
 42
0.57735
  0
VERTEX
  5
625C
100
AcDbEntity
  8
STUD
100
AcDbVertex
100
AcDb2dVertex
 10
96.491016
 20
98.536216
 30
0.0
  0
VERTEX
  5
625D
100
AcDbEntity
  8
STUD
100
AcDbVertex
100
AcDb2dVertex
 10
96.491016
 20
95.863566
 30
0.0
 42
0.267949
  0
VERTEX
  5
625E
100
AcDbEntity
  8
STUD
100
AcDbVertex
100
AcDb2dVertex
 10
96.616016
 20
95.64706
 30
0.0
  0
VERTEX
  5
625F
100
AcDbEntity
  8
STUD
100
AcDbVertex
100
AcDb2dVertex
 10
97.415054
 20
95.185735
 30
0.0
 42
0.57735
  0
VERTEX
  5
6260
100
AcDbEntity
  8
STUD
100
AcDbVertex
100
AcDb2dVertex
 10
97.790054
 20
95.402241
 30
0.0
  0
SEQEND
  5
6261
100
AcDbEntity
  8
STUD
  0
POLYLINE
  5
6262
100
AcDbEntity
  8
STUD
100
AcDb2dPolyline
 66
     1
 10
0.0
 20
0.0
 30
0.0
 70
     1
  0
VERTEX
  5
6263
100
AcDbEntity
  8
STUD
100
AcDbVertex
100
AcDb2dVertex
 10
97.790054
 20
74.074891
 30
0.0
 42
0.267949
  0
VERTEX
  5
6264
100
AcDbEntity
  8
STUD
100
AcDbVertex
100
AcDb2dVertex
 10
97.665054
 20
74.291397
 30
0.0
  0
VERTEX
  5
6265
100
AcDbEntity
  8
STUD
100
AcDbVertex
100
AcDb2dVertex
 10
96.866016
 20
74.752722
 30
0.0
 42
0.57735
  0
VERTEX
  5
6266
100
AcDbEntity
  8
STUD
100
AcDbVertex
100
AcDb2dVertex
 10
96.491016
 20
74.536216
 30
0.0
  0
VERTEX
  5
6267
100
AcDbEntity
  8
STUD
100
AcDbVertex
100
AcDb2dVertex
 10
96.491016
 20
71.863566
 30
0.0
 42
0.267949
  0
VERTEX
  5
6268
100
AcDbEntity
  8
STUD
100
AcDbVertex
100
AcDb2dVertex
 10
96.616016
 20
71.64706
 30
0.0
  0
VERTEX
  5
6269
100
AcDbEntity
  8
STUD
100
AcDbVertex
100
AcDb2dVertex
 10
97.415054
 20
71.185735
 30
0.0
 42
0.57735
  0
VERTEX
  5
626A
100
AcDbEntity
  8
STUD
100
AcDbVertex
100
AcDb2dVertex
 10
97.790054
 20
71.402241
 30
0.0
  0
SEQEND
  5
626B
100
AcDbEntity
  8
STUD
  0
POLYLINE
  5
626C
100
AcDbEntity
  8
STUD
100
AcDb2dPolyline
 66
     1
 10
0.0
 20
0.0
 30
0.0
 70
     1
  0
VERTEX
  5
626D
100
AcDbEntity
  8
STUD
100
AcDbVertex
100
AcDb2dVertex
 10
97.790054
 20
62.041211
 30
0.0
 42
0.267949
  0
VERTEX
  5
626E
100
AcDbEntity
  8
STUD
100
AcDbVertex
100
AcDb2dVertex
 10
97.665054
 20
62.257717
 30
0.0
  0
VERTEX
  5
626F
100
AcDbEntity
  8
STUD
100
AcDbVertex
100
AcDb2dVertex
 10
96.866016
 20
62.719042
 30
0.0
 42
0.57735
  0
VERTEX
  5
6270
100
AcDbEntity
  8
STUD
100
AcDbVertex
100
AcDb2dVertex
 10
96.491016
 20
62.502536
 30
0.0
  0
VERTEX
  5
6271
100
AcDbEntity
  8
STUD
100
AcDbVertex
100
AcDb2dVertex
 10
96.491016
 20
59.829886
 30
0.0
 42
0.267949
  0
VERTEX
  5
6272
100
AcDbEntity
  8
STUD
100
AcDbVertex
100
AcDb2dVertex
 10
96.616016
 20
59.61338
 30
0.0
  0
VERTEX
  5
6273
100
AcDbEntity
  8
STUD
100
AcDbVertex
100
AcDb2dVertex
 10
97.415054
 20
59.152055
 30
0.0
 42
0.57735
  0
VERTEX
  5
6274
100
AcDbEntity
  8
STUD
100
AcDbVertex
100
AcDb2dVertex
 10
97.790054
 20
59.368561
 30
0.0
  0
SEQEND
  5
6275
100
AcDbEntity
  8
STUD
  0
LINE
  5
629C
100
AcDbEntity
  8
STUD
100
AcDbLine
 10
109.364771
 20
112.493498
 30
0.0
 11
109.364771
 21
96.07768
 31
0.0
  0
LINE
  5
629D
100
AcDbEntity
  8
STUD
100
AcDbLine
 10
112.379113
 20
114.233829
 30
0.0
 11
112.379113
 21
94.277518
 31
0.0
  0
LINE
  5
629E
100
AcDbEntity
  8
STUD
100
AcDbLine
 10
112.441613
 20
114.269914
 30
0.0
 11
112.441613
 21
94.241434
 31
0.0
  0
LINE
  5
629F
100
AcDbEntity
  8
STUD
100
AcDbLine
 10
113.723904
 20
115.010245
 30
0.0
 11
113.723904
 21
94.849377
 31
0.0
  0
POLYLINE
  5
62BD
100
AcDbEntity
  8
STUD
100
AcDb2dPolyline
 66
     1
 10
0.0
 20
0.0
 30
0.0
 70
     1
  0
VERTEX
  5
62BE
100
AcDbEntity
  8
STUD
100
AcDbVertex
100
AcDb2dVertex
 10
111.646461
 20
106.074891
 30
0.0
 42
0.267949
  0
VERTEX
  5
62BF
100
AcDbEntity
  8
STUD
100
AcDbVertex
100
AcDb2dVertex
 10
111.521461
 20
106.291397
 30
0.0
  0
VERTEX
  5
62C0
100
AcDbEntity
  8
STUD
100
AcDbVertex
100
AcDb2dVertex
 10
110.722423
 20
106.752722
 30
0.0
 42
0.57735
  0
VERTEX
  5
62C1
100
AcDbEntity
  8
STUD
100
AcDbVertex
100
AcDb2dVertex
 10
110.347423
 20
106.536216
 30
0.0
  0
VERTEX
  5
62C2
100
AcDbEntity
  8
STUD
100
AcDbVertex
100
AcDb2dVertex
 10
110.347423
 20
103.863566
 30
0.0
 42
0.267949
  0
VERTEX
  5
62C3
100
AcDbEntity
  8
STUD
100
AcDbVertex
100
AcDb2dVertex
 10
110.472423
 20
103.64706
 30
0.0
  0
VERTEX
  5
62C4
100
AcDbEntity
  8
STUD
100
AcDbVertex
100
AcDb2dVertex
 10
111.271461
 20
103.185735
 30
0.0
 42
0.57735
  0
VERTEX
  5
62C5
100
AcDbEntity
  8
STUD
100
AcDbVertex
100
AcDb2dVertex
 10
111.646461
 20
103.402241
 30
0.0
  0
SEQEND
  5
62C6
100
AcDbEntity
  8
STUD
  0
POLYLINE
  5
62C7
100
AcDbEntity
  8
STUD
100
AcDb2dPolyline
 66
     1
 10
0.0
 20
0.0
 30
0.0
 70
     1
  0
VERTEX
  5
62C8
100
AcDbEntity
  8
STUD
100
AcDbVertex
100
AcDb2dVertex
 10
111.646461
 20
82.074891
 30
0.0
 42
0.267949
  0
VERTEX
  5
62C9
100
AcDbEntity
  8
STUD
100
AcDbVertex
100
AcDb2dVertex
 10
111.521461
 20
82.291397
 30
0.0
  0
VERTEX
  5
62CA
100
AcDbEntity
  8
STUD
100
AcDbVertex
100
AcDb2dVertex
 10
110.722423
 20
82.752722
 30
0.0
 42
0.57735
  0
VERTEX
  5
62CB
100
AcDbEntity
  8
STUD
100
AcDbVertex
100
AcDb2dVertex
 10
110.347423
 20
82.536216
 30
0.0
  0
VERTEX
  5
62CC
100
AcDbEntity
  8
STUD
100
AcDbVertex
100
AcDb2dVertex
 10
110.347423
 20
79.863566
 30
0.0
 42
0.267949
  0
VERTEX
  5
62CD
100
AcDbEntity
  8
STUD
100
AcDbVertex
100
AcDb2dVertex
 10
110.472423
 20
79.64706
 30
0.0
  0
VERTEX
  5
62CE
100
AcDbEntity
  8
STUD
100
AcDbVertex
100
AcDb2dVertex
 10
111.271461
 20
79.185735
 30
0.0
 42
0.57735
  0
VERTEX
  5
62CF
100
AcDbEntity
  8
STUD
100
AcDbVertex
100
AcDb2dVertex
 10
111.646461
 20
79.402241
 30
0.0
  0
SEQEND
  5
62D0
100
AcDbEntity
  8
STUD
  0
POLYLINE
  5
62D1
100
AcDbEntity
  8
STUD
100
AcDb2dPolyline
 66
     1
 10
0.0
 20
0.0
 30
0.0
 70
     1
  0
VERTEX
  5
62D2
100
AcDbEntity
  8
STUD
100
AcDbVertex
100
AcDb2dVertex
 10
111.646461
 20
70.041211
 30
0.0
 42
0.267949
  0
VERTEX
  5
62D3
100
AcDbEntity
  8
STUD
100
AcDbVertex
100
AcDb2dVertex
 10
111.521461
 20
70.257717
 30
0.0
  0
VERTEX
  5
62D4
100
AcDbEntity
  8
STUD
100
AcDbVertex
100
AcDb2dVertex
 10
110.722423
 20
70.719042
 30
0.0
 42
0.57735
  0
VERTEX
  5
62D5
100
AcDbEntity
  8
STUD
100
AcDbVertex
100
AcDb2dVertex
 10
110.347423
 20
70.502536
 30
0.0
  0
VERTEX
  5
62D6
100
AcDbEntity
  8
STUD
100
AcDbVertex
100
AcDb2dVertex
 10
110.347423
 20
67.829886
 30
0.0
 42
0.267949
  0
VERTEX
  5
62D7
100
AcDbEntity
  8
STUD
100
AcDbVertex
100
AcDb2dVertex
 10
110.472423
 20
67.61338
 30
0.0
  0
VERTEX
  5
62D8
100
AcDbEntity
  8
STUD
100
AcDbVertex
100
AcDb2dVertex
 10
111.271461
 20
67.152055
 30
0.0
 42
0.57735
  0
VERTEX
  5
62D9
100
AcDbEntity
  8
STUD
100
AcDbVertex
100
AcDb2dVertex
 10
111.646461
 20
67.368561
 30
0.0
  0
SEQEND
  5
62DA
100
AcDbEntity
  8
STUD
  0
LINE
  5
6363
100
AcDbEntity
  8
STUD
100
AcDbLine
 10
124.987258
 20
114.516916
 30
0.0
 11
124.987258
 21
111.266916
 31
0.0
  0
LINE
  5
6364
100
AcDbEntity
  8
STUD
100
AcDbLine
 10
125.021858
 20
114.496939
 30
0.0
 11
125.021858
 21
111.246939
 31
0.0
  0
LINE
  5
6365
100
AcDbEntity
  8
STUD
100
AcDbLine
 10
124.548668
 20
114.767528
 30
0.0
 11
124.548668
 21
111.520135
 31
0.0
  0
LINE
  5
6366
100
AcDbEntity
  8
STUD
100
AcDbLine
 10
123.221177
 20
120.493498
 30
0.0
 11
123.221177
 21
96.847112
 31
0.0
  0
LINE
  5
6367
100
AcDbEntity
  8
STUD
100
AcDbLine
 10
126.235519
 20
122.233829
 30
0.0
 11
126.235519
 21
98.587444
 31
0.0
  0
LINE
  5
6368
100
AcDbEntity
  8
STUD
100
AcDbLine
 10
126.298019
 20
122.269914
 30
0.0
 11
126.298019
 21
98.623528
 31
0.0
  0
LINE
  5
6369
100
AcDbEntity
  8
STUD
100
AcDbLine
 10
127.58031
 20
123.010245
 30
0.0
 11
127.58031
 21
85.2314
 31
0.0
  0
POLYLINE
  5
6387
100
AcDbEntity
  8
STUD
100
AcDb2dPolyline
 66
     1
 10
0.0
 20
0.0
 30
0.0
 70
     1
  0
VERTEX
  5
6388
100
AcDbEntity
  8
STUD
100
AcDbVertex
100
AcDb2dVertex
 10
125.502867
 20
114.074891
 30
0.0
 42
0.267949
  0
VERTEX
  5
6389
100
AcDbEntity
  8
STUD
100
AcDbVertex
100
AcDb2dVertex
 10
125.377867
 20
114.291397
 30
0.0
  0
VERTEX
  5
638A
100
AcDbEntity
  8
STUD
100
AcDbVertex
100
AcDb2dVertex
 10
124.578829
 20
114.752722
 30
0.0
 42
0.57735
  0
VERTEX
  5
638B
100
AcDbEntity
  8
STUD
100
AcDbVertex
100
AcDb2dVertex
 10
124.203829
 20
114.536216
 30
0.0
  0
VERTEX
  5
638C
100
AcDbEntity
  8
STUD
100
AcDbVertex
100
AcDb2dVertex
 10
124.203829
 20
111.863566
 30
0.0
 42
0.267949
  0
VERTEX
  5
638D
100
AcDbEntity
  8
STUD
100
AcDbVertex
100
AcDb2dVertex
 10
124.328829
 20
111.64706
 30
0.0
  0
VERTEX
  5
638E
100
AcDbEntity
  8
STUD
100
AcDbVertex
100
AcDb2dVertex
 10
125.127867
 20
111.185735
 30
0.0
 42
0.57735
  0
VERTEX
  5
638F
100
AcDbEntity
  8
STUD
100
AcDbVertex
100
AcDb2dVertex
 10
125.502867
 20
111.402241
 30
0.0
  0
SEQEND
  5
6390
100
AcDbEntity
  8
STUD
  0
POLYLINE
  5
6391
100
AcDbEntity
  8
STUD
100
AcDb2dPolyline
 66
     1
 10
0.0
 20
0.0
 30
0.0
 70
     1
  0
VERTEX
  5
6392
100
AcDbEntity
  8
STUD
100
AcDbVertex
100
AcDb2dVertex
 10
125.502867
 20
90.074891
 30
0.0
 42
0.267949
  0
VERTEX
  5
6393
100
AcDbEntity
  8
STUD
100
AcDbVertex
100
AcDb2dVertex
 10
125.377867
 20
90.291397
 30
0.0
  0
VERTEX
  5
6394
100
AcDbEntity
  8
STUD
100
AcDbVertex
100
AcDb2dVertex
 10
124.578829
 20
90.752722
 30
0.0
 42
0.57735
  0
VERTEX
  5
6395
100
AcDbEntity
  8
STUD
100
AcDbVertex
100
AcDb2dVertex
 10
124.203829
 20
90.536216
 30
0.0
  0
VERTEX
  5
6396
100
AcDbEntity
  8
STUD
100
AcDbVertex
100
AcDb2dVertex
 10
124.203829
 20
87.863566
 30
0.0
 42
0.267949
  0
VERTEX
  5
6397
100
AcDbEntity
  8
STUD
100
AcDbVertex
100
AcDb2dVertex
 10
124.328829
 20
87.64706
 30
0.0
  0
VERTEX
  5
6398
100
AcDbEntity
  8
STUD
100
AcDbVertex
100
AcDb2dVertex
 10
125.127867
 20
87.185735
 30
0.0
 42
0.57735
  0
VERTEX
  5
6399
100
AcDbEntity
  8
STUD
100
AcDbVertex
100
AcDb2dVertex
 10
125.502867
 20
87.402241
 30
0.0
  0
SEQEND
  5
639A
100
AcDbEntity
  8
STUD
  0
POLYLINE
  5
639B
100
AcDbEntity
  8
STUD
100
AcDb2dPolyline
 66
     1
 10
0.0
 20
0.0
 30
0.0
 70
     1
  0
VERTEX
  5
639C
100
AcDbEntity
  8
STUD
100
AcDbVertex
100
AcDb2dVertex
 10
125.502867
 20
78.041211
 30
0.0
 42
0.267949
  0
VERTEX
  5
639D
100
AcDbEntity
  8
STUD
100
AcDbVertex
100
AcDb2dVertex
 10
125.377867
 20
78.257717
 30
0.0
  0
VERTEX
  5
639E
100
AcDbEntity
  8
STUD
100
AcDbVertex
100
AcDb2dVertex
 10
124.578829
 20
78.719042
 30
0.0
 42
0.57735
  0
VERTEX
  5
639F
100
AcDbEntity
  8
STUD
100
AcDbVertex
100
AcDb2dVertex
 10
124.203829
 20
78.502536
 30
0.0
  0
VERTEX
  5
63A0
100
AcDbEntity
  8
STUD
100
AcDbVertex
100
AcDb2dVertex
 10
124.203829
 20
75.829886
 30
0.0
 42
0.267949
  0
VERTEX
  5
63A1
100
AcDbEntity
  8
STUD
100
AcDbVertex
100
AcDb2dVertex
 10
124.328829
 20
75.61338
 30
0.0
  0
VERTEX
  5
63A2
100
AcDbEntity
  8
STUD
100
AcDbVertex
100
AcDb2dVertex
 10
125.127867
 20
75.152055
 30
0.0
 42
0.57735
  0
VERTEX
  5
63A3
100
AcDbEntity
  8
STUD
100
AcDbVertex
100
AcDb2dVertex
 10
125.502867
 20
75.368561
 30
0.0
  0
SEQEND
  5
63A4
100
AcDbEntity
  8
STUD
  0
LINE
  5
65B1
100
AcDbEntity
  8
FASTENER
100
AcDbLine
 10
85.459619
 20
41.257215
 30
0.0
 11
85.462078
 21
41.007227
 31
0.0
  0
LINE
  5
65B2
100
AcDbEntity
  8
FASTENER
100
AcDbLine
 10
85.352595
 20
41.069721
 30
0.0
 11
85.569102
 21
41.194721
 31
0.0
  0
ELLIPSE
  5
65B3
100
AcDbEntity
  8
FASTENER
100
AcDbEllipse
 10
85.460849
 20
41.132221
 30
0.0
 11
0.0765465544619698
 21
0.1325825214724749
 31
0.0
210
0.0
220
0.0
230
-1.0
 40
0.57735
 41
0.0000000000000219
 42
6.283185307179622
  0
LINE
  5
65B4
100
AcDbEntity
  8
FASTENER
100
AcDbLine
 10
99.294891
 20
49.293933
 30
0.0
 11
99.29735
 21
49.043945
 31
0.0
  0
LINE
  5
65B5
100
AcDbEntity
  8
FASTENER
100
AcDbLine
 10
99.187867
 20
49.106439
 30
0.0
 11
99.404374
 21
49.231439
 31
0.0
  0
ELLIPSE
  5
65B6
100
AcDbEntity
  8
FASTENER
100
AcDbEllipse
 10
99.29612
 20
49.168939
 30
0.0
 11
0.0765465544619698
 21
0.1325825214724749
 31
0.0
210
0.0
220
0.0
230
-1.0
 40
0.57735
 41
-0.0000000000001576
 42
6.283185307179443
  0
LINE
  5
65B7
100
AcDbEntity
  8
FASTENER
100
AcDbLine
 10
113.151297
 20
57.293933
 30
0.0
 11
113.153757
 21
57.043945
 31
0.0
  0
LINE
  5
65B8
100
AcDbEntity
  8
FASTENER
100
AcDbLine
 10
113.044274
 20
57.106439
 30
0.0
 11
113.26078
 21
57.231439
 31
0.0
  0
ELLIPSE
  5
65B9
100
AcDbEntity
  8
FASTENER
100
AcDbEllipse
 10
113.152527
 20
57.168939
 30
0.0
 11
0.0765465544619698
 21
0.1325825214724749
 31
0.0
210
0.0
220
0.0
230
-1.0
 40
0.57735
 41
-0.0000000000001576
 42
6.283185307179443
  0
LINE
  5
65BA
100
AcDbEntity
  8
FASTENER
100
AcDbLine
 10
126.923115
 20
65.245096
 30
0.0
 11
126.925575
 21
64.995108
 31
0.0
  0
LINE
  5
65BB
100
AcDbEntity
  8
FASTENER
100
AcDbLine
 10
126.816092
 20
65.057602
 30
0.0
 11
127.032598
 21
65.182602
 31
0.0
  0
ELLIPSE
  5
65BC
100
AcDbEntity
  8
FASTENER
100
AcDbEllipse
 10
126.924345
 20
65.120102
 30
0.0
 11
0.0765465544619698
 21
0.1325825214724749
 31
0.0
210
0.0
220
0.0
230
-1.0
 40
0.57735
 41
-0.0000000000001173
 42
6.283185307179483
  0
LINE
  5
65BD
100
AcDbEntity
  8
FASTENER
100
AcDbLine
 10
85.225715
 20
99.228275
 30
0.0
 11
85.228175
 21
98.978287
 31
0.0
  0
LINE
  5
65BE
100
AcDbEntity
  8
FASTENER
100
AcDbLine
 10
85.118692
 20
99.040781
 30
0.0
 11
85.335198
 21
99.165781
 31
0.0
  0
ELLIPSE
  5
65BF
100
AcDbEntity
  8
FASTENER
100
AcDbEllipse
 10
85.226945
 20
99.103281
 30
0.0
 11
0.0765465544619698
 21
0.1325825214724749
 31
0.0
210
0.0
220
0.0
230
-1.0
 40
0.57735
 41
0.0000000000000219
 42
6.283185307179622
  0
LINE
  5
65C0
100
AcDbEntity
  8
FASTENER
100
AcDbLine
 10
112.917393
 20
115.216072
 30
0.0
 11
112.919853
 21
114.966084
 31
0.0
  0
LINE
  5
65C1
100
AcDbEntity
  8
FASTENER
100
AcDbLine
 10
112.81037
 20
115.028578
 30
0.0
 11
113.026876
 21
115.153578
 31
0.0
  0
ELLIPSE
  5
65C2
100
AcDbEntity
  8
FASTENER
100
AcDbEllipse
 10
112.918623
 20
115.091078
 30
0.0
 11
0.0765465544619698
 21
0.1325825214724749
 31
0.0
210
0.0
220
0.0
230
-1.0
 40
0.57735
 41
-0.0000000000001173
 42
6.283185307179483
  0
LINE
  5
65C3
100
AcDbEntity
  8
FASTENER
100
AcDbLine
 10
126.7738
 20
123.216072
 30
0.0
 11
126.776259
 21
122.966084
 31
0.0
  0
LINE
  5
65C4
100
AcDbEntity
  8
FASTENER
100
AcDbLine
 10
126.666776
 20
123.028578
 30
0.0
 11
126.883283
 21
123.153578
 31
0.0
  0
ELLIPSE
  5
65C5
100
AcDbEntity
  8
FASTENER
100
AcDbEllipse
 10
126.775029
 20
123.091078
 30
0.0
 11
0.0765465544619698
 21
0.1325825214724749
 31
0.0
210
0.0
220
0.0
230
-1.0
 40
0.57735
 41
-0.0000000000001173
 42
6.283185307179483
  0
LINE
  5
66DC
100
AcDbEntity
  8
STUD
100
AcDbLine
 10
81.673092
 20
60.923994
 30
0.0
 11
81.673092
 21
41.949417
 31
0.0
  0
LINE
  5
66DD
100
AcDbEntity
  8
STUD
100
AcDbLine
 10
84.687435
 20
59.570757
 30
0.0
 11
84.687435
 21
41.457588
 31
0.0
  0
LINE
  5
66DE
100
AcDbEntity
  8
STUD
100
AcDbLine
 10
84.749935
 20
59.578341
 30
0.0
 11
84.749935
 21
41.493452
 31
0.0
  0
LINE
  5
66DF
100
AcDbEntity
  8
STUD
100
AcDbLine
 10
86.032226
 20
60.318672
 30
0.0
 11
86.032226
 21
42.229263
 31
0.0
  0
LINE
  5
6744
100
AcDbEntity
  8
STUD
100
AcDbLine
 10
98.585206
 20
67.490102
 30
0.0
 11
98.585206
 21
49.432478
 31
0.0
  0
LINE
  5
6745
100
AcDbEntity
  8
STUD
100
AcDbLine
 10
98.522706
 20
67.455952
 30
0.0
 11
98.522706
 21
49.396614
 31
0.0
  0
LINE
  5
6746
100
AcDbEntity
  8
STUD
100
AcDbLine
 10
95.508364
 20
67.291157
 30
0.0
 11
95.508364
 21
49.986136
 31
0.0
  0
LINE
  5
6747
100
AcDbEntity
  8
STUD
100
AcDbLine
 10
99.867498
 20
68.2314
 30
0.0
 11
99.867498
 21
50.168289
 31
0.0
  0
LINE
  5
685D
100
AcDbEntity
  8
STUD
100
AcDbLine
 10
109.364771
 20
76.911792
 30
0.0
 11
109.364771
 21
57.986136
 31
0.0
  0
LINE
  5
6862
100
AcDbEntity
  8
STUD
100
AcDbLine
 10
113.723904
 20
76.30647
 30
0.0
 11
113.723904
 21
58.119443
 31
0.0
  0
LINE
  5
6884
100
AcDbEntity
  8
STUD
100
AcDbLine
 10
123.221177
 20
85.195316
 30
0.0
 11
123.221177
 21
65.986136
 31
0.0
  0
LINE
  5
6885
100
AcDbEntity
  8
STUD
100
AcDbLine
 10
126.298019
 20
83.491069
 30
0.0
 11
126.298019
 21
65.334786
 31
0.0
  0
LINE
  5
6886
100
AcDbEntity
  8
STUD
100
AcDbLine
 10
126.235519
 20
83.454985
 30
0.0
 11
126.235519
 21
65.298922
 31
0.0
  0
LINE
  5
6887
100
AcDbEntity
  8
STUD
100
AcDbLine
 10
125.021858
 20
78.463259
 30
0.0
 11
125.021858
 21
75.213259
 31
0.0
  0
LINE
  5
6888
100
AcDbEntity
  8
STUD
100
AcDbLine
 10
124.987258
 20
78.483236
 30
0.0
 11
124.987258
 21
75.233236
 31
0.0
  0
LINE
  5
6889
100
AcDbEntity
  8
STUD
100
AcDbLine
 10
124.548668
 20
78.733848
 30
0.0
 11
124.548668
 21
75.486455
 31
0.0
  0
LINE
  5
6893
100
AcDbEntity
  8
STUD
100
AcDbLine
 10
110.692262
 20
70.733848
 30
0.0
 11
110.692262
 21
67.486455
 31
0.0
  0
LINE
  5
6894
100
AcDbEntity
  8
STUD
100
AcDbLine
 10
111.130851
 20
70.483236
 30
0.0
 11
111.130851
 21
67.233236
 31
0.0
  0
LINE
  5
6895
100
AcDbEntity
  8
STUD
100
AcDbLine
 10
111.165451
 20
70.463259
 30
0.0
 11
111.165451
 21
67.213259
 31
0.0
  0
LINE
  5
6896
100
AcDbEntity
  8
STUD
100
AcDbLine
 10
96.835855
 20
62.733848
 30
0.0
 11
96.835855
 21
59.486455
 31
0.0
  0
LINE
  5
6897
100
AcDbEntity
  8
STUD
100
AcDbLine
 10
97.274445
 20
62.483236
 30
0.0
 11
97.274445
 21
59.233236
 31
0.0
  0
LINE
  5
6898
100
AcDbEntity
  8
STUD
100
AcDbLine
 10
97.309045
 20
62.463259
 30
0.0
 11
97.309045
 21
59.213259
 31
0.0
  0
LINE
  5
6899
100
AcDbEntity
  8
STUD
100
AcDbLine
 10
83.000584
 20
54.69713
 30
0.0
 11
83.000584
 21
51.449737
 31
0.0
  0
LINE
  5
689A
100
AcDbEntity
  8
STUD
100
AcDbLine
 10
83.439173
 20
54.446517
 30
0.0
 11
83.439173
 21
51.196517
 31
0.0
  0
LINE
  5
689B
100
AcDbEntity
  8
STUD
100
AcDbLine
 10
83.473773
 20
54.426541
 30
0.0
 11
83.473773
 21
51.176541
 31
0.0
  0
LINE
  5
689C
100
AcDbEntity
  8
STUD
100
AcDbLine
 10
83.000584
 20
66.73081
 30
0.0
 11
83.000584
 21
63.483417
 31
0.0
  0
LINE
  5
689D
100
AcDbEntity
  8
STUD
100
AcDbLine
 10
83.439173
 20
66.480197
 30
0.0
 11
83.439173
 21
63.230197
 31
0.0
  0
LINE
  5
689E
100
AcDbEntity
  8
STUD
100
AcDbLine
 10
83.473773
 20
66.460221
 30
0.0
 11
83.473773
 21
63.210221
 31
0.0
  0
LINE
  5
689F
100
AcDbEntity
  8
STUD
100
AcDbLine
 10
96.835855
 20
74.767528
 30
0.0
 11
96.835855
 21
71.520135
 31
0.0
  0
LINE
  5
68A0
100
AcDbEntity
  8
STUD
100
AcDbLine
 10
97.274445
 20
74.516916
 30
0.0
 11
97.274445
 21
71.266916
 31
0.0
  0
LINE
  5
68A1
100
AcDbEntity
  8
STUD
100
AcDbLine
 10
97.309045
 20
74.496939
 30
0.0
 11
97.309045
 21
71.246939
 31
0.0
  0
LINE
  5
68A2
100
AcDbEntity
  8
STUD
100
AcDbLine
 10
110.692262
 20
82.767528
 30
0.0
 11
110.692262
 21
79.728943
 31
0.0
  0
LINE
  5
68A3
100
AcDbEntity
  8
STUD
100
AcDbLine
 10
111.130851
 20
82.516916
 30
0.0
 11
111.130851
 21
79.475724
 31
0.0
  0
LINE
  5
68A4
100
AcDbEntity
  8
STUD
100
AcDbLine
 10
111.165451
 20
82.496939
 30
0.0
 11
111.165451
 21
79.455747
 31
0.0
  0
LINE
  5
68A5
100
AcDbEntity
  8
STUD
100
AcDbLine
 10
83.000584
 20
90.73081
 30
0.0
 11
83.000584
 21
87.483417
 31
0.0
  0
LINE
  5
68A6
100
AcDbEntity
  8
STUD
100
AcDbLine
 10
83.439173
 20
90.480197
 30
0.0
 11
83.439173
 21
87.230197
 31
0.0
  0
LINE
  5
68A7
100
AcDbEntity
  8
STUD
100
AcDbLine
 10
83.473773
 20
90.460221
 30
0.0
 11
83.473773
 21
87.210221
 31
0.0
  0
LINE
  5
68A8
100
AcDbEntity
  8
STUD
100
AcDbLine
 10
96.835855
 20
98.767528
 30
0.0
 11
96.835855
 21
95.520135
 31
0.0
  0
LINE
  5
68A9
100
AcDbEntity
  8
STUD
100
AcDbLine
 10
97.274445
 20
98.516916
 30
0.0
 11
97.274445
 21
95.266916
 31
0.0
  0
LINE
  5
68AA
100
AcDbEntity
  8
STUD
100
AcDbLine
 10
97.309045
 20
98.496939
 30
0.0
 11
97.309045
 21
95.246939
 31
0.0
  0
LINE
  5
68AB
100
AcDbEntity
  8
STUD
100
AcDbLine
 10
110.692262
 20
106.767528
 30
0.0
 11
110.692262
 21
103.520135
 31
0.0
  0
LINE
  5
68AC
100
AcDbEntity
  8
STUD
100
AcDbLine
 10
111.130851
 20
106.516916
 30
0.0
 11
111.130851
 21
103.266916
 31
0.0
  0
LINE
  5
68AD
100
AcDbEntity
  8
STUD
100
AcDbLine
 10
111.165451
 20
106.496939
 30
0.0
 11
111.165451
 21
103.246939
 31
0.0
  0
LINE
  5
68AF
100
AcDbEntity
  8
STUD
100
AcDbLine
 10
70.809893
 20
51.454985
 30
0.0
 11
70.809893
 21
32.245805
 31
0.0
  0
LINE
  5
68B0
100
AcDbEntity
  8
STUD
100
AcDbLine
 10
70.872393
 20
51.490102
 30
0.0
 11
70.872393
 21
32.245805
 31
0.0
  0
LINE
  5
68B1
100
AcDbEntity
  8
STUD
100
AcDbLine
 10
69.561632
 20
58.516916
 30
0.0
 11
69.561632
 21
55.266916
 31
0.0
  0
LINE
  5
68B2
100
AcDbEntity
  8
STUD
100
AcDbLine
 10
69.596232
 20
58.496939
 30
0.0
 11
69.596232
 21
55.246939
 31
0.0
  0
LINE
  5
68B3
100
AcDbEntity
  8
STUD
100
AcDbLine
 10
69.123043
 20
58.767528
 30
0.0
 11
69.123043
 21
55.520135
 31
0.0
  0
LINE
  5
68B4
100
AcDbEntity
  8
STUD
100
AcDbLine
 10
69.123043
 20
46.733848
 30
0.0
 11
69.123043
 21
43.486455
 31
0.0
  0
LINE
  5
68B5
100
AcDbEntity
  8
STUD
100
AcDbLine
 10
69.596232
 20
46.463259
 30
0.0
 11
69.596232
 21
43.213259
 31
0.0
  0
LINE
  5
68B6
100
AcDbEntity
  8
STUD
100
AcDbLine
 10
69.561632
 20
46.483236
 30
0.0
 11
69.561632
 21
43.233236
 31
0.0
  0
LINE
  5
690E
100
AcDbEntity
  8
STUD
100
AcDbLine
 10
124.548668
 20
90.767528
 30
0.0
 11
124.548668
 21
87.520135
 31
0.0
  0
LINE
  5
690F
100
AcDbEntity
  8
STUD
100
AcDbLine
 10
124.987258
 20
90.516916
 30
0.0
 11
124.987258
 21
87.266916
 31
0.0
  0
LINE
  5
6910
100
AcDbEntity
  8
STUD
100
AcDbLine
 10
125.021858
 20
90.496939
 30
0.0
 11
125.021858
 21
87.246939
 31
0.0
  0
POLYLINE
  5
6977
100
AcDbEntity
  8
STUD
100
AcDb2dPolyline
 66
     1
 10
0.0
 20
0.0
 30
0.0
 70
     1
  0
VERTEX
  5
6978
100
AcDbEntity
  8
STUD
100
AcDbVertex
100
AcDb2dVertex
 10
125.502867
 20
90.074891
 30
0.0
 42
0.267949
  0
VERTEX
  5
6979
100
AcDbEntity
  8
STUD
100
AcDbVertex
100
AcDb2dVertex
 10
125.377867
 20
90.291397
 30
0.0
  0
VERTEX
  5
697A
100
AcDbEntity
  8
STUD
100
AcDbVertex
100
AcDb2dVertex
 10
124.578829
 20
90.752722
 30
0.0
 42
0.57735
  0
VERTEX
  5
697B
100
AcDbEntity
  8
STUD
100
AcDbVertex
100
AcDb2dVertex
 10
124.203829
 20
90.536216
 30
0.0
  0
VERTEX
  5
697C
100
AcDbEntity
  8
STUD
100
AcDbVertex
100
AcDb2dVertex
 10
124.203829
 20
87.863566
 30
0.0
 42
0.267949
  0
VERTEX
  5
697D
100
AcDbEntity
  8
STUD
100
AcDbVertex
100
AcDb2dVertex
 10
124.328829
 20
87.64706
 30
0.0
  0
VERTEX
  5
697E
100
AcDbEntity
  8
STUD
100
AcDbVertex
100
AcDb2dVertex
 10
125.127867
 20
87.185735
 30
0.0
 42
0.57735
  0
VERTEX
  5
697F
100
AcDbEntity
  8
STUD
100
AcDbVertex
100
AcDb2dVertex
 10
125.502867
 20
87.402241
 30
0.0
  0
SEQEND
  5
6980
100
AcDbEntity
  8
STUD
  0
LINE
  5
699A
100
AcDbEntity
  8
STUD
100
AcDbLine
 10
69.561632
 20
82.516916
 30
0.0
 11
69.561632
 21
79.266916
 31
0.0
  0
LINE
  5
699B
100
AcDbEntity
  8
STUD
100
AcDbLine
 10
69.596232
 20
82.496939
 30
0.0
 11
69.596232
 21
79.246939
 31
0.0
  0
LINE
  5
699C
100
AcDbEntity
  8
STUD
100
AcDbLine
 10
69.123043
 20
82.767528
 30
0.0
 11
69.123043
 21
79.520135
 31
0.0
  0
LINE
  5
699D
100
AcDbEntity
  8
STUD
100
AcDbLine
 10
125.021858
 20
90.496939
 30
0.0
 11
125.021858
 21
87.246939
 31
0.0
  0
LINE
  5
699E
100
AcDbEntity
  8
STUD
100
AcDbLine
 10
124.987258
 20
90.516916
 30
0.0
 11
124.987258
 21
87.266916
 31
0.0
  0
LINE
  5
699F
100
AcDbEntity
  8
STUD
100
AcDbLine
 10
124.548668
 20
90.767528
 30
0.0
 11
124.548668
 21
87.520135
 31
0.0
  0
POLYLINE
  5
69A0
100
AcDbEntity
  8
TRACK
100
AcDb2dPolyline
 66
     1
 10
0.0
 20
0.0
 30
0.0
  0
VERTEX
  5
69A1
100
AcDbEntity
  8
TRACK
100
AcDbVertex
100
AcDb2dVertex
 10
98.621237
 20
86.25865
 30
0.0
  0
VERTEX
  5
69A2
100
AcDbEntity
  8
TRACK
100
AcDbVertex
100
AcDb2dVertex
 10
99.995603
 20
87.052141
 30
0.0
  0
VERTEX
  5
69A3
100
AcDbEntity
  8
TRACK
100
AcDbVertex
100
AcDb2dVertex
 10
100.030203
 20
87.032164
 30
0.0
  0
VERTEX
  5
69A4
100
AcDbEntity
  8
TRACK
100
AcDbVertex
100
AcDb2dVertex
 10
98.621237
 20
86.218697
 30
0.0
 42
-0.267949
  0
SEQEND
  5
69A5
100
AcDbEntity
  8
TRACK
  0
POLYLINE
  5
69AB
100
AcDbEntity
  8
TRACK
100
AcDb2dPolyline
 66
     1
 10
0.0
 20
0.0
 30
0.0
  0
VERTEX
  5
69AC
100
AcDbEntity
  8
TRACK
100
AcDbVertex
100
AcDb2dVertex
 10
100.030203
 20
83.918109
 30
0.0
  0
VERTEX
  5
69AD
100
AcDbEntity
  8
TRACK
100
AcDbVertex
100
AcDb2dVertex
 10
98.621237
 20
83.104642
 30
0.0
 42
-0.267949
  0
VERTEX
  5
69AE
100
AcDbEntity
  8
TRACK
100
AcDbVertex
100
AcDb2dVertex
 10
98.555387
 20
83.104642
 30
0.0
  0
SEQEND
  5
69AF
100
AcDbEntity
  8
TRACK
  0
LINE
  5
69B0
100
AcDbEntity
  8
STUD
100
AcDbLine
 10
111.165451
 20
106.496939
 30
0.0
 11
111.165451
 21
103.455747
 31
0.0
  0
LINE
  5
69B1
100
AcDbEntity
  8
STUD
100
AcDbLine
 10
111.130851
 20
106.516916
 30
0.0
 11
111.130851
 21
103.475724
 31
0.0
  0
LINE
  5
69B2
100
AcDbEntity
  8
STUD
100
AcDbLine
 10
110.692262
 20
106.767528
 30
0.0
 11
110.692262
 21
103.728943
 31
0.0
  0
LINE
  5
69B3
100
AcDbEntity
  8
STUD
100
AcDbLine
 10
124.548668
 20
90.767528
 30
0.0
 11
124.548668
 21
87.520135
 31
0.0
  0
LINE
  5
69B4
100
AcDbEntity
  8
STUD
100
AcDbLine
 10
124.987258
 20
90.516916
 30
0.0
 11
124.987258
 21
87.266916
 31
0.0
  0
LINE
  5
69B5
100
AcDbEntity
  8
STUD
100
AcDbLine
 10
125.021858
 20
90.496939
 30
0.0
 11
125.021858
 21
87.246939
 31
0.0
  0
LINE
  5
69B6
100
AcDbEntity
  8
TRACK
100
AcDbLine
 10
100.006809
 20
83.757758
 30
0.0
 11
99.973884
 21
83.814786
 31
0.0
  0
LINE
  5
69BD
100
AcDbEntity
  8
TRACK
100
AcDbLine
 10
100.030203
 20
83.918109
 30
0.0
 11
100.012903
 21
87.042152
 31
0.0
  0
LINE
  5
69BE
100
AcDbEntity
  8
TRACK
100
AcDbLine
 10
98.621237
 20
86.25865
 30
0.0
 11
98.621237
 21
83.104642
 31
0.0
  0
ELLIPSE
  5
69C0
100
AcDbEntity
  8
FASTENER
100
AcDbEllipse
 10
99.348879
 20
85.834879
 30
0.0
 11
-0.0765465544619742
 21
-0.1325825214724724
 31
0.0
210
0.0
220
0.0
230
1.0
 40
0.57735
 41
0.0000000000006143
 42
6.283185307180215
  0
LINE
  5
69C1
100
AcDbEntity
  8
FASTENER
100
AcDbLine
 10
99.348879
 20
85.959879
 30
0.0
 11
99.348879
 21
85.709879
 31
0.0
  0
LINE
  5
69C2
100
AcDbEntity
  8
FASTENER
100
AcDbLine
 10
99.240016
 20
85.773447
 30
0.0
 11
99.457741
 21
85.89631
 31
0.0
  0
LINE
  5
69C3
100
AcDbEntity
  8
FASTENER
100
AcDbLine
 10
99.240016
 20
84.056353
 30
0.0
 11
99.457741
 21
84.179217
 31
0.0
  0
LINE
  5
69C4
100
AcDbEntity
  8
FASTENER
100
AcDbLine
 10
99.348879
 20
84.242785
 30
0.0
 11
99.348879
 21
83.992785
 31
0.0
  0
ELLIPSE
  5
69C5
100
AcDbEntity
  8
FASTENER
100
AcDbEllipse
 10
99.348879
 20
84.117785
 30
0.0
 11
-0.0765465544619742
 21
-0.1325825214724724
 31
0.0
210
0.0
220
0.0
230
1.0
 40
0.57735
 41
0.0000000000006143
 42
6.283185307180215
  0
LINE
  5
69CC
100
AcDbEntity
  8
TRACK
100
AcDbLine
 10
113.998156
 20
91.853708
 30
0.0
 11
113.980856
 21
94.977751
 31
0.0
  0
LINE
  5
69CD
100
AcDbEntity
  8
TRACK
100
AcDbLine
 10
112.589189
 20
94.154296
 30
0.0
 11
112.589189
 21
91.040241
 31
0.0
  0
LINE
  5
69CE
100
AcDbEntity
  8
TRACK
100
AcDbLine
 10
112.523339
 20
91.040241
 30
0.0
 11
112.523339
 21
94.154296
 31
0.0
  0
LINE
  5
69CF
100
AcDbEntity
  8
TRACK
100
AcDbLine
 10
109.463797
 20
95.960676
 30
0.0
 11
109.463797
 21
92.846621
 31
0.0
  0
POLYLINE
  5
69D0
100
AcDbEntity
  8
TRACK
100
AcDb2dPolyline
 66
     1
 10
0.0
 20
0.0
 30
0.0
  0
VERTEX
  5
69D1
100
AcDbEntity
  8
TRACK
100
AcDbVertex
100
AcDb2dVertex
 10
113.998156
 20
91.853708
 30
0.0
  0
VERTEX
  5
69D2
100
AcDbEntity
  8
TRACK
100
AcDbVertex
100
AcDb2dVertex
 10
112.589189
 20
91.040241
 30
0.0
 42
-0.267949
  0
VERTEX
  5
69D3
100
AcDbEntity
  8
TRACK
100
AcDbVertex
100
AcDb2dVertex
 10
112.523339
 20
91.040241
 30
0.0
  0
VERTEX
  5
69D4
100
AcDbEntity
  8
TRACK
100
AcDbVertex
100
AcDb2dVertex
 10
109.446497
 20
92.816656
 30
0.0
 42
-0.57735
  0
VERTEX
  5
69D5
100
AcDbEntity
  8
TRACK
100
AcDbVertex
100
AcDb2dVertex
 10
109.446497
 20
92.930712
 30
0.0
  0
SEQEND
  5
69D6
100
AcDbEntity
  8
TRACK
  0
POLYLINE
  5
69D7
100
AcDbEntity
  8
TRACK
100
AcDb2dPolyline
 66
     1
 10
0.0
 20
0.0
 30
0.0
  0
VERTEX
  5
69D8
100
AcDbEntity
  8
TRACK
100
AcDbVertex
100
AcDb2dVertex
 10
109.463797
 20
96.014803
 30
0.0
 42
0.57735
  0
VERTEX
  5
69D9
100
AcDbEntity
  8
TRACK
100
AcDbVertex
100
AcDb2dVertex
 10
109.463797
 20
95.960676
 30
0.0
  0
VERTEX
  5
69DA
100
AcDbEntity
  8
TRACK
100
AcDbVertex
100
AcDb2dVertex
 10
112.540639
 20
94.184261
 30
0.0
 42
0.267949
  0
VERTEX
  5
69DB
100
AcDbEntity
  8
TRACK
100
AcDbVertex
100
AcDb2dVertex
 10
112.571889
 20
94.184261
 30
0.0
  0
VERTEX
  5
69DC
100
AcDbEntity
  8
TRACK
100
AcDbVertex
100
AcDb2dVertex
 10
113.963556
 20
94.98774
 30
0.0
  0
VERTEX
  5
69DD
100
AcDbEntity
  8
TRACK
100
AcDbVertex
100
AcDb2dVertex
 10
113.998156
 20
94.967763
 30
0.0
  0
VERTEX
  5
69DE
100
AcDbEntity
  8
TRACK
100
AcDbVertex
100
AcDb2dVertex
 10
112.589189
 20
94.154296
 30
0.0
 42
-0.267949
  0
VERTEX
  5
69DF
100
AcDbEntity
  8
TRACK
100
AcDbVertex
100
AcDb2dVertex
 10
112.523339
 20
94.154296
 30
0.0
  0
VERTEX
  5
69E0
100
AcDbEntity
  8
TRACK
100
AcDbVertex
100
AcDb2dVertex
 10
109.446497
 20
95.930712
 30
0.0
 42
-0.57735
  0
VERTEX
  5
69E1
100
AcDbEntity
  8
TRACK
100
AcDbVertex
100
AcDb2dVertex
 10
109.446497
 20
96.044767
 30
0.0
  0
SEQEND
  5
69E2
100
AcDbEntity
  8
TRACK
  0
ELLIPSE
  5
69E3
100
AcDbEntity
  8
FASTENER
100
AcDbEllipse
 10
113.316831
 20
93.770477
 30
0.0
 11
-0.0765465544619742
 21
-0.1325825214724724
 31
0.0
210
0.0
220
0.0
230
1.0
 40
0.57735
 41
0.0000000000006143
 42
6.283185307180215
  0
LINE
  5
69E4
100
AcDbEntity
  8
FASTENER
100
AcDbLine
 10
113.316831
 20
93.895477
 30
0.0
 11
113.316831
 21
93.645477
 31
0.0
  0
LINE
  5
69E5
100
AcDbEntity
  8
FASTENER
100
AcDbLine
 10
113.207968
 20
93.709045
 30
0.0
 11
113.425694
 21
93.831909
 31
0.0
  0
ELLIPSE
  5
69E6
100
AcDbEntity
  8
FASTENER
100
AcDbEllipse
 10
109.936011
 20
94.911212
 30
0.0
 11
0.0765465544619743
 21
-0.1325825214724723
 31
0.0
210
0.0
220
0.0
230
-1.0
 40
0.57735
 41
0.0000000000006153
 42
6.283185307180215
  0
LINE
  5
69E7
100
AcDbEntity
  8
FASTENER
100
AcDbLine
 10
109.936011
 20
95.036212
 30
0.0
 11
109.936011
 21
94.786212
 31
0.0
  0
LINE
  5
69E8
100
AcDbEntity
  8
FASTENER
100
AcDbLine
 10
110.044874
 20
94.84978
 30
0.0
 11
109.827148
 21
94.972644
 31
0.0
  0
ELLIPSE
  5
69E9
100
AcDbEntity
  8
FASTENER
100
AcDbEllipse
 10
111.677816
 20
93.928301
 30
0.0
 11
0.0765465544619742
 21
-0.1325825214724724
 31
0.0
210
0.0
220
0.0
230
-1.0
 40
0.57735
 41
0.0000000000006143
 42
6.283185307180215
  0
LINE
  5
69EA
100
AcDbEntity
  8
FASTENER
100
AcDbLine
 10
111.677816
 20
94.053301
 30
0.0
 11
111.677816
 21
93.803301
 31
0.0
  0
LINE
  5
69EB
100
AcDbEntity
  8
FASTENER
100
AcDbLine
 10
111.786679
 20
93.866869
 30
0.0
 11
111.568953
 21
93.989733
 31
0.0
  0
LINE
  5
69EC
100
AcDbEntity
  8
FASTENER
100
AcDbLine
 10
113.207968
 20
91.991952
 30
0.0
 11
113.425694
 21
92.114816
 31
0.0
  0
LINE
  5
69ED
100
AcDbEntity
  8
FASTENER
100
AcDbLine
 10
113.316831
 20
92.178384
 30
0.0
 11
113.316831
 21
91.928384
 31
0.0
  0
ELLIPSE
  5
69EE
100
AcDbEntity
  8
FASTENER
100
AcDbEllipse
 10
113.316831
 20
92.053384
 30
0.0
 11
-0.0765465544619742
 21
-0.1325825214724724
 31
0.0
210
0.0
220
0.0
230
1.0
 40
0.57735
 41
0.0000000000006143
 42
6.283185307180215
  0
LINE
  5
69EF
100
AcDbEntity
  8
TRACK
100
AcDbLine
 10
99.973884
 20
83.814786
 30
0.0
 11
112.540639
 21
91.070205
 31
0.0
  0
LINE
  5
69F0
100
AcDbEntity
  8
TRACK
100
AcDbLine
 10
100.006809
 20
83.757758
 30
0.0
 11
112.573564
 21
91.013177
 31
0.0
  0
LINE
  5
69F2
100
AcDbEntity
  8
TRACK
100
AcDbLine
 10
109.463797
 20
92.846621
 30
0.0
 11
99.888632
 21
87.318397
 31
0.0
  0
POLYLINE
  5
6A02
100
AcDbEntity
  8
STUD
100
AcDb2dPolyline
 66
     1
 10
0.0
 20
0.0
 30
0.0
 70
     1
  0
VERTEX
  5
6A03
100
AcDbEntity
  8
STUD
100
AcDbVertex
100
AcDb2dVertex
 10
125.502867
 20
90.074891
 30
0.0
 42
0.267949
  0
VERTEX
  5
6A04
100
AcDbEntity
  8
STUD
100
AcDbVertex
100
AcDb2dVertex
 10
125.377867
 20
90.291397
 30
0.0
  0
VERTEX
  5
6A05
100
AcDbEntity
  8
STUD
100
AcDbVertex
100
AcDb2dVertex
 10
124.578829
 20
90.752722
 30
0.0
 42
0.57735
  0
VERTEX
  5
6A06
100
AcDbEntity
  8
STUD
100
AcDbVertex
100
AcDb2dVertex
 10
124.203829
 20
90.536216
 30
0.0
  0
VERTEX
  5
6A07
100
AcDbEntity
  8
STUD
100
AcDbVertex
100
AcDb2dVertex
 10
124.203829
 20
87.863566
 30
0.0
 42
0.267949
  0
VERTEX
  5
6A08
100
AcDbEntity
  8
STUD
100
AcDbVertex
100
AcDb2dVertex
 10
124.328829
 20
87.64706
 30
0.0
  0
VERTEX
  5
6A09
100
AcDbEntity
  8
STUD
100
AcDbVertex
100
AcDb2dVertex
 10
125.127867
 20
87.185735
 30
0.0
 42
0.57735
  0
VERTEX
  5
6A0A
100
AcDbEntity
  8
STUD
100
AcDbVertex
100
AcDb2dVertex
 10
125.502867
 20
87.402241
 30
0.0
  0
SEQEND
  5
6A0B
100
AcDbEntity
  8
STUD
  0
POLYLINE
  5
6A0C
100
AcDbEntity
  8
STUD
100
AcDb2dPolyline
 66
     1
 10
0.0
 20
0.0
 30
0.0
 70
     1
  0
VERTEX
  5
6A0D
100
AcDbEntity
  8
STUD
100
AcDbVertex
100
AcDb2dVertex
 10
111.646461
 20
106.074891
 30
0.0
 42
0.267949
  0
VERTEX
  5
6A0E
100
AcDbEntity
  8
STUD
100
AcDbVertex
100
AcDb2dVertex
 10
111.521461
 20
106.291397
 30
0.0
  0
VERTEX
  5
6A0F
100
AcDbEntity
  8
STUD
100
AcDbVertex
100
AcDb2dVertex
 10
110.722423
 20
106.752722
 30
0.0
 42
0.57735
  0
VERTEX
  5
6A10
100
AcDbEntity
  8
STUD
100
AcDbVertex
100
AcDb2dVertex
 10
110.347423
 20
106.536216
 30
0.0
  0
VERTEX
  5
6A11
100
AcDbEntity
  8
STUD
100
AcDbVertex
100
AcDb2dVertex
 10
110.347423
 20
103.863566
 30
0.0
 42
0.267949
  0
VERTEX
  5
6A12
100
AcDbEntity
  8
STUD
100
AcDbVertex
100
AcDb2dVertex
 10
110.472423
 20
103.64706
 30
0.0
  0
VERTEX
  5
6A13
100
AcDbEntity
  8
STUD
100
AcDbVertex
100
AcDb2dVertex
 10
111.271461
 20
103.185735
 30
0.0
 42
0.57735
  0
VERTEX
  5
6A14
100
AcDbEntity
  8
STUD
100
AcDbVertex
100
AcDb2dVertex
 10
111.646461
 20
103.402241
 30
0.0
  0
SEQEND
  5
6A15
100
AcDbEntity
  8
STUD
  0
LINE
  5
6A16
100
AcDbEntity
  8
TRACK
100
AcDbLine
 10
100.006809
 20
83.757758
 30
0.0
 11
100.006809
 21
83.444291
 31
0.0
  0
ELLIPSE
  5
6A17
100
AcDbEntity
  8
FASTENER
100
AcDbEllipse
 10
99.206809
 20
107.318992
 30
0.0
 11
-0.0765465544619743
 21
-0.1325825214724723
 31
0.0
210
0.0
220
0.0
230
1.0
 40
0.57735
 41
0.0000000000006153
 42
6.283185307180215
  0
LINE
  5
6A18
100
AcDbEntity
  8
FASTENER
100
AcDbLine
 10
99.206809
 20
107.443992
 30
0.0
 11
99.206809
 21
107.193992
 31
0.0
  0
LINE
  5
6A19
100
AcDbEntity
  8
FASTENER
100
AcDbLine
 10
99.097946
 20
107.25756
 30
0.0
 11
99.315672
 21
107.380424
 31
0.0
  0
LINE
  5
6A1A
100
AcDbEntity
  8
STUD
100
AcDbLine
 10
127.58031
 20
84.296756
 30
0.0
 11
127.58031
 21
66.070597
 31
0.0
  0
LINE
  5
6A23
100
AcDbEntity
  8
STUD
100
AcDbLine
 10
109.364771
 20
87.533645
 30
0.0
 11
109.364771
 21
78.260672
 31
0.0
  0
LINE
  5
6A24
100
AcDbEntity
  8
STUD
100
AcDbLine
 10
112.441613
 20
89.310061
 30
0.0
 11
112.441613
 21
76.491069
 31
0.0
  0
LINE
  5
6A25
100
AcDbEntity
  8
STUD
100
AcDbLine
 10
112.379113
 20
89.273977
 30
0.0
 11
112.379113
 21
76.520341
 31
0.0
  0
LINE
  5
6A26
100
AcDbEntity
  8
STUD
100
AcDbLine
 10
99.867498
 20
83.824171
 30
0.0
 11
99.867498
 21
83.363859
 31
0.0
  0
LINE
  5
6A30
100
AcDbEntity
  8
STUD
100
AcDbLine
 10
67.795551
 20
93.438511
 30
0.0
 11
70.839468
 21
91.663062
 31
0.0
  0
LINE
  5
6A32
100
AcDbEntity
  8
STUD
100
AcDbLine
 10
70.872393
 20
90.271848
 30
0.0
 11
70.872393
 21
52.491069
 31
0.0
  0
LINE
  5
6A33
100
AcDbEntity
  8
STUD
100
AcDbLine
 10
70.809893
 20
90.280869
 30
0.0
 11
70.809893
 21
52.520341
 31
0.0
  0
LINE
  5
6A34
100
AcDbEntity
  8
STUD
100
AcDbLine
 10
113.723904
 20
91.695368
 30
0.0
 11
113.723904
 21
91.363859
 31
0.0
  0
LINE
  5
6A35
100
AcDbEntity
  8
STUD
100
AcDbLine
 10
67.795551
 20
93.438511
 30
0.0
 11
67.795551
 21
33.986136
 31
0.0
  0
LINE
  5
6A39
100
AcDbEntity
  8
TRACK
100
AcDbLine
 10
134.879036
 20
70.258789
 30
0.0
 11
70.905318
 21
33.549064
 31
0.0
  0
LINE
  5
6A3A
100
AcDbEntity
  8
TRACK
100
AcDbLine
 10
131.739694
 20
72.071289
 30
0.0
 11
127.58031
 21
69.669867
 31
0.0
  0
POLYLINE
  5
6A3B
100
AcDbEntity
  8
STUD
100
AcDb2dPolyline
 66
     1
 10
0.0
 20
0.0
 30
0.0
  0
VERTEX
  5
6A3C
100
AcDbEntity
  8
STUD
100
AcDbVertex
100
AcDb2dVertex
 10
67.795551
 20
33.986136
 30
0.0
  0
VERTEX
  5
6A3D
100
AcDbEntity
  8
STUD
100
AcDbVertex
100
AcDb2dVertex
 10
70.809893
 20
32.245805
 30
0.0
  0
VERTEX
  5
6A3F
100
AcDbEntity
  8
STUD
100
AcDbVertex
100
AcDb2dVertex
 10
70.872393
 20
32.245805
 30
0.0
  0
VERTEX
  5
6A40
100
AcDbEntity
  8
STUD
100
AcDbVertex
100
AcDb2dVertex
 10
70.905318
 20
32.264814
 30
0.0
  0
SEQEND
  5
6A3E
100
AcDbEntity
  8
STUD
  0
POLYLINE
  5
6A59
100
AcDbEntity
  8
STUD
100
AcDb2dPolyline
 66
     1
 10
0.0
 20
0.0
 30
0.0
  0
VERTEX
  5
6A5A
100
AcDbEntity
  8
STUD
100
AcDbVertex
100
AcDb2dVertex
 10
81.673092
 20
41.949417
 30
0.0
  0
VERTEX
  5
6A5B
100
AcDbEntity
  8
STUD
100
AcDbVertex
100
AcDb2dVertex
 10
83.602889
 20
40.835249
 30
0.0
  0
SEQEND
  5
6A5C
100
AcDbEntity
  8
STUD
  0
LINE
  5
6A62
100
AcDbEntity
  8
TRACK
100
AcDbLine
 10
81.894614
 20
41.821522
 30
0.0
 11
72.154685
 21
36.235558
 31
0.0
  0
LINE
  5
6A63
100
AcDbEntity
  8
TRACK
100
AcDbLine
 10
86.032226
 20
45.883027
 30
0.0
 11
95.508364
 21
51.320673
 31
0.0
  0
POLYLINE
  5
6A64
100
AcDbEntity
  8
STUD
100
AcDb2dPolyline
 66
     1
 10
0.0
 20
0.0
 30
0.0
  0
VERTEX
  5
6A65
100
AcDbEntity
  8
STUD
100
AcDbVertex
100
AcDb2dVertex
 10
95.508364
 20
49.986136
 30
0.0
  0
VERTEX
  5
6A66
100
AcDbEntity
  8
STUD
100
AcDbVertex
100
AcDb2dVertex
 10
97.523024
 20
48.822971
 30
0.0
  0
SEQEND
  5
6A67
100
AcDbEntity
  8
STUD
  0
LINE
  5
6A6D
100
AcDbEntity
  8
TRACK
100
AcDbLine
 10
95.818538
 20
49.807057
 30
0.0
 11
86.032226
 21
44.194491
 31
0.0
  0
LINE
  5
6A6E
100
AcDbEntity
  8
TRACK
100
AcDbLine
 10
99.867498
 20
53.822053
 30
0.0
 11
109.364771
 21
59.271827
 31
0.0
  0
POLYLINE
  5
6A6F
100
AcDbEntity
  8
STUD
100
AcDb2dPolyline
 66
     1
 10
0.0
 20
0.0
 30
0.0
  0
VERTEX
  5
6A70
100
AcDbEntity
  8
STUD
100
AcDbVertex
100
AcDb2dVertex
 10
109.364771
 20
57.986136
 30
0.0
  0
VERTEX
  5
6A71
100
AcDbEntity
  8
STUD
100
AcDbVertex
100
AcDb2dVertex
 10
111.421862
 20
56.798474
 30
0.0
  0
SEQEND
  5
6A72
100
AcDbEntity
  8
STUD
  0
LINE
  5
6A78
100
AcDbEntity
  8
TRACK
100
AcDbLine
 10
109.72116
 20
57.780375
 30
0.0
 11
99.867498
 21
52.129183
 31
0.0
  0
LINE
  5
6A79
100
AcDbEntity
  8
TRACK
100
AcDbLine
 10
113.723904
 20
61.773207
 30
0.0
 11
123.221177
 21
67.22298
 31
0.0
  0
POLYLINE
  5
6A7A
100
AcDbEntity
  8
STUD
100
AcDb2dPolyline
 66
     1
 10
0.0
 20
0.0
 30
0.0
  0
VERTEX
  5
6A7B
100
AcDbEntity
  8
STUD
100
AcDbVertex
100
AcDb2dVertex
 10
123.221177
 20
65.986136
 30
0.0
  0
VERTEX
  5
6A7C
100
AcDbEntity
  8
STUD
100
AcDbVertex
100
AcDb2dVertex
 10
125.320701
 20
64.773976
 30
0.0
  0
SEQEND
  5
6A7D
100
AcDbEntity
  8
STUD
  0
LINE
  5
6A83
100
AcDbEntity
  8
TRACK
100
AcDbLine
 10
123.623782
 20
65.753692
 30
0.0
 11
113.723904
 21
60.075995
 31
0.0
  0
LINE
  5
6A84
100
AcDbEntity
  8
TRACK
100
AcDbLine
 10
127.58031
 20
69.72436
 30
0.0
 11
131.705094
 21
72.091265
 31
0.0
  0
LINE
  5
6A85
100
AcDbEntity
  8
FASTENER
100
AcDbLine
 10
132.047574
 20
69.745598
 30
0.0
 11
131.832308
 21
69.872722
 31
0.0
  0
LINE
  5
6A86
100
AcDbEntity
  8
FASTENER
100
AcDbLine
 10
131.831688
 20
69.74666
 30
0.0
 11
132.048194
 21
69.87166
 31
0.0
  0
ELLIPSE
  5
6A87
100
AcDbEntity
  8
FASTENER
100
AcDbEllipse
 10
131.939941
 20
69.80916
 30
0.0
 11
0.153093108923944
 21
-0.0000000000000026
 31
0.0
210
0.0
220
0.0
230
1.0
 40
0.57735
 41
0.0000000000000298
 42
6.28318530717963
  0
LINE
  5
6A95
100
AcDbEntity
  8
STUD
100
AcDbLine
 10
70.809893
 20
66.587444
 30
0.0
 11
127.58031
 21
99.363859
 31
0.0
  0
LINE
  5
6A96
100
AcDbEntity
  8
STUD
100
AcDbLine
 10
70.809893
 20
65.587444
 30
0.0
 11
127.58031
 21
98.363859
 31
0.0
  0
ELLIPSE
  5
6A97
100
AcDbEntity
  8
FASTENER
100
AcDbEllipse
 10
113.316831
 20
90.645553
 30
0.0
 11
-0.0765465544619742
 21
-0.1325825214724724
 31
0.0
210
0.0
220
0.0
230
1.0
 40
0.57735
 41
0.0000000000006143
 42
6.283185307180215
  0
LINE
  5
6A98
100
AcDbEntity
  8
FASTENER
100
AcDbLine
 10
113.316831
 20
90.770553
 30
0.0
 11
113.316831
 21
90.520553
 31
0.0
  0
LINE
  5
6A99
100
AcDbEntity
  8
FASTENER
100
AcDbLine
 10
113.207968
 20
90.584121
 30
0.0
 11
113.425694
 21
90.706985
 31
0.0
  0
ELLIPSE
  5
6A9A
100
AcDbEntity
  8
FASTENER
100
AcDbEllipse
 10
99.348879
 20
82.709954
 30
0.0
 11
-0.0765465544619742
 21
-0.1325825214724724
 31
0.0
210
0.0
220
0.0
230
1.0
 40
0.57735
 41
0.0000000000006143
 42
6.283185307180215
  0
LINE
  5
6A9B
100
AcDbEntity
  8
FASTENER
100
AcDbLine
 10
99.348879
 20
82.834954
 30
0.0
 11
99.348879
 21
82.584954
 31
0.0
  0
LINE
  5
6A9C
100
AcDbEntity
  8
FASTENER
100
AcDbLine
 10
99.240016
 20
82.648522
 30
0.0
 11
99.457741
 21
82.771386
 31
0.0
  0
POLYLINE
  5
6A9D
100
AcDbEntity
  8
TRACK
100
AcDb2dPolyline
 66
     1
 10
0.0
 20
0.0
 30
0.0
  0
VERTEX
  5
6A9E
100
AcDbEntity
  8
TRACK
100
AcDbVertex
100
AcDb2dVertex
 10
112.540639
 20
91.070205
 30
0.0
  0
VERTEX
  5
6A9F
100
AcDbEntity
  8
TRACK
100
AcDbVertex
100
AcDb2dVertex
 10
112.573564
 20
91.013177
 30
0.0
  0
VERTEX
  5
6AA0
100
AcDbEntity
  8
TRACK
100
AcDbVertex
100
AcDb2dVertex
 10
112.573564
 20
90.69971
 30
0.0
  0
SEQEND
  5
6AA1
100
AcDbEntity
  8
TRACK
  0
POLYLINE
  5
6AA2
100
AcDbEntity
  8
TRACK
100
AcDb2dPolyline
 66
     1
 10
0.0
 20
0.0
 30
0.0
  0
VERTEX
  5
6AA3
100
AcDbEntity
  8
TRACK
100
AcDbVertex
100
AcDb2dVertex
 10
112.573564
 20
89.69971
 30
0.0
  0
VERTEX
  5
6AA4
100
AcDbEntity
  8
TRACK
100
AcDbVertex
100
AcDb2dVertex
 10
112.573564
 20
89.386243
 30
0.0
  0
VERTEX
  5
6AA5
100
AcDbEntity
  8
TRACK
100
AcDbVertex
100
AcDb2dVertex
 10
100.006809
 20
82.130824
 30
0.0
  0
SEQEND
  5
6AA6
100
AcDbEntity
  8
TRACK
  0
LINE
  5
6AA7
100
AcDbEntity
  8
TRACK
100
AcDbLine
 10
100.006809
 20
82.444291
 30
0.0
 11
100.006809
 21
82.130824
 31
0.0
  0
LINE
  5
6AA8
100
AcDbEntity
  8
STUD
100
AcDbLine
 10
99.867498
 20
82.363859
 30
0.0
 11
99.867498
 21
69.2314
 31
0.0
  0
LINE
  5
6AA9
100
AcDbEntity
  8
STUD
100
AcDbLine
 10
98.585206
 20
81.623528
 30
0.0
 11
98.585206
 21
73.998946
 31
0.0
  0
LINE
  5
6AAA
100
AcDbEntity
  8
STUD
100
AcDbLine
 10
98.522706
 20
81.587444
 30
0.0
 11
98.522706
 21
68.520341
 31
0.0
  0
LINE
  5
6AAB
100
AcDbEntity
  8
STUD
100
AcDbLine
 10
113.723904
 20
90.363859
 30
0.0
 11
113.723904
 21
77.2314
 31
0.0
  0
LINE
  5
6AAC
100
AcDbEntity
  8
FASTENER
100
AcDbLine
 10
85.404744
 20
74.611803
 30
0.0
 11
85.62247
 21
74.734667
 31
0.0
  0
LINE
  5
6AAD
100
AcDbEntity
  8
FASTENER
100
AcDbLine
 10
85.513607
 20
74.798235
 30
0.0
 11
85.513607
 21
74.548235
 31
0.0
  0
ELLIPSE
  5
6AAE
100
AcDbEntity
  8
FASTENER
100
AcDbEllipse
 10
85.513607
 20
74.673235
 30
0.0
 11
-0.0765465544619742
 21
-0.1325825214724724
 31
0.0
210
0.0
220
0.0
230
1.0
 40
0.57735
 41
0.0000000000006143
 42
6.283185307180215
  0
LINE
  5
6AAF
100
AcDbEntity
  8
FASTENER
100
AcDbLine
 10
71.527203
 20
66.648522
 30
0.0
 11
71.744929
 21
66.771386
 31
0.0
  0
LINE
  5
6AB0
100
AcDbEntity
  8
FASTENER
100
AcDbLine
 10
71.636066
 20
66.834954
 30
0.0
 11
71.636066
 21
66.584954
 31
0.0
  0
ELLIPSE
  5
6AB1
100
AcDbEntity
  8
FASTENER
100
AcDbEllipse
 10
71.636066
 20
66.709954
 30
0.0
 11
-0.0765465544619742
 21
-0.1325825214724724
 31
0.0
210
0.0
220
0.0
230
1.0
 40
0.57735
 41
0.0000000000006143
 42
6.283185307180215
  0
LINE
  5
6AB2
100
AcDbEntity
  8
FASTENER
100
AcDbLine
 10
126.952829
 20
98.648522
 30
0.0
 11
127.170554
 21
98.771386
 31
0.0
  0
LINE
  5
6AB3
100
AcDbEntity
  8
FASTENER
100
AcDbLine
 10
127.061692
 20
98.834954
 30
0.0
 11
127.061692
 21
98.584954
 31
0.0
  0
ELLIPSE
  5
6AB4
100
AcDbEntity
  8
FASTENER
100
AcDbEllipse
 10
127.061692
 20
98.709954
 30
0.0
 11
-0.0765465544619742
 21
-0.1325825214724724
 31
0.0
210
0.0
220
0.0
230
1.0
 40
0.57735
 41
0.0000000000006143
 42
6.283185307180215
  0
LINE
  5
6AB6
100
AcDbEntity
  8
FASTENER
100
AcDbLine
 10
100.330959
 20
83.132859
 30
0.0
 11
100.548685
 21
83.255723
 31
0.0
  0
LINE
  5
6AB7
100
AcDbEntity
  8
FASTENER
100
AcDbLine
 10
100.439822
 20
83.319291
 30
0.0
 11
100.439822
 21
83.069291
 31
0.0
  0
ELLIPSE
  5
6AB8
100
AcDbEntity
  8
FASTENER
100
AcDbEllipse
 10
100.439822
 20
83.194291
 30
0.0
 11
-0.0765465544619742
 21
-0.1325825214724724
 31
0.0
210
0.0
220
0.0
230
1.0
 40
0.57735
 41
0.0000000000006143
 42
6.283185307180215
  0
ELLIPSE
  5
6AC1
100
AcDbEntity
  8
FASTENER
100
AcDbEllipse
 10
102.779968
 20
84.545375
 30
0.0
 11
-0.0765465544619742
 21
-0.1325825214724724
 31
0.0
210
0.0
220
0.0
230
1.0
 40
0.57735
 41
0.0000000000006143
 42
6.283185307180215
  0
LINE
  5
6AC2
100
AcDbEntity
  8
FASTENER
100
AcDbLine
 10
102.779968
 20
84.670375
 30
0.0
 11
102.779968
 21
84.420375
 31
0.0
  0
LINE
  5
6AC3
100
AcDbEntity
  8
FASTENER
100
AcDbLine
 10
102.671105
 20
84.483943
 30
0.0
 11
102.888831
 21
84.606807
 31
0.0
  0
ELLIPSE
  5
6AC4
100
AcDbEntity
  8
FASTENER
100
AcDbEllipse
 10
105.120114
 20
85.896459
 30
0.0
 11
-0.0765465544619742
 21
-0.1325825214724724
 31
0.0
210
0.0
220
0.0
230
1.0
 40
0.57735
 41
0.0000000000006143
 42
6.283185307180215
  0
LINE
  5
6AC5
100
AcDbEntity
  8
FASTENER
100
AcDbLine
 10
105.120114
 20
86.021459
 30
0.0
 11
105.120114
 21
85.771459
 31
0.0
  0
LINE
  5
6AC6
100
AcDbEntity
  8
FASTENER
100
AcDbLine
 10
105.011251
 20
85.835027
 30
0.0
 11
105.228977
 21
85.957891
 31
0.0
  0
ELLIPSE
  5
6AC7
100
AcDbEntity
  8
FASTENER
100
AcDbEllipse
 10
107.46026
 20
87.247543
 30
0.0
 11
-0.0765465544619742
 21
-0.1325825214724724
 31
0.0
210
0.0
220
0.0
230
1.0
 40
0.57735
 41
0.0000000000006143
 42
6.283185307180215
  0
LINE
  5
6AC8
100
AcDbEntity
  8
FASTENER
100
AcDbLine
 10
107.46026
 20
87.372543
 30
0.0
 11
107.46026
 21
87.122543
 31
0.0
  0
LINE
  5
6AC9
100
AcDbEntity
  8
FASTENER
100
AcDbLine
 10
107.351397
 20
87.186111
 30
0.0
 11
107.569123
 21
87.308975
 31
0.0
  0
ELLIPSE
  5
6ACA
100
AcDbEntity
  8
FASTENER
100
AcDbEllipse
 10
109.800406
 20
88.598626
 30
0.0
 11
-0.0765465544619742
 21
-0.1325825214724724
 31
0.0
210
0.0
220
0.0
230
1.0
 40
0.57735
 41
0.0000000000006143
 42
6.283185307180215
  0
LINE
  5
6ACB
100
AcDbEntity
  8
FASTENER
100
AcDbLine
 10
109.800406
 20
88.723626
 30
0.0
 11
109.800406
 21
88.473626
 31
0.0
  0
LINE
  5
6ACC
100
AcDbEntity
  8
FASTENER
100
AcDbLine
 10
109.691543
 20
88.537194
 30
0.0
 11
109.909268
 21
88.660058
 31
0.0
  0
ELLIPSE
  5
6ACD
100
AcDbEntity
  8
FASTENER
100
AcDbEllipse
 10
112.140552
 20
89.94971
 30
0.0
 11
-0.0765465544619742
 21
-0.1325825214724724
 31
0.0
210
0.0
220
0.0
230
1.0
 40
0.57735
 41
0.0000000000006143
 42
6.283185307180215
  0
LINE
  5
6ACE
100
AcDbEntity
  8
FASTENER
100
AcDbLine
 10
112.140552
 20
90.07471
 30
0.0
 11
112.140552
 21
89.82471
 31
0.0
  0
LINE
  5
6ACF
100
AcDbEntity
  8
FASTENER
100
AcDbLine
 10
112.031689
 20
89.888278
 30
0.0
 11
112.249414
 21
90.011142
 31
0.0
  0
LINE
  5
6AD0
100
AcDbEntity
  8
STUD
100
AcDbLine
 10
72.154685
 20
69.91669
 30
0.0
 11
81.673092
 21
75.412146
 31
0.0
  0
LINE
  5
6AD1
100
AcDbEntity
  8
STUD
100
AcDbLine
 10
72.154685
 20
70.91669
 30
0.0
 11
81.673092
 21
76.412146
 31
0.0
  0
LINE
  5
6AD2
100
AcDbEntity
  8
STUD
100
AcDbLine
 10
86.032226
 20
77.928893
 30
0.0
 11
95.508364
 21
83.399944
 31
0.0
  0
LINE
  5
6AD3
100
AcDbEntity
  8
STUD
100
AcDbLine
 10
86.032226
 20
78.928893
 30
0.0
 11
95.508364
 21
84.399944
 31
0.0
  0
LINE
  5
6AD4
100
AcDbEntity
  8
STUD
100
AcDbLine
 10
72.154685
 20
66.363859
 30
0.0
 11
72.154685
 21
34.265982
 31
0.0
  0
LINE
  5
6AD5
100
AcDbEntity
  8
STUD
100
AcDbLine
 10
81.673092
 20
71.859315
 30
0.0
 11
81.673092
 21
62.223953
 31
0.0
  0
LINE
  5
6AD6
100
AcDbEntity
  8
STUD
100
AcDbLine
 10
84.749935
 20
73.63573
 30
0.0
 11
84.749935
 21
60.45435
 31
0.0
  0
LINE
  5
6AD7
100
AcDbEntity
  8
STUD
100
AcDbLine
 10
84.687435
 20
73.599646
 30
0.0
 11
84.687435
 21
60.483622
 31
0.0
  0
LINE
  5
6AD8
100
AcDbEntity
  8
STUD
100
AcDbLine
 10
86.032226
 20
74.376061
 30
0.0
 11
86.032226
 21
61.194682
 31
0.0
  0
LINE
  5
6AD9
100
AcDbEntity
  8
STUD
100
AcDbLine
 10
95.508364
 20
79.847112
 30
0.0
 11
95.508364
 21
70.260672
 31
0.0
  0
LINE
  5
6ADA
100
AcDbEntity
  8
STUD
100
AcDbLine
 10
113.985894
 20
94.06795
 30
0.0
 11
123.221177
 21
99.399944
 31
0.0
  0
LINE
  5
6ADB
100
AcDbEntity
  8
STUD
100
AcDbLine
 10
113.723904
 20
94.91669
 30
0.0
 11
123.221177
 21
100.399944
 31
0.0
  0
LINE
  5
6ADC
100
AcDbEntity
  8
STUD
100
AcDbLine
 10
126.298019
 20
97.623528
 30
0.0
 11
126.298019
 21
84.491069
 31
0.0
  0
LINE
  5
6ADD
100
AcDbEntity
  8
STUD
100
AcDbLine
 10
126.235519
 20
97.587444
 30
0.0
 11
126.235519
 21
84.520341
 31
0.0
  0
LINE
  5
6ADE
100
AcDbEntity
  8
STUD
100
AcDbLine
 10
123.221177
 20
95.847112
 30
0.0
 11
123.221177
 21
86.260672
 31
0.0
  0
LINE
  5
6AE8
100
AcDbEntity
  8
STUD
100
AcDbLine
 10
72.154685
 20
91.010245
 30
0.0
 11
72.154685
 21
67.363859
 31
0.0
  0
SPLINE
  5
6B06
100
AcDbEntity
  8
GYPSUM
100
AcDbSpline
210
0.0
220
0.0
230
1.0
 70
     8
 71
     3
 72
    10
 73
     6
 74
     0
 42
0.0000001
 43
0.0000001
 40
10.04818512765434
 40
10.04818512765434
 40
10.04818512765434
 40
10.04818512765434
 40
14.77043292805183
 40
20.53335538057201
 40
22.9571543917501
 40
22.9571543917501
 40
22.9571543917501
 40
22.9571543917501
 10
72.15468463257662
 20
73.35043802810452
 30
0.0
 10
74.38174664678564
 20
74.72500264596376
 30
0.0
 10
79.11649052446936
 20
78.34430119164739
 30
0.0
 10
79.28659097479779
 20
82.54362784903264
 30
0.0
 10
81.05119795669883
 20
84.26854520906074
 30
0.0
 10
81.67309245407588
 20
84.71830428479746
 30
0.0
  0
LINE
  5
6B07
100
AcDbEntity
  8
GYPSUM
100
AcDbLine
 10
131.739694
 20
71.26781
 30
0.0
 11
131.554605
 21
116.233546
 31
0.0
  0
SPLINE
  5
6B09
100
AcDbEntity
  8
GYPSUM
100
AcDbSpline
210
0.0
220
0.0
230
1.0
 70
     8
 71
     3
 72
     8
 73
     4
 74
     0
 42
0.0000001
 43
0.0000001
 40
6.799587998152141
 40
6.799587998152141
 40
6.799587998152141
 40
6.799587998152141
 40
7.274558325846102
 40
7.274558325846102
 40
7.274558325846102
 40
7.274558325846102
 10
67.19011038534337
 20
71.26579638693724
 30
0.0
 10
67.38733572213345
 20
71.35452470327092
 30
0.0
 10
67.5894334797108
 20
71.44790977677662
 30
0.0
 10
67.79555126270861
 20
71.54564863098973
 30
0.0
  0
LINE
  5
6B0A
100
AcDbEntity
  8
GYPSUM
100
AcDbLine
 10
67.19011
 20
71.265796
 30
0.0
 11
67.795551
 21
71.017886
 31
0.0
  0
POLYLINE
  5
6B0B
100
AcDbEntity
  8
GYPSUM
100
AcDb2dPolyline
 66
     1
 10
0.0
 20
0.0
 30
0.0
  0
VERTEX
  5
6B0C
100
AcDbEntity
  8
GYPSUM
100
AcDbVertex
100
AcDb2dVertex
 10
67.731376
 20
33.754606
 30
0.0
  0
VERTEX
  5
6B0D
100
AcDbEntity
  8
GYPSUM
100
AcDbVertex
100
AcDb2dVertex
 10
67.25261
 20
34.031022
 30
0.0
 42
-0.267949
  0
VERTEX
  5
6B0E
100
AcDbEntity
  8
GYPSUM
100
AcDbVertex
100
AcDb2dVertex
 10
67.19011
 20
34.139275
 30
0.0
  0
VERTEX
  5
6B0F
100
AcDbEntity
  8
GYPSUM
100
AcDbVertex
100
AcDb2dVertex
 10
67.19011
 20
71.265796
 30
0.0
  0
SEQEND
  5
6B10
100
AcDbEntity
  8
GYPSUM
  0
LINE
  5
6B11
100
AcDbEntity
  8
GYPSUM
100
AcDbLine
 10
131.047911
 20
116.526086
 30
0.0
 11
131.554605
 21
116.233546
 31
0.0
  0
SPLINE
  5
6B13
100
AcDbEntity
  8
GYPSUM
100
AcDbSpline
210
0.0
220
0.0
230
1.0
 70
     8
 71
     3
 72
     8
 73
     4
 74
     0
 42
0.0000001
 43
0.0000001
 40
74.43007193431255
 40
74.43007193431255
 40
74.43007193431255
 40
74.43007193431255
 40
78.61817287569408
 40
78.61817287569408
 40
78.61817287569408
 40
78.61817287569408
 10
127.5803104747813
 20
111.4354275975141
 30
0.0
 10
129.0151406939513
 20
113.1202731898348
 30
0.0
 10
130.3765819217257
 20
114.8307996109756
 30
0.0
 10
131.5546051598966
 20
116.2335462345969
 30
0.0
  0
SPLINE
  5
6B14
100
AcDbEntity
  8
GYPSUM
100
AcDbSpline
210
0.0
220
0.0
230
1.0
 70
     8
 71
     3
 72
     8
 73
     4
 74
     0
 42
0.0000001
 43
0.0000001
 40
74.92624989076364
 40
74.92624989076364
 40
74.92624989076364
 40
74.92624989076364
 40
78.61817287569405
 40
78.61817287569405
 40
78.61817287569405
 40
78.61817287569405
 10
127.5803104747823
 20
112.3273216962202
 30
0.0
 10
128.8284611905746
 20
113.8137963007999
 30
0.0
 10
130.0094523551104
 20
115.2895273822011
 30
0.0
 10
131.0479113441983
 20
116.526086045487
 30
0.0
  0
SPLINE
  5
6B15
100
AcDbEntity
  8
GYPSUM
100
AcDbSpline
210
0.0
220
0.0
230
-1.0
 70
     8
 71
     3
 72
    10
 73
     6
 74
     0
 42
0.0000001
 43
0.0000001
 40
59.95115859458758
 40
59.95115859458758
 40
59.95115859458758
 40
59.95115859458758
 40
63.27418881804359
 40
67.84868361897053
 40
70.29460107015785
 40
70.29460107015785
 40
70.29460107015785
 40
70.29460107015785
 10
113.7239040142299
 20
101.1837220736018
 30
0.0
 10
114.6084898803099
 20
102.0146300622248
 30
0.0
 10
116.7536738994027
 20
103.7841645007407
 30
0.0
 10
119.9274526144853
 20
104.22934587432
 30
0.0
 10
122.3612238231113
 20
106.0760988963554
 30
0.0
 10
123.2211771049124
 20
106.8405739314868
 30
0.0
  0
SPLINE
  5
6B16
100
AcDbEntity
  8
GYPSUM
100
AcDbSpline
210
0.0
220
0.0
230
1.0
 70
     8
 71
     3
 72
    10
 73
     6
 74
     0
 42
0.0000001
 43
0.0000001
 40
60.58292172982242
 40
60.58292172982242
 40
60.58292172982242
 40
60.58292172982242
 40
63.27418881804359
 40
67.84868361897053
 40
70.7738313882095
 40
70.7738313882095
 40
70.7738313882095
 40
70.7738313882095
 10
113.7239040142443
 20
101.9396615962162
 30
0.0
 10
114.4467839510405
 20
102.5811294901973
 30
0.0
 10
116.4408300902489
 20
104.1038953731159
 30
0.0
 10
119.5678056825153
 20
104.5425117400034
 30
0.0
 10
122.1881032325487
 20
106.6279637992951
 30
0.0
 10
123.2211771049122
 20
107.5959091300029
 30
0.0
  0
SPLINE
  5
6B17
100
AcDbEntity
  8
GYPSUM
100
AcDbSpline
210
0.0
220
0.0
230
1.0
 70
     8
 71
     3
 72
    10
 73
     6
 74
     0
 42
0.0000001
 43
0.0000001
 40
44.01171911351705
 40
44.01171911351705
 40
44.01171911351705
 40
44.01171911351705
 40
46.24215617237148
 40
49.99337650437156
 40
54.48319958167155
 40
54.48319958167155
 40
54.48319958167155
 40
54.48319958167155
 10
99.86749755368789
 20
96.37070784797129
 30
0.0
 10
100.469332576629
 20
96.69165562684845
 30
0.0
 10
102.1703133278579
 20
97.15216396164036
 30
0.0
 10
105.768151748411
 20
95.21177404264477
 30
0.0
 10
108.1356823287965
 20
96.22714319847609
 30
0.0
 10
109.3647706443616
 20
97.12364943580432
 30
0.0
  0
SPLINE
  5
6B18
100
AcDbEntity
  8
GYPSUM
100
AcDbSpline
210
0.0
220
0.0
230
1.0
 70
     8
 71
     3
 72
    10
 73
     6
 74
     0
 42
0.0000001
 43
0.0000001
 40
44.62805060062383
 40
44.62805060062383
 40
44.62805060062383
 40
44.62805060062383
 40
46.24215617237148
 40
49.99337650437156
 40
55.104177464897
 40
55.104177464897
 40
55.104177464897
 40
55.104177464897
 10
99.86749755367966
 20
96.89366888909042
 30
0.0
 10
100.316927014544
 20
97.06243750797671
 30
0.0
 10
101.8753814603247
 20
97.33049610075205
 30
0.0
 10
105.4748163105827
 20
95.3892451936454
 30
0.0
 10
107.9831497976074
 20
96.68713870483982
 30
0.0
 10
109.3647706443617
 20
97.80678480129417
 30
0.0
  0
SPLINE
  5
6B19
100
AcDbEntity
  8
GYPSUM
100
AcDbSpline
210
0.0
220
0.0
230
1.0
 70
     8
 71
     3
 72
    10
 73
     6
 74
     0
 42
0.0000001
 43
0.0000001
 40
27.61182953263933
 40
27.61182953263933
 40
27.61182953263933
 40
27.61182953263933
 40
30.28432357300026
 40
36.07899745714668
 40
38.17631111632319
 40
38.17631111632319
 40
38.17631111632319
 40
38.17631111632319
 10
86.0322258239724
 20
86.78631292366794
 30
0.0
 10
86.95303074330695
 20
87.11086387801406
 30
0.0
 10
89.91496261436521
 20
88.06210072017648
 30
0.0
 10
93.01849103537149
 20
89.30229150873518
 30
0.0
 10
94.99369908006471
 20
91.42867272262078
 30
0.0
 10
95.50836418380283
 20
92.02121548331289
 30
0.0
  0
SPLINE
  5
6B1A
100
AcDbEntity
  8
GYPSUM
100
AcDbSpline
210
0.0
220
0.0
230
1.0
 70
     8
 71
     3
 72
    10
 73
     6
 74
     0
 42
0.0000001
 43
0.0000001
 40
28.10102540031281
 40
28.10102540031281
 40
28.10102540031281
 40
28.10102540031281
 40
30.28432357300026
 40
36.07899745714668
 40
38.86845430106129
 40
38.86845430106129
 40
38.86845430106129
 40
38.86845430106129
 10
86.03222582401873
 20
87.25480977123318
 30
0.0
 10
86.7870078255664
 20
87.51346296757962
 30
0.0
 10
89.55197989956074
 20
88.41206845160241
 30
0.0
 10
92.7151281666984
 20
89.67608373085594
 30
0.0
 10
94.8308247646643
 20
92.10341771916683
 30
0.0
 10
95.50836418380757
 20
92.90730800728235
 30
0.0
  0
SPLINE
  5
6B1B
100
AcDbEntity
  8
GYPSUM
100
AcDbSpline
210
0.0
220
0.0
230
1.0
 70
     8
 71
     3
 72
    10
 73
     6
 74
     0
 42
0.0000001
 43
0.0000001
 40
10.40774016518186
 40
10.40774016518186
 40
10.40774016518186
 40
10.40774016518186
 40
14.77043292805183
 40
20.53335538057201
 40
23.59005359076167
 40
23.59005359076167
 40
23.59005359076167
 40
23.59005359076167
 10
72.15468463257693
 20
73.9612703953286
 30
0.0
 10
74.19437308167639
 20
75.26552164598772
 30
0.0
 10
78.61453453659838
 20
78.75380534128502
 30
0.0
 10
78.78823682097041
 20
83.04205167927969
 30
0.0
 10
80.8272421756326
 20
84.82217743402193
 30
0.0
 10
81.67309245410404
 20
85.35108228680005
 30
0.0
  0
LEADER
  5
6B1C
100
AcDbEntity
  8
D-TEXT
100
AcDbLeader
  3
LEADER
 73
     0
 40
1.0
 41
13.241379
 76
     2
 10
128.925033
 20
104.759629
 30
0.0
 10
143.979956
 20
105.217592
 30
0.0
 77
   256
  0
MTEXT
  5
6B1D
100
AcDbEntity
  8
D-TEXT
100
AcDbMText
 10
144.979956
 20
105.217592
 30
0.0
 40
3.0
 41
0.0
 71
     4
 72
     1
  1
FINISH SERVICE
  7
ARCH
  0
LEADER
  5
6B1E
100
AcDbEntity
  8
D-TEXT
100
AcDbLeader
  3
LEADER
 72
     1
 73
     0
 40
4.333333
 41
33.896552
 76
     3
 10
77.46701
 20
72.789836
 30
0.0
 10
74.000496
 20
60.298162
 30
0.0
 10
52.930643
 20
65.030435
 30
0.0
 77
   256
  0
LEADER
  5
6B20
100
AcDbEntity
  8
D-TEXT
100
AcDbLeader
  3
LEADER
 72
     1
 73
     0
 74
     0
 40
1.0
 41
10.103448
 76
     3
 10
119.573215
 20
93.74096
 30
0.0
 10
119.609901
 20
82.98304
 30
0.0
 10
133.588565
 20
82.643226
 30
0.0
 77
   256
  0
MTEXT
  5
6B21
100
AcDbEntity
  8
D-TEXT
100
AcDbMText
 10
134.588565
 20
82.643226
 30
0.0
 40
3.0
 41
0.0
 71
     4
 72
     1
  1
{FLAT STRAP}
  7
ARCH
  0
LEADER
  5
6B22
100
AcDbEntity
  8
D-TEXT
100
AcDbLeader
  3
LEADER
 72
     1
 73
     0
 40
6.333333
 41
19.896552
 76
     3
 10
105.34829
 20
88.771241
 30
0.0
 10
106.002675
 20
101.630494
 30
0.0
 10
62.188068
 20
86.844168
 30
0.0
 77
   256
  0
LINE
  5
6B42
100
AcDbEntity
  8
STUD
100
AcDbLine
 10
70.809893
 20
51.454985
 30
0.0
 11
69.810199
 21
52.032158
 31
0.0
  0
LINE
  5
6B43
100
AcDbEntity
  8
STUD
100
AcDbLine
 10
70.809893
 20
51.454985
 30
0.0
 11
70.809893
 21
51.454985
 31
0.0
  0
LINE
  5
6B44
100
AcDbEntity
  8
STUD
100
AcDbLine
 10
70.809893
 20
51.454985
 30
0.0
 11
72.154685
 21
52.2314
 31
0.0
  0
POLYLINE
  5
6B56
100
AcDbEntity
  8
STUD
100
AcDb2dPolyline
 66
     1
 10
0.0
 20
0.0
 30
0.0
  0
VERTEX
  5
6B57
100
AcDbEntity
  8
STUD
100
AcDbVertex
100
AcDb2dVertex
 10
69.359322
 20
51.811681
 30
0.0
  0
VERTEX
  5
6B58
100
AcDbEntity
  8
STUD
100
AcDbVertex
100
AcDb2dVertex
 10
69.359322
 20
52.357828
 30
0.0
  0
VERTEX
  5
6B59
100
AcDbEntity
  8
STUD
100
AcDbVertex
100
AcDb2dVertex
 10
69.302722
 20
52.32515
 30
0.0
  0
VERTEX
  5
6B5A
100
AcDbEntity
  8
STUD
100
AcDbVertex
100
AcDb2dVertex
 10
69.302722
 20
51.706111
 30
0.0
  0
VERTEX
  5
6B5B
100
AcDbEntity
  8
STUD
100
AcDbVertex
100
AcDb2dVertex
 10
69.810199
 20
52.652659
 30
0.0
  0
VERTEX
  5
6B5C
100
AcDbEntity
  8
STUD
100
AcDbVertex
100
AcDb2dVertex
 10
69.810199
 20
52.032158
 30
0.0
  0
VERTEX
  5
6B5D
100
AcDbEntity
  8
STUD
100
AcDbVertex
100
AcDb2dVertex
 10
69.866799
 20
52.064836
 30
0.0
  0
VERTEX
  5
6B5E
100
AcDbEntity
  8
STUD
100
AcDbVertex
100
AcDb2dVertex
 10
69.866799
 20
52.685337
 30
0.0
  0
VERTEX
  5
6B5F
100
AcDbEntity
  8
STUD
100
AcDbVertex
100
AcDb2dVertex
 10
69.810199
 20
52.652659
 30
0.0
  0
SEQEND
  5
6B60
100
AcDbEntity
  8
STUD
  0
LINE
  5
6B70
100
AcDbEntity
  8
STUD
100
AcDbLine
 10
70.809893
 20
51.520341
 30
0.0
 11
69.866799
 21
52.064836
 31
0.0
  0
LINE
  5
6B72
100
AcDbEntity
  8
STUD
100
AcDbLine
 10
70.809893
 20
51.520341
 30
0.0
 11
72.154685
 21
52.296756
 31
0.0
  0
LINE
  5
6B75
100
AcDbEntity
  8
STUD
100
AcDbLine
 10
69.302722
 20
52.32515
 30
0.0
 11
67.738114
 21
53.228477
 31
0.0
  0
LINE
  5
6B76
100
AcDbEntity
  8
STUD
100
AcDbLine
 10
69.359322
 20
52.357828
 30
0.0
 11
67.852151
 21
53.227994
 31
0.0
  0
LINE
  5
6B77
100
AcDbEntity
  8
STUD
100
AcDbLine
 10
67.852151
 20
53.227994
 30
0.0
 11
68.718177
 21
53.727994
 31
0.0
  0
LINE
  5
6B78
100
AcDbEntity
  8
STUD
100
AcDbLine
 10
67.738114
 20
53.228477
 30
0.0
 11
68.660739
 21
53.761155
 31
0.0
  0
LINE
  5
6B7A
100
AcDbEntity
  8
STUD
100
AcDbLine
 10
81.615655
 20
61.191759
 30
0.0
 11
82.53828
 21
61.724437
 31
0.0
  0
LINE
  5
6B7B
100
AcDbEntity
  8
STUD
100
AcDbLine
 10
81.729692
 20
61.191275
 30
0.0
 11
82.595718
 21
61.691275
 31
0.0
  0
LINE
  5
6B7C
100
AcDbEntity
  8
STUD
100
AcDbLine
 10
83.236863
 20
60.32111
 30
0.0
 11
81.729692
 21
61.191275
 31
0.0
  0
LINE
  5
6B7D
100
AcDbEntity
  8
STUD
100
AcDbLine
 10
83.180263
 20
60.288432
 30
0.0
 11
81.615655
 21
61.191759
 31
0.0
  0
LINE
  5
6B80
100
AcDbEntity
  8
STUD
100
AcDbLine
 10
84.687435
 20
59.483622
 30
0.0
 11
86.032226
 21
60.260038
 31
0.0
  0
LINE
  5
6B81
100
AcDbEntity
  8
STUD
100
AcDbLine
 10
84.687435
 20
59.483622
 30
0.0
 11
83.74434
 21
60.028118
 31
0.0
  0
POLYLINE
  5
6B8F
100
AcDbEntity
  8
STUD
100
AcDb2dPolyline
 66
     1
 10
0.0
 20
0.0
 30
0.0
  0
VERTEX
  5
6B90
100
AcDbEntity
  8
STUD
100
AcDbVertex
100
AcDb2dVertex
 10
83.236863
 20
59.774963
 30
0.0
  0
VERTEX
  5
6B91
100
AcDbEntity
  8
STUD
100
AcDbVertex
100
AcDb2dVertex
 10
83.236863
 20
60.32111
 30
0.0
  0
VERTEX
  5
6B92
100
AcDbEntity
  8
STUD
100
AcDbVertex
100
AcDb2dVertex
 10
83.180263
 20
60.288432
 30
0.0
  0
VERTEX
  5
6B93
100
AcDbEntity
  8
STUD
100
AcDbVertex
100
AcDb2dVertex
 10
83.180263
 20
59.669392
 30
0.0
  0
VERTEX
  5
6B94
100
AcDbEntity
  8
STUD
100
AcDbVertex
100
AcDb2dVertex
 10
83.68774
 20
60.61594
 30
0.0
  0
VERTEX
  5
6B95
100
AcDbEntity
  8
STUD
100
AcDbVertex
100
AcDb2dVertex
 10
83.68774
 20
59.99544
 30
0.0
  0
VERTEX
  5
6B96
100
AcDbEntity
  8
STUD
100
AcDbVertex
100
AcDb2dVertex
 10
83.74434
 20
60.028118
 30
0.0
  0
VERTEX
  5
6B97
100
AcDbEntity
  8
STUD
100
AcDbVertex
100
AcDb2dVertex
 10
83.74434
 20
60.648618
 30
0.0
  0
VERTEX
  5
6B98
100
AcDbEntity
  8
STUD
100
AcDbVertex
100
AcDb2dVertex
 10
83.68774
 20
60.61594
 30
0.0
  0
SEQEND
  5
6B99
100
AcDbEntity
  8
STUD
  0
LINE
  5
6B9A
100
AcDbEntity
  8
STUD
100
AcDbLine
 10
84.687435
 20
59.418266
 30
0.0
 11
86.032226
 21
60.194682
 31
0.0
  0
LINE
  5
6B9B
100
AcDbEntity
  8
STUD
100
AcDbLine
 10
84.687435
 20
59.418266
 30
0.0
 11
84.687435
 21
59.418266
 31
0.0
  0
LINE
  5
6B9C
100
AcDbEntity
  8
STUD
100
AcDbLine
 10
84.687435
 20
59.418266
 30
0.0
 11
83.68774
 21
59.99544
 31
0.0
  0
LINE
  5
6B9D
100
AcDbEntity
  8
STUD
100
AcDbLine
 10
95.450927
 20
69.228477
 30
0.0
 11
96.373552
 21
69.761155
 31
0.0
  0
LINE
  5
6B9E
100
AcDbEntity
  8
STUD
100
AcDbLine
 10
95.564964
 20
69.227994
 30
0.0
 11
96.43099
 21
69.727994
 31
0.0
  0
LINE
  5
6B9F
100
AcDbEntity
  8
STUD
100
AcDbLine
 10
97.072135
 20
68.357828
 30
0.0
 11
95.564964
 21
69.227994
 31
0.0
  0
LINE
  5
6BA0
100
AcDbEntity
  8
STUD
100
AcDbLine
 10
97.015535
 20
68.32515
 30
0.0
 11
95.450927
 21
69.228477
 31
0.0
  0
LINE
  5
6BA3
100
AcDbEntity
  8
STUD
100
AcDbLine
 10
98.522706
 20
67.520341
 30
0.0
 11
99.867498
 21
68.296756
 31
0.0
  0
LINE
  5
6BA4
100
AcDbEntity
  8
STUD
100
AcDbLine
 10
98.522706
 20
67.520341
 30
0.0
 11
97.579612
 21
68.064836
 31
0.0
  0
POLYLINE
  5
6BB2
100
AcDbEntity
  8
STUD
100
AcDb2dPolyline
 66
     1
 10
0.0
 20
0.0
 30
0.0
  0
VERTEX
  5
6BB3
100
AcDbEntity
  8
STUD
100
AcDbVertex
100
AcDb2dVertex
 10
97.072135
 20
67.811681
 30
0.0
  0
VERTEX
  5
6BB4
100
AcDbEntity
  8
STUD
100
AcDbVertex
100
AcDb2dVertex
 10
97.072135
 20
68.357828
 30
0.0
  0
VERTEX
  5
6BB5
100
AcDbEntity
  8
STUD
100
AcDbVertex
100
AcDb2dVertex
 10
97.015535
 20
68.32515
 30
0.0
  0
VERTEX
  5
6BB6
100
AcDbEntity
  8
STUD
100
AcDbVertex
100
AcDb2dVertex
 10
97.015535
 20
67.706111
 30
0.0
  0
VERTEX
  5
6BB7
100
AcDbEntity
  8
STUD
100
AcDbVertex
100
AcDb2dVertex
 10
97.523012
 20
68.652659
 30
0.0
  0
VERTEX
  5
6BB8
100
AcDbEntity
  8
STUD
100
AcDbVertex
100
AcDb2dVertex
 10
97.523012
 20
68.032158
 30
0.0
  0
VERTEX
  5
6BB9
100
AcDbEntity
  8
STUD
100
AcDbVertex
100
AcDb2dVertex
 10
97.579612
 20
68.064836
 30
0.0
  0
VERTEX
  5
6BBA
100
AcDbEntity
  8
STUD
100
AcDbVertex
100
AcDb2dVertex
 10
97.579612
 20
68.685337
 30
0.0
  0
VERTEX
  5
6BBB
100
AcDbEntity
  8
STUD
100
AcDbVertex
100
AcDb2dVertex
 10
97.523012
 20
68.652659
 30
0.0
  0
SEQEND
  5
6BBC
100
AcDbEntity
  8
STUD
  0
LINE
  5
6BBD
100
AcDbEntity
  8
STUD
100
AcDbLine
 10
98.522706
 20
67.454985
 30
0.0
 11
99.867498
 21
68.2314
 31
0.0
  0
LINE
  5
6BBE
100
AcDbEntity
  8
STUD
100
AcDbLine
 10
98.522706
 20
67.454985
 30
0.0
 11
98.522706
 21
67.454985
 31
0.0
  0
LINE
  5
6BBF
100
AcDbEntity
  8
STUD
100
AcDbLine
 10
98.522706
 20
67.454985
 30
0.0
 11
97.523012
 21
68.032158
 31
0.0
  0
LINE
  5
6BC0
100
AcDbEntity
  8
STUD
100
AcDbLine
 10
109.307333
 20
77.228477
 30
0.0
 11
110.229959
 21
77.761155
 31
0.0
  0
LINE
  5
6BC1
100
AcDbEntity
  8
STUD
100
AcDbLine
 10
109.421371
 20
77.227994
 30
0.0
 11
110.287396
 21
77.727994
 31
0.0
  0
LINE
  5
6BC2
100
AcDbEntity
  8
STUD
100
AcDbLine
 10
110.928542
 20
76.357828
 30
0.0
 11
109.421371
 21
77.227994
 31
0.0
  0
LINE
  5
6BC3
100
AcDbEntity
  8
STUD
100
AcDbLine
 10
110.871942
 20
76.32515
 30
0.0
 11
109.307333
 21
77.228477
 31
0.0
  0
LINE
  5
6BC6
100
AcDbEntity
  8
STUD
100
AcDbLine
 10
112.379113
 20
75.520341
 30
0.0
 11
113.723904
 21
76.296756
 31
0.0
  0
LINE
  5
6BC7
100
AcDbEntity
  8
STUD
100
AcDbLine
 10
112.379113
 20
75.520341
 30
0.0
 11
111.436018
 21
76.064836
 31
0.0
  0
POLYLINE
  5
6BD5
100
AcDbEntity
  8
STUD
100
AcDb2dPolyline
 66
     1
 10
0.0
 20
0.0
 30
0.0
  0
VERTEX
  5
6BD6
100
AcDbEntity
  8
STUD
100
AcDbVertex
100
AcDb2dVertex
 10
110.928542
 20
75.811681
 30
0.0
  0
VERTEX
  5
6BD7
100
AcDbEntity
  8
STUD
100
AcDbVertex
100
AcDb2dVertex
 10
110.928542
 20
76.357828
 30
0.0
  0
VERTEX
  5
6BD8
100
AcDbEntity
  8
STUD
100
AcDbVertex
100
AcDb2dVertex
 10
110.871942
 20
76.32515
 30
0.0
  0
VERTEX
  5
6BD9
100
AcDbEntity
  8
STUD
100
AcDbVertex
100
AcDb2dVertex
 10
110.871942
 20
75.706111
 30
0.0
  0
VERTEX
  5
6BDA
100
AcDbEntity
  8
STUD
100
AcDbVertex
100
AcDb2dVertex
 10
111.379418
 20
76.652659
 30
0.0
  0
VERTEX
  5
6BDB
100
AcDbEntity
  8
STUD
100
AcDbVertex
100
AcDb2dVertex
 10
111.379418
 20
76.032158
 30
0.0
  0
VERTEX
  5
6BDC
100
AcDbEntity
  8
STUD
100
AcDbVertex
100
AcDb2dVertex
 10
111.436018
 20
76.064836
 30
0.0
  0
VERTEX
  5
6BDD
100
AcDbEntity
  8
STUD
100
AcDbVertex
100
AcDb2dVertex
 10
111.436018
 20
76.685337
 30
0.0
  0
VERTEX
  5
6BDE
100
AcDbEntity
  8
STUD
100
AcDbVertex
100
AcDb2dVertex
 10
111.379418
 20
76.652659
 30
0.0
  0
SEQEND
  5
6BDF
100
AcDbEntity
  8
STUD
  0
LINE
  5
6BE0
100
AcDbEntity
  8
STUD
100
AcDbLine
 10
112.379113
 20
75.454985
 30
0.0
 11
113.723904
 21
76.2314
 31
0.0
  0
LINE
  5
6BE1
100
AcDbEntity
  8
STUD
100
AcDbLine
 10
112.379113
 20
75.454985
 30
0.0
 11
112.379113
 21
75.454985
 31
0.0
  0
LINE
  5
6BE2
100
AcDbEntity
  8
STUD
100
AcDbLine
 10
112.379113
 20
75.454985
 30
0.0
 11
111.379418
 21
76.032158
 31
0.0
  0
LINE
  5
6BE3
100
AcDbEntity
  8
STUD
100
AcDbLine
 10
123.16374
 20
85.228477
 30
0.0
 11
124.086365
 21
85.761155
 31
0.0
  0
LINE
  5
6BE4
100
AcDbEntity
  8
STUD
100
AcDbLine
 10
123.277777
 20
85.227994
 30
0.0
 11
124.143803
 21
85.727994
 31
0.0
  0
LINE
  5
6BE5
100
AcDbEntity
  8
STUD
100
AcDbLine
 10
124.784948
 20
84.357828
 30
0.0
 11
123.277777
 21
85.227994
 31
0.0
  0
LINE
  5
6BE6
100
AcDbEntity
  8
STUD
100
AcDbLine
 10
124.728348
 20
84.32515
 30
0.0
 11
123.16374
 21
85.228477
 31
0.0
  0
LINE
  5
6BE9
100
AcDbEntity
  8
STUD
100
AcDbLine
 10
126.235519
 20
83.520341
 30
0.0
 11
127.58031
 21
84.296756
 31
0.0
  0
LINE
  5
6BEA
100
AcDbEntity
  8
STUD
100
AcDbLine
 10
126.235519
 20
83.520341
 30
0.0
 11
125.292425
 21
84.064836
 31
0.0
  0
POLYLINE
  5
6BF8
100
AcDbEntity
  8
STUD
100
AcDb2dPolyline
 66
     1
 10
0.0
 20
0.0
 30
0.0
  0
VERTEX
  5
6BF9
100
AcDbEntity
  8
STUD
100
AcDbVertex
100
AcDb2dVertex
 10
124.784948
 20
83.811681
 30
0.0
  0
VERTEX
  5
6BFA
100
AcDbEntity
  8
STUD
100
AcDbVertex
100
AcDb2dVertex
 10
124.784948
 20
84.357828
 30
0.0
  0
VERTEX
  5
6BFB
100
AcDbEntity
  8
STUD
100
AcDbVertex
100
AcDb2dVertex
 10
124.728348
 20
84.32515
 30
0.0
  0
VERTEX
  5
6BFC
100
AcDbEntity
  8
STUD
100
AcDbVertex
100
AcDb2dVertex
 10
124.728348
 20
83.706111
 30
0.0
  0
VERTEX
  5
6BFD
100
AcDbEntity
  8
STUD
100
AcDbVertex
100
AcDb2dVertex
 10
125.235825
 20
84.652659
 30
0.0
  0
VERTEX
  5
6BFE
100
AcDbEntity
  8
STUD
100
AcDbVertex
100
AcDb2dVertex
 10
125.235825
 20
84.032158
 30
0.0
  0
VERTEX
  5
6BFF
100
AcDbEntity
  8
STUD
100
AcDbVertex
100
AcDb2dVertex
 10
125.292425
 20
84.064836
 30
0.0
  0
VERTEX
  5
6C00
100
AcDbEntity
  8
STUD
100
AcDbVertex
100
AcDb2dVertex
 10
125.292425
 20
84.685337
 30
0.0
  0
VERTEX
  5
6C01
100
AcDbEntity
  8
STUD
100
AcDbVertex
100
AcDb2dVertex
 10
125.235825
 20
84.652659
 30
0.0
  0
SEQEND
  5
6C02
100
AcDbEntity
  8
STUD
  0
LINE
  5
6C03
100
AcDbEntity
  8
STUD
100
AcDbLine
 10
126.235519
 20
83.454985
 30
0.0
 11
127.58031
 21
84.2314
 31
0.0
  0
LINE
  5
6C04
100
AcDbEntity
  8
STUD
100
AcDbLine
 10
126.235519
 20
83.454985
 30
0.0
 11
126.235519
 21
83.454985
 31
0.0
  0
LINE
  5
6C05
100
AcDbEntity
  8
STUD
100
AcDbLine
 10
126.235519
 20
83.454985
 30
0.0
 11
125.235825
 21
84.032158
 31
0.0
  0
POLYLINE
  5
6C0F
100
AcDbEntity
  8
STUD
100
AcDb2dPolyline
 66
     1
 10
0.0
 20
0.0
 30
0.0
  0
VERTEX
  5
6C1F
100
AcDbEntity
  8
STUD
100
AcDbVertex
100
AcDb2dVertex
 10
123.221177
 20
86.260672
 30
0.0
  0
VERTEX
  5
6C16
100
AcDbEntity
  8
STUD
100
AcDbVertex
100
AcDb2dVertex
 10
124.784948
 20
85.357828
 30
0.0
  0
VERTEX
  5
6C15
100
AcDbEntity
  8
STUD
100
AcDbVertex
100
AcDb2dVertex
 10
124.784948
 20
84.738789
 30
0.0
  0
VERTEX
  5
6C14
100
AcDbEntity
  8
STUD
100
AcDbVertex
100
AcDb2dVertex
 10
125.292425
 20
85.685337
 30
0.0
  0
VERTEX
  5
6C13
100
AcDbEntity
  8
STUD
100
AcDbVertex
100
AcDb2dVertex
 10
125.292425
 20
85.064836
 30
0.0
  0
VERTEX
  5
6C10
100
AcDbEntity
  8
STUD
100
AcDbVertex
100
AcDb2dVertex
 10
126.292119
 20
84.487663
 30
0.0
  0
VERTEX
  5
6C11
100
AcDbEntity
  8
STUD
100
AcDbVertex
100
AcDb2dVertex
 10
127.58031
 20
85.2314
 30
0.0
  0
SEQEND
  5
6C12
100
AcDbEntity
  8
STUD
  0
POLYLINE
  5
6C20
100
AcDbEntity
  8
STUD
100
AcDb2dPolyline
 66
     1
 10
0.0
 20
0.0
 30
0.0
  0
VERTEX
  5
6C21
100
AcDbEntity
  8
STUD
100
AcDbVertex
100
AcDb2dVertex
 10
109.364771
 20
78.260672
 30
0.0
  0
VERTEX
  5
6C22
100
AcDbEntity
  8
STUD
100
AcDbVertex
100
AcDb2dVertex
 10
110.928542
 20
77.357828
 30
0.0
  0
VERTEX
  5
6C23
100
AcDbEntity
  8
STUD
100
AcDbVertex
100
AcDb2dVertex
 10
110.928542
 20
76.738789
 30
0.0
  0
VERTEX
  5
6C24
100
AcDbEntity
  8
STUD
100
AcDbVertex
100
AcDb2dVertex
 10
111.436018
 20
77.685337
 30
0.0
  0
VERTEX
  5
6C25
100
AcDbEntity
  8
STUD
100
AcDbVertex
100
AcDb2dVertex
 10
111.436018
 20
77.064836
 30
0.0
  0
VERTEX
  5
6C26
100
AcDbEntity
  8
STUD
100
AcDbVertex
100
AcDb2dVertex
 10
112.435713
 20
76.487663
 30
0.0
  0
VERTEX
  5
6C27
100
AcDbEntity
  8
STUD
100
AcDbVertex
100
AcDb2dVertex
 10
113.723904
 20
77.2314
 30
0.0
  0
SEQEND
  5
6C28
100
AcDbEntity
  8
STUD
  0
POLYLINE
  5
6C29
100
AcDbEntity
  8
STUD
100
AcDb2dPolyline
 66
     1
 10
0.0
 20
0.0
 30
0.0
  0
VERTEX
  5
6C2A
100
AcDbEntity
  8
STUD
100
AcDbVertex
100
AcDb2dVertex
 10
95.508364
 20
70.260672
 30
0.0
  0
VERTEX
  5
6C2B
100
AcDbEntity
  8
STUD
100
AcDbVertex
100
AcDb2dVertex
 10
97.072135
 20
69.357828
 30
0.0
  0
VERTEX
  5
6C2C
100
AcDbEntity
  8
STUD
100
AcDbVertex
100
AcDb2dVertex
 10
97.072135
 20
68.738789
 30
0.0
  0
VERTEX
  5
6C2D
100
AcDbEntity
  8
STUD
100
AcDbVertex
100
AcDb2dVertex
 10
97.579612
 20
69.685337
 30
0.0
  0
VERTEX
  5
6C2E
100
AcDbEntity
  8
STUD
100
AcDbVertex
100
AcDb2dVertex
 10
97.579612
 20
69.064836
 30
0.0
  0
VERTEX
  5
6C2F
100
AcDbEntity
  8
STUD
100
AcDbVertex
100
AcDb2dVertex
 10
98.579306
 20
68.487663
 30
0.0
  0
VERTEX
  5
6C30
100
AcDbEntity
  8
STUD
100
AcDbVertex
100
AcDb2dVertex
 10
99.867498
 20
69.2314
 30
0.0
  0
SEQEND
  5
6C31
100
AcDbEntity
  8
STUD
  0
POLYLINE
  5
6C32
100
AcDbEntity
  8
STUD
100
AcDb2dPolyline
 66
     1
 10
0.0
 20
0.0
 30
0.0
  0
VERTEX
  5
6C33
100
AcDbEntity
  8
STUD
100
AcDbVertex
100
AcDb2dVertex
 10
81.673092
 20
62.223953
 30
0.0
  0
VERTEX
  5
6C34
100
AcDbEntity
  8
STUD
100
AcDbVertex
100
AcDb2dVertex
 10
83.236863
 20
61.32111
 30
0.0
  0
VERTEX
  5
6C35
100
AcDbEntity
  8
STUD
100
AcDbVertex
100
AcDb2dVertex
 10
83.236863
 20
60.70207
 30
0.0
  0
VERTEX
  5
6C36
100
AcDbEntity
  8
STUD
100
AcDbVertex
100
AcDb2dVertex
 10
83.74434
 20
61.648618
 30
0.0
  0
VERTEX
  5
6C37
100
AcDbEntity
  8
STUD
100
AcDbVertex
100
AcDb2dVertex
 10
83.74434
 20
61.028118
 30
0.0
  0
VERTEX
  5
6C38
100
AcDbEntity
  8
STUD
100
AcDbVertex
100
AcDb2dVertex
 10
84.744035
 20
60.450944
 30
0.0
  0
VERTEX
  5
6C39
100
AcDbEntity
  8
STUD
100
AcDbVertex
100
AcDb2dVertex
 10
86.032226
 20
61.194682
 30
0.0
  0
SEQEND
  5
6C3A
100
AcDbEntity
  8
STUD
  0
POLYLINE
  5
6C3B
100
AcDbEntity
  8
STUD
100
AcDb2dPolyline
 66
     1
 10
0.0
 20
0.0
 30
0.0
  0
VERTEX
  5
6C3C
100
AcDbEntity
  8
STUD
100
AcDbVertex
100
AcDb2dVertex
 10
67.795551
 20
54.260672
 30
0.0
  0
VERTEX
  5
6C3D
100
AcDbEntity
  8
STUD
100
AcDbVertex
100
AcDb2dVertex
 10
69.359322
 20
53.357828
 30
0.0
  0
VERTEX
  5
6C3E
100
AcDbEntity
  8
STUD
100
AcDbVertex
100
AcDb2dVertex
 10
69.359322
 20
52.738789
 30
0.0
  0
VERTEX
  5
6C3F
100
AcDbEntity
  8
STUD
100
AcDbVertex
100
AcDb2dVertex
 10
69.866799
 20
53.685337
 30
0.0
  0
VERTEX
  5
6C40
100
AcDbEntity
  8
STUD
100
AcDbVertex
100
AcDb2dVertex
 10
69.866799
 20
53.064836
 30
0.0
  0
VERTEX
  5
6C41
100
AcDbEntity
  8
STUD
100
AcDbVertex
100
AcDb2dVertex
 10
70.866493
 20
52.487663
 30
0.0
  0
VERTEX
  5
6C42
100
AcDbEntity
  8
STUD
100
AcDbVertex
100
AcDb2dVertex
 10
72.154685
 20
53.2314
 30
0.0
  0
SEQEND
  5
6C43
100
AcDbEntity
  8
STUD
  0
LINE
  5
6C44
100
AcDbEntity
  8
STUD
100
AcDbLine
 10
112.379113
 20
75.520341
 30
0.0
 11
112.379113
 21
57.347768
 31
0.0
  0
LINE
  5
6C45
100
AcDbEntity
  8
STUD
100
AcDbLine
 10
112.441613
 20
75.491069
 30
0.0
 11
112.441613
 21
57.383632
 31
0.0
  0
POLYLINE
  5
7F87
100
AcDbEntity
  8
TRACK
100
AcDb2dPolyline
 66
     1
 10
0.0
 20
0.0
 30
0.0
  0
VERTEX
  5
7F88
100
AcDbEntity
  8
TRACK
100
AcDbVertex
100
AcDb2dVertex
 10
66.824725
 20
147.017842
 30
0.0
  0
SEQEND
  5
7F89
100
AcDbEntity
  8
TRACK
  0
LINE
  5
7FB7
100
AcDbEntity
  8
TRACK
100
AcDbLine
 10
131.508114
 20
130.533766
 30
0.0
 11
67.764301
 21
93.731258
 31
0.0
  0
LINE
  5
7FB8
100
AcDbEntity
  8
TRACK
100
AcDbLine
 10
134.584957
 20
127.054379
 30
0.0
 11
70.874068
 21
90.270881
 31
0.0
  0
LINE
  5
80C9
100
AcDbEntity
  8
TRACK
100
AcDbLine
 10
70.841143
 20
91.954843
 30
0.0
 11
134.584957
 21
128.75735
 31
0.0
  0
TEXT
  5
8502
100
AcDbEntity
  8
LINK
 62
     1
100
AcDbText
 10
-43.64408
 20
46.016007
 30
0.0
 40
3.0
  1
drawing list
  7
BLOCK
 72
     1
 11
-28.08
 21
46.016007
 31
0.0
100
AcDbText
1001
PE_URL
1000
Cemco_drawings.htm
  0
TEXT
  5
8503
100
AcDbEntity
  8
LINK
 62
     1
100
AcDbText
 10
-33.32526
 20
22.016007
 30
0.0
 40
3.0
  1
home
  7
BLOCK
 72
     1
 11
-28.08
 21
22.016007
 31
0.0
100
AcDbText
1001
PE_URL
1000
Cemco_drawings.htm
  0
TEXT
  5
8504
100
AcDbEntity
  8
LINK
 62
     1
100
AcDbText
 10
-52.74257
 20
34.016007
 30
0.0
 40
3.0
  1
Assembly drawing 10
  7
BLOCK
 72
     1
 11
-28.08
 21
34.016007
 31
0.0
100
AcDbText
1001
PE_URL
1000
Cemco_drawings.htm
  0
TEXT
  5
8505
100
AcDbEntity
  8
LINK
 62
     1
100
AcDbText
 10
-51.437971
 20
28.016007
 30
0.0
 40
3.0
  1
Cemco drawing list
  7
BLOCK
 72
     1
 11
-28.08
 21
28.016007
 31
0.0
100
AcDbText
1001
PE_URL
1000
Cemco_drawings.htm
  0
TEXT
  5
8514
100
AcDbEntity
  8
LINK
 62
     1
100
AcDbText
 10
-51.454824
 20
40.016007
 30
0.0
 40
3.0
  1
Assembly drawing 9
  7
BLOCK
 72
     1
 11
-28.08
 21
40.016007
 31
0.0
100
AcDbText
1001
PE_URL
1000
Cemco_drawings.htm
  0
MTEXT
  5
8519
100
AcDbEntity
  8
LINK
100
AcDbMText
 10
-17.004595
 20
4.396492
 30
0.0
 40
3.0
 41
0.0
 71
     7
 72
     1
  1
{Back}\P{Button}
  7
ARCH
  0
LEADER
  5
851A
100
AcDbEntity
  8
LINK
100
AcDbLeader
  3
LEADER
 72
     1
 73
     0
 74
     0
 40
0.125
 41
0.556034
 76
     7
 10
-0.666077
 20
13.352556
 30
0.0
 10
-13.120504
 20
20.98567
 30
0.0
 10
-23.078072
 20
20.839162
 30
0.0
 10
-28.262233
 20
16.877816
 30
0.0
 10
-26.568606
 20
6.778424
 30
0.0
 10
-22.771685
 20
5.748869
 30
0.0
 10
-18.175885
 20
5.602361
 30
0.0
 77
   256
  0
INSERT
  5
851B
100
AcDbEntity
  8
D-TEXT
100
AcDbBlockReference
 66
     1
  2
DETAIL_TITLE
 10
0.0
 20
0.0
 30
0.0
 41
24.0
 42
24.0
 43
24.0
1001
PE_URL
1000
6020-010.dwf
  0
ATTRIB
  5
851C
100
AcDbEntity
  8
D-TEXT
100
AcDbText
 10
27.924461
 20
15.603424
 30
0.0
 40
6.0
  1
FLAT STRAP LATERAL BRACING
  7
BLOCK
100
AcDbAttribute
  2
DETAIL_DISCRIPTION
 70
     0
  0
ATTRIB
  5
851D
100
AcDbEntity
  8
D-TEXT
100
AcDbText
 10
2.005419
 20
9.462231
 30
0.0
 40
6.0
  1
D-15
  7
BLD
 72
     1
 11
12.462231
 21
12.462231
 31
0.0
100
AcDbAttribute
  2
DETAIL_NO
 70
     0
 74
     2
  0
ATTRIB
  5
851E
100
AcDbEntity
  8
D-TEXT
100
AcDbText
 10
27.924461
 20
4.129176
 30
0.0
 40
4.5
  1
N. T. Scale 1/2" = 1'0"
  7
BLOCK
100
AcDbAttribute
  2
SCALE
 70
     0
  0
SEQEND
  5
851F
100
AcDbEntity
  8
D-TEXT
  0
MTEXT
  5
8538
100
AcDbEntity
  8
D-TEXT
100
AcDbMText
 10
0.562581
 20
66.561712
 30
0.0
 40
3.0
 41
61.625487
 71
     1
 72
     1
  1
{STRAP ON SIDE WITH SHEATHING }{REQUIRED ONLY IN AXIAL LOAD-}{ BEARING APPLICATIONS}
  7
ARCH
  0
MTEXT
  5
8539
100
AcDbEntity
  8
D-TEXT
100
AcDbMText
 10
0.885734
 20
97.334071
 30
0.0
 40
3.0
 41
61.621574
 71
     1
 72
     1
  1
{- TRACK BLOCKING-}\P{SIZE & GA. TO MATCH }{STUDS, PLACE AS REQ. }{AT EACH END OF WALL}
  7
ARCH
  0
MTEXT
  5
8543
100
AcDbEntity
  8
D-TEXT
100
AcDbMText
 10
121.567286
 20
55.871197
 30
0.0
 40
3.0
 41
68.752714
 71
     1
 72
     1
  1
{TYP. USED WHERE ONE SIDE OF DRYWALL IS APPLIED}
  7
ARCH
  0
POLYLINE
  5
85B0
100
AcDbEntity
  8
LAYOUT
100
AcDb2dPolyline
 66
     1
 10
0.0
 20
0.0
 30
0.0
 70
     1
  0
VERTEX
  5
85B1
100
AcDbEntity
  8
LAYOUT
100
AcDbVertex
100
AcDb2dVertex
 10
0.0
 20
0.0
 30
0.0
  0
VERTEX
  5
85B2
100
AcDbEntity
  8
LAYOUT
100
AcDbVertex
100
AcDb2dVertex
 10
246.48
 20
0.0
 30
0.0
  0
VERTEX
  5
85B3
100
AcDbEntity
  8
LAYOUT
100
AcDbVertex
100
AcDb2dVertex
 10
246.48
 20
190.32
 30
0.0
  0
VERTEX
  5
85B4
100
AcDbEntity
  8
LAYOUT
100
AcDbVertex
100
AcDb2dVertex
 10
190.32
 20
190.32
 30
0.0
  0
VERTEX
  5
85B5
100
AcDbEntity
  8
LAYOUT
100
AcDbVertex
100
AcDb2dVertex
 10
190.32
 20
246.48
 30
0.0
  0
VERTEX
  5
85B6
100
AcDbEntity
  8
LAYOUT
100
AcDbVertex
100
AcDb2dVertex
 10
0.0
 20
246.48
 30
0.0
  0
SEQEND
  5
85B7
100
AcDbEntity
  8
LAYOUT
  0
TEXT
  5
85B8
100
AcDbEntity
  8
LINK
100
AcDbText
 10
-51.100516
 20
2.19827
 30
0.0
 40
6.0
  1
24
  7
BLOCK
 11
-51.100516
 21
2.19827
 31
0.0
100
AcDbText
 73
     1
  0
POLYLINE
  5
85E5
100
AcDbEntity
  8
_KTI_CONTROL
 60
     1
100
AcDb3dPolyline
 66
     1
 10
0.0
 20
0.0
 30
0.0
 70
     8
1001
_KTI_ARCHT
1070
 12000
1000
ENVIRONMENT
1070
 10003
1000
6020-015
1070
 20000
1000
standard
1070
 20001
1000
f:\archt
1070
 20003
1000
j:\archt
1070
 20002
1000
f:\archt\tmp
1070
 20004
1002
{
1000
f:\archt\blks
1000
f:\archt\blks3d
1000
h:\archt\blks
1000
h:\archt\blks3d
1000
j:\archt\blks
1000
j:\archt\blks3d
1002
}
1070
 20005
1002
{
1000
f:\archt\slds
1002
}
1070
 20006
1002
{
1000
f:\archt\dclswin
1002
}
1070
 20007
1002
{
1000
f:\archt\docs
1002
}
1070
 20008
1002
{
1000
f:\archt\help
1002
}
  0
VERTEX
  5
85E6
100
AcDbEntity
  8
_KTI_CONTROL
100
AcDbVertex
100
AcDb3dPolylineVertex
 10
0.0
 20
0.0
 30
0.0
 70
    32
  0
VERTEX
  5
85E7
100
AcDbEntity
  8
_KTI_CONTROL
100
AcDbVertex
100
AcDb3dPolylineVertex
 10
0.0
 20
0.0
 30
0.0
 70
    32
  0
SEQEND
  5
85E8
100
AcDbEntity
  8
_KTI_CONTROL
  0
POLYLINE
  5
85E9
100
AcDbEntity
  8
_KTI_CONTROL
 60
     1
100
AcDb3dPolyline
 66
     1
 10
0.0
 20
0.0
 30
0.0
 70
     8
1001
_KTI_ARCHT
1070
 12000
1000
ARCHTVARS
1070
 10003
1000
6020-015
1070
 12030
1000
in
1070
 12020
1070
     1
1070
 12021
1070
     0
1070
 12070
1070
     0
1070
 12071
1070
     1
1070
 12907
1070
     0
1070
 12072
1070
     2
1070
 12073
1070
    48
1070
 12074
1070
     0
1070
 12080
1070
     1
1070
 12092
1070
     1
1070
 12096
1070
     0
1070
 12095
1070
     0
1070
 12081
1070
     1
1070
 12082
1070
     1
1070
 12083
1070
     1
1070
 12084
1070
     1
1070
 12085
1070
     0
1070
 12086
1070
     1
1070
 12087
1070
     0
1070
 12088
1070
     0
1070
 12097
1070
     1
1070
 12089
1070
     4
1070
 12090
1070
     6
1070
 12091
1070
     1
1070
 12045
1000
standard
1070
 12046
1000

1070
 12047
1000
standard
1070
 12048
1000

1070
 12049
1000

1070
 12093
1070
     1
1070
 12094
1070
     1
1070
 12908
1070
     0
1070
 12909
1070
     0
1070
 12911
1070
     0
1070
 12910
1070
     0
1070
 12912
1070
     0
1070
 12098
1070
   640
1070
 12060
1002
{
1000

1000

1000

1000

1002
}
1070
 12904
1002
{
1070
     0
1070
     0
1070
     0
1070
     0
1070
     0
1002
}
1070
 12905
1002
{
1040
0.0
1040
0.0
1040
0.0
1040
0.0
1040
0.0
1002
}
1070
 12906
1002
{
1000

1000

1000

1000

1000

1002
}
1070
 12040
1002
{
1002
}
  0
VERTEX
  5
85EA
100
AcDbEntity
  8
_KTI_CONTROL
100
AcDbVertex
100
AcDb3dPolylineVertex
 10
0.0
 20
0.0
 30
0.0
 70
    32
  0
VERTEX
  5
85EB
100
AcDbEntity
  8
_KTI_CONTROL
100
AcDbVertex
100
AcDb3dPolylineVertex
 10
0.0
 20
0.0
 30
0.0
 70
    32
  0
SEQEND
  5
85EC
100
AcDbEntity
  8
_KTI_CONTROL
  0
ENDSEC
  0
SECTION
  2
OBJECTS
  0
DICTIONARY
  5
C
100
AcDbDictionary
  3
ACAD_GROUP
350
D
  3
ACAD_MLINESTYLE
350
E
  0
DICTIONARY
  5
D
102
{ACAD_REACTORS
330
C
102
}
100
AcDbDictionary
  3
*A2
350
5168
  3
STUD_3P625X1P625X96_WOLEENCHALA
350
2174
  0
DICTIONARY
  5
E
102
{ACAD_REACTORS
330
C
102
}
100
AcDbDictionary
  3
STANDARD
350
13
  0
GROUP
  5
5168
102
{ACAD_REACTORS
330
D
102
}
100
AcDbGroup
300

 70
     1
 71
     1
  0
GROUP
  5
2174
102
{ACAD_REACTORS
330
D
102
}
100
AcDbGroup
300
stud_3p625x1p625x96_woleEnchala
 70
     0
 71
     1
  0
MLINESTYLE
  5
13
102
{ACAD_REACTORS
330
E
102
}
100
AcDbMlineStyle
  2
STANDARD
 70
     0
  3

 62
     0
 51
90.0
 52
90.0
 71
     2
 49
0.5
 62
   256
  6
BYLAYER
 49
-0.5
 62
   256
  6
BYLAYER
  0
ENDSEC
  0
EOF
