  0
SECTION
  2
HEADER
  9
$ACADVER
  1
AC1012
  9
$DWGCODEPAGE
  3
ansi_1252
  9
$INSBASE
 10
0.0
 20
0.0
 30
0.0
  9
$EXTMIN
 10
-52.74257
 20
0.0
 30
0.0
  9
$EXTMAX
 10
190.32
 20
165.95304
 30
0.0
  9
$LIMMIN
 10
0.0
 20
0.0
  9
$LIMMAX
 10
134.456804
 20
169.919952
  9
$ORTHOMODE
 70
     1
  9
$REGENMODE
 70
     1
  9
$FILLMODE
 70
     1
  9
$QTEXTMODE
 70
     0
  9
$MIRRTEXT
 70
     1
  9
$DRAGMODE
 70
     2
  9
$LTSCALE
 40
12.0
  9
$OSMODE
 70
    39
  9
$ATTMODE
 70
     1
  9
$TEXTSIZE
 40
1.0
  9
$TRACEWID
 40
3.0
  9
$TEXTSTYLE
  7
ARCH
  9
$CLAYER
  8
D-TEXT
  9
$CELTYPE
  6
BYLAYER
  9
$CECOLOR
 62
   256
  9
$CELTSCALE
 40
1.0
  9
$DELOBJ
 70
     1
  9
$DISPSILH
 70
     0
  9
$DIMSCALE
 40
24.0
  9
$DIMASZ
 40
0.1875
  9
$DIMEXO
 40
0.0625
  9
$DIMDLI
 40
0.375
  9
$DIMRND
 40
0.0
  9
$DIMDLE
 40
0.0
  9
$DIMEXE
 40
0.1875
  9
$DIMTP
 40
0.0
  9
$DIMTM
 40
0.0
  9
$DIMTXT
 40
0.125
  9
$DIMCEN
 40
0.1875
  9
$DIMTSZ
 40
0.0
  9
$DIMTOL
 70
     0
  9
$DIMLIM
 70
     0
  9
$DIMTIH
 70
     1
  9
$DIMTOH
 70
     1
  9
$DIMSE1
 70
     0
  9
$DIMSE2
 70
     0
  9
$DIMTAD
 70
     0
  9
$DIMZIN
 70
     0
  9
$DIMBLK
  1
OBLIQUE
  9
$DIMASO
 70
     1
  9
$DIMSHO
 70
     1
  9
$DIMPOST
  1

  9
$DIMAPOST
  1

  9
$DIMALT
 70
     0
  9
$DIMALTD
 70
     1
  9
$DIMALTF
 40
25.4
  9
$DIMLFAC
 40
1.0
  9
$DIMTOFL
 70
     0
  9
$DIMTVP
 40
0.0
  9
$DIMTIX
 70
     0
  9
$DIMSOXD
 70
     0
  9
$DIMSAH
 70
     1
  9
$DIMBLK1
  1
_OPEN90
  9
$DIMBLK2
  1
_OPEN90
  9
$DIMSTYLE
  2
LEADER
  9
$DIMCLRD
 70
     0
  9
$DIMCLRE
 70
     0
  9
$DIMCLRT
 70
     0
  9
$DIMTFAC
 40
1.0
  9
$DIMGAP
 40
0.125
  9
$DIMJUST
 70
     0
  9
$DIMSD1
 70
     0
  9
$DIMSD2
 70
     0
  9
$DIMTOLJ
 70
     0
  9
$DIMTZIN
 70
     0
  9
$DIMALTZ
 70
     0
  9
$DIMALTTZ
 70
     0
  9
$DIMFIT
 70
     1
  9
$DIMUPT
 70
     1
  9
$DIMUNIT
 70
     4
  9
$DIMDEC
 70
     4
  9
$DIMTDEC
 70
     2
  9
$DIMALTU
 70
     2
  9
$DIMALTTD
 70
     1
  9
$DIMTXSTY
  7
ARCH
  9
$DIMAUNIT
 70
     0
  9
$LUNITS
 70
     4
  9
$LUPREC
 70
     4
  9
$SKETCHINC
 40
12.0
  9
$FILLETRAD
 40
0.0
  9
$AUNITS
 70
     0
  9
$AUPREC
 70
     0
  9
$MENU
  1
.
  9
$ELEVATION
 40
0.0
  9
$PELEVATION
 40
0.0
  9
$THICKNESS
 40
0.0
  9
$LIMCHECK
 70
     0
  9
$BLIPMODE
 70
     1
  9
$CHAMFERA
 40
24.0
  9
$CHAMFERB
 40
24.0
  9
$CHAMFERC
 40
24.0
  9
$CHAMFERD
 40
0.785398
  9
$SKPOLY
 70
     0
  9
$TDCREATE
 40
2451085.516723610
  9
$TDUPDATE
 40
2451103.333470138
  9
$TDINDWG
 40
0.0468578704
  9
$TDUSRTIMER
 40
0.0468578704
  9
$USRTIMER
 70
     1
  9
$ANGBASE
 50
0.0
  9
$ANGDIR
 70
     0
  9
$PDMODE
 70
    34
  9
$PDSIZE
 40
0.0
  9
$PLINEWID
 40
0.0
  9
$COORDS
 70
     2
  9
$SPLFRAME
 70
     0
  9
$SPLINETYPE
 70
     6
  9
$SPLINESEGS
 70
     8
  9
$ATTDIA
 70
     0
  9
$ATTREQ
 70
     1
  9
$HANDLING
 70
     1
  9
$HANDSEED
  5
86A5
  9
$SURFTAB1
 70
     6
  9
$SURFTAB2
 70
     6
  9
$SURFTYPE
 70
     6
  9
$SURFU
 70
     6
  9
$SURFV
 70
     6
  9
$UCSNAME
  2

  9
$UCSORG
 10
0.0
 20
0.0
 30
0.0
  9
$UCSXDIR
 10
1.0
 20
0.0
 30
0.0
  9
$UCSYDIR
 10
0.0
 20
1.0
 30
0.0
  9
$PUCSNAME
  2

  9
$PUCSORG
 10
0.0
 20
0.0
 30
0.0
  9
$PUCSXDIR
 10
1.0
 20
0.0
 30
0.0
  9
$PUCSYDIR
 10
0.0
 20
1.0
 30
0.0
  9
$USERI1
 70
     0
  9
$USERI2
 70
     0
  9
$USERI3
 70
     0
  9
$USERI4
 70
     0
  9
$USERI5
 70
     0
  9
$USERR1
 40
0.0
  9
$USERR2
 40
0.0
  9
$USERR3
 40
0.0
  9
$USERR4
 40
0.0
  9
$USERR5
 40
0.0
  9
$WORLDVIEW
 70
     1
  9
$SHADEDGE
 70
     3
  9
$SHADEDIF
 70
    70
  9
$TILEMODE
 70
     1
  9
$MAXACTVP
 70
    16
  9
$PINSBASE
 10
0.0
 20
0.0
 30
0.0
  9
$PLIMCHECK
 70
     0
  9
$PEXTMIN
 10
1.000000E+20
 20
1.000000E+20
 30
1.000000E+20
  9
$PEXTMAX
 10
-1.000000E+20
 20
-1.000000E+20
 30
-1.000000E+20
  9
$PLIMMIN
 10
0.0
 20
0.0
  9
$PLIMMAX
 10
12.0
 20
9.0
  9
$UNITMODE
 70
     0
  9
$VISRETAIN
 70
     0
  9
$PLINEGEN
 70
     0
  9
$PSLTSCALE
 70
     1
  9
$TREEDEPTH
 70
  3020
  9
$PICKSTYLE
 70
     1
  9
$CMLSTYLE
  2
STANDARD
  9
$CMLJUST
 70
     0
  9
$CMLSCALE
 40
1.0
  9
$SAVEIMAGES
 70
     0
  0
ENDSEC
  0
SECTION
  2
CLASSES
  0
ENDSEC
  0
SECTION
  2
TABLES
  0
TABLE
  2
VPORT
  5
8
100
AcDbSymbolTable
 70
     4
  0
VPORT
  5
86A4
100
AcDbSymbolTableRecord
100
AcDbViewportTableRecord
  2
*ACTIVE
 70
     0
 10
0.0
 20
0.0
 11
1.0
 21
1.0
 12
69.603186
 22
82.97652
 13
0.0
 23
0.0
 14
0.25
 24
0.25
 15
12.0
 25
12.0
 16
0.0
 26
0.0
 36
1.0
 17
0.0
 27
0.0
 37
0.0
 40
165.95304
 41
1.474462
 42
50.0
 43
0.0
 44
0.0
 50
0.0
 51
0.0
 71
     0
 72
   100
 73
     1
 74
     1
 75
     0
 76
     0
 77
     0
 78
     1
  0
ENDTAB
  0
TABLE
  2
LTYPE
  5
5
100
AcDbSymbolTable
 70
     1
  0
LTYPE
  5
14
100
AcDbSymbolTableRecord
100
AcDbLinetypeTableRecord
  2
BYBLOCK
 70
     0
  3

 72
    65
 73
     0
 40
0.0
  0
LTYPE
  5
15
100
AcDbSymbolTableRecord
100
AcDbLinetypeTableRecord
  2
BYLAYER
 70
     0
  3

 72
    65
 73
     0
 40
0.0
  0
LTYPE
  5
16
100
AcDbSymbolTableRecord
100
AcDbLinetypeTableRecord
  2
CONTINUOUS
 70
    64
  3
Solid line
 72
    65
 73
     0
 40
0.0
  0
ENDTAB
  0
TABLE
  2
LAYER
  5
2
100
AcDbSymbolTable
 70
    10
  0
LAYER
  5
F
100
AcDbSymbolTableRecord
100
AcDbLayerTableRecord
  2
0
 70
    64
 62
     7
  6
CONTINUOUS
  0
LAYER
  5
2F
100
AcDbSymbolTableRecord
100
AcDbLayerTableRecord
  2
STUD
 70
    64
 62
     5
  6
CONTINUOUS
  0
LAYER
  5
30
100
AcDbSymbolTableRecord
100
AcDbLayerTableRecord
  2
TRACK
 70
    64
 62
     1
  6
CONTINUOUS
  0
LAYER
  5
34
100
AcDbSymbolTableRecord
100
AcDbLayerTableRecord
  2
STEEL
 70
    64
 62
   142
  6
CONTINUOUS
  0
LAYER
  5
37
100
AcDbSymbolTableRecord
100
AcDbLayerTableRecord
  2
FASTENER
 70
    64
 62
     7
  6
CONTINUOUS
  0
LAYER
  5
38
100
AcDbSymbolTableRecord
100
AcDbLayerTableRecord
  2
GYPSUM
 70
    64
 62
     7
  6
CONTINUOUS
  0
LAYER
  5
3B
100
AcDbSymbolTableRecord
100
AcDbLayerTableRecord
  2
_KTI_CONTROL
 70
    69
 62
     7
  6
CONTINUOUS
  0
LAYER
  5
80C9
100
AcDbSymbolTableRecord
100
AcDbLayerTableRecord
  2
LINK
 70
    64
 62
     7
  6
CONTINUOUS
  0
LAYER
  5
84B8
100
AcDbSymbolTableRecord
100
AcDbLayerTableRecord
  2
D-TEXT
 70
    64
 62
    94
  6
CONTINUOUS
  0
LAYER
  5
84B9
100
AcDbSymbolTableRecord
100
AcDbLayerTableRecord
  2
LAYOUT
 70
    65
 62
    52
  6
CONTINUOUS
  0
ENDTAB
  0
TABLE
  2
STYLE
  5
3
100
AcDbSymbolTable
 70
     4
  0
STYLE
  5
10
100
AcDbSymbolTableRecord
100
AcDbTextStyleTableRecord
  2
STANDARD
 70
    64
 40
0.0
 41
1.0
 50
0.0
 71
     0
 42
2.0
  3
txt
  4

  0
STYLE
  5
72
100
AcDbSymbolTableRecord
100
AcDbTextStyleTableRecord
  2
ARCH
 70
    64
 40
1.0
 41
1.0
 50
0.0
 71
     0
 42
1.0
  3
F:\r13\com\fonts\Architxt.shx
  4

  0
STYLE
  5
6C50
100
AcDbSymbolTableRecord
100
AcDbTextStyleTableRecord
  2
BLOCK
 70
    64
 40
0.0
 41
1.0
 50
0.0
 71
     0
 42
2.0
  3
F:\r13\com\fonts\monos.ttf
  4

  0
STYLE
  5
84C2
100
AcDbSymbolTableRecord
100
AcDbTextStyleTableRecord
  2
BLD
 70
    64
 40
0.0
 41
1.0
 50
0.0
 71
     0
 42
1.5
  3
F:\r13\com\fonts\monos.ttf
  4

  0
ENDTAB
  0
TABLE
  2
VIEW
  5
6
100
AcDbSymbolTable
 70
     1
  0
VIEW
  5
8087
100
AcDbSymbolTableRecord
100
AcDbViewTableRecord
  2
ALL
 70
     0
 40
150.643319
 10
74.171903
 20
84.33527
 41
113.064827
 11
0.0
 21
0.0
 31
1.0
 12
0.0
 22
0.0
 32
0.0
 42
50.0
 43
0.0
 44
0.0
 50
0.0
 71
     0
  0
ENDTAB
  0
TABLE
  2
UCS
  5
7
100
AcDbSymbolTable
 70
     0
  0
ENDTAB
  0
TABLE
  2
APPID
  5
9
100
AcDbSymbolTable
 70
     5
  0
APPID
  5
11
100
AcDbSymbolTableRecord
100
AcDbRegAppTableRecord
  2
ACAD
 70
     0
  0
APPID
  5
3A
100
AcDbSymbolTableRecord
100
AcDbRegAppTableRecord
  2
_KTI_ARCHT
 70
     0
  0
APPID
  5
280D
100
AcDbSymbolTableRecord
100
AcDbRegAppTableRecord
  2
AVE_FINISH
 70
     0
  0
APPID
  5
280E
100
AcDbSymbolTableRecord
100
AcDbRegAppTableRecord
  2
ADE
 70
     0
  0
APPID
  5
80A1
100
AcDbSymbolTableRecord
100
AcDbRegAppTableRecord
  2
PE_URL
 70
     0
  0
ENDTAB
  0
TABLE
  2
DIMSTYLE
  5
A
100
AcDbSymbolTable
 70
     2
  0
DIMSTYLE
105
1D
100
AcDbSymbolTableRecord
100
AcDbDimStyleTableRecord
  2
STANDARD
 70
     0
  3

  4

  5

  6
_CLOSED
  7
_CLOSED
 40
24.0
 41
0.1875
 42
0.0625
 43
0.375
 44
0.1875
 45
0.0
 46
0.0
 47
0.0
 48
0.0
140
0.18
141
0.0625
142
0.0
143
25.4
144
1.0
145
0.0
146
1.0
147
0.09
 71
     0
 72
     0
 73
     1
 74
     1
 75
     0
 76
     0
 77
     0
 78
     0
170
     0
171
     2
172
     0
173
     1
174
     0
175
     0
176
     0
177
     0
178
     0
270
     2
271
     4
272
     4
273
     2
274
     2
340
10
275
     0
280
     0
281
     0
282
     0
283
     1
284
     0
285
     0
286
     0
287
     3
288
     0
  0
DIMSTYLE
105
18D3
100
AcDbSymbolTableRecord
100
AcDbDimStyleTableRecord
  2
LEADER
 70
     0
  3

  4

  5
OBLIQUE
  6
_OPEN90
  7
_OPEN90
 40
24.0
 41
0.1875
 42
0.0625
 43
0.375
 44
0.1875
 45
0.0
 46
0.0
 47
0.0
 48
0.0
140
0.125
141
0.1875
142
0.0
143
25.4
144
1.0
145
0.0
146
1.0
147
0.125
 71
     0
 72
     0
 73
     1
 74
     1
 75
     0
 76
     0
 77
     0
 78
     0
170
     0
171
     1
172
     0
173
     1
174
     0
175
     0
176
     0
177
     0
178
     0
270
     4
271
     4
272
     2
273
     2
274
     1
340
72
275
     0
280
     0
281
     0
282
     0
283
     0
284
     0
285
     0
286
     0
287
     1
288
     1
  0
ENDTAB
  0
TABLE
  2
BLOCK_RECORD
  5
1
100
AcDbSymbolTable
 70
     1
  0
BLOCK_RECORD
  5
1A
100
AcDbSymbolTableRecord
100
AcDbBlockTableRecord
  2
*MODEL_SPACE
  0
BLOCK_RECORD
  5
17
100
AcDbSymbolTableRecord
100
AcDbBlockTableRecord
  2
*PAPER_SPACE
  0
BLOCK_RECORD
  5
84A3
100
AcDbSymbolTableRecord
100
AcDbBlockTableRecord
  2
DETAIL_TITLE
  0
ENDTAB
  0
ENDSEC
  0
SECTION
  2
BLOCKS
  0
BLOCK
  5
1B
100
AcDbEntity
  8
0
100
AcDbBlockBegin
  2
*MODEL_SPACE
 70
     0
 10
0.0
 20
0.0
 30
0.0
  3
*MODEL_SPACE
  1

  0
ENDBLK
  5
1C
100
AcDbEntity
  8
0
100
AcDbBlockEnd
  0
BLOCK
  5
18
100
AcDbEntity
 67
     1
  8
0
100
AcDbBlockBegin
  2
*PAPER_SPACE
 70
     0
 10
0.0
 20
0.0
 30
0.0
  3
*PAPER_SPACE
  1

  0
ENDBLK
  5
19
100
AcDbEntity
 67
     1
  8
0
100
AcDbBlockEnd
  0
BLOCK
  5
84AC
100
AcDbEntity
  8
0
100
AcDbBlockBegin
  2
DETAIL_TITLE
 70
    66
 10
0.0
 20
0.0
 30
0.0
  3
DETAIL_TITLE
  1

  0
ATTDEF
  5
84A4
100
AcDbEntity
  8
D-TEXT
100
AcDbText
 10
1.163519
 20
0.650143
 30
0.0
 40
0.25
  1
TYP. 
  7
BLOCK
100
AcDbAttributeDefinition
  3
Enter the title of the detail
  2
DETAIL_DISCRIPTION
 70
     0
  0
POLYLINE
  5
84A5
100
AcDbEntity
  8
D-TEXT
100
AcDb2dPolyline
 66
     1
 10
0.0
 20
0.0
 30
0.0
 40
0.05
 41
0.05
  0
VERTEX
  5
84A6
100
AcDbEntity
  8
D-TEXT
100
AcDbVertex
100
AcDb2dVertex
 10
1.038519
 20
0.51926
 30
0.0
  0
VERTEX
  5
84A7
100
AcDbEntity
  8
D-TEXT
100
AcDbVertex
100
AcDb2dVertex
 10
7.93
 20
0.51926
 30
0.0
  0
SEQEND
  5
84A8
100
AcDbEntity
  8
D-TEXT
  0
ATTDEF
  5
84A9
100
AcDbEntity
  8
D-TEXT
100
AcDbText
 10
0.189467
 20
0.39426
 30
0.0
 40
0.25
  1
D-#
  7
BLD
 72
     1
 11
0.51926
 21
0.51926
 31
0.0
100
AcDbAttributeDefinition
  3
Enter the Detail number
  2
DETAIL_NO
 70
     0
 74
     2
  0
ATTDEF
  5
84AA
100
AcDbEntity
  8
D-TEXT
100
AcDbText
 10
1.163519
 20
0.172049
 30
0.0
 40
0.1875
  1
N. T. Scale 1-1/2" = 1'0"
  7
BLOCK
100
AcDbAttributeDefinition
  3
Type the defanition of scale
  2
SCALE
 70
     0
  0
CIRCLE
  5
84AB
100
AcDbEntity
  8
D-TEXT
100
AcDbCircle
 10
0.51926
 20
0.51926
 30
0.0
 40
0.51926
  0
ENDBLK
  5
84AD
100
AcDbEntity
  8
0
100
AcDbBlockEnd
  0
ENDSEC
  0
SECTION
  2
ENTITIES
  0
POLYLINE
  5
21DC
100
AcDbEntity
  8
STEEL
100
AcDb2dPolyline
 66
     1
 10
0.0
 20
0.0
 30
0.0
  0
VERTEX
  5
21DD
100
AcDbEntity
  8
STEEL
100
AcDbVertex
100
AcDb2dVertex
 10
216.677889
 20
326.933984
 30
0.0
  0
SEQEND
  5
21DE
100
AcDbEntity
  8
STEEL
  0
LINE
  5
6000
100
AcDbEntity
  8
FASTENER
100
AcDbLine
 10
61.382994
 20
94.138974
 30
0.0
 11
61.385454
 21
93.888986
 31
0.0
  0
LINE
  5
6001
100
AcDbEntity
  8
FASTENER
100
AcDbLine
 10
61.275971
 20
93.95148
 30
0.0
 11
61.492477
 21
94.07648
 31
0.0
  0
ELLIPSE
  5
6002
100
AcDbEntity
  8
FASTENER
100
AcDbEllipse
 10
61.384224
 20
94.01398
 30
0.0
 11
0.0765465544619699
 21
0.1325825214724749
 31
0.0
210
0.0
220
0.0
230
-1.0
 40
0.57735
 41
0.0000000000000209
 42
6.283185307179621
  0
ELLIPSE
  5
6007
100
AcDbEntity
  8
FASTENER
100
AcDbEllipse
 10
61.448356
 20
92.036972
 30
0.0
 11
0.0765465544619698
 21
0.1325825214724749
 31
0.0
210
0.0
220
0.0
230
-1.0
 40
0.57735
 41
0.0000000000000219
 42
6.283185307179622
  0
LINE
  5
600A
100
AcDbEntity
  8
FASTENER
100
AcDbLine
 10
61.340103
 20
91.974472
 30
0.0
 11
61.556609
 21
92.099472
 31
0.0
  0
LINE
  5
600B
100
AcDbEntity
  8
FASTENER
100
AcDbLine
 10
61.447126
 20
92.161966
 30
0.0
 11
61.449585
 21
91.911978
 31
0.0
  0
POLYLINE
  5
6019
100
AcDbEntity
  8
TRACK
100
AcDb2dPolyline
 66
     1
 10
0.0
 20
0.0
 30
0.0
 70
     1
  0
VERTEX
  5
601A
100
AcDbEntity
  8
TRACK
100
AcDbVertex
100
AcDb2dVertex
 10
60.938421
 20
91.236751
 30
0.0
  0
VERTEX
  5
601B
100
AcDbEntity
  8
TRACK
100
AcDbVertex
100
AcDb2dVertex
 10
60.938421
 20
92.843708
 30
0.0
 42
0.267949
  0
VERTEX
  5
601C
100
AcDbEntity
  8
TRACK
100
AcDbVertex
100
AcDb2dVertex
 10
60.922796
 20
92.870772
 30
0.0
  0
VERTEX
  5
601D
100
AcDbEntity
  8
TRACK
100
AcDbVertex
100
AcDb2dVertex
 10
57.845953
 20
94.647187
 30
0.0
 42
0.57735
  0
VERTEX
  5
601E
100
AcDbEntity
  8
TRACK
100
AcDbVertex
100
AcDb2dVertex
 10
57.799078
 20
94.620124
 30
0.0
  0
VERTEX
  5
601F
100
AcDbEntity
  8
TRACK
100
AcDbVertex
100
AcDb2dVertex
 10
57.799078
 20
93.049251
 30
0.0
  0
VERTEX
  5
6020
100
AcDbEntity
  8
TRACK
100
AcDbVertex
100
AcDb2dVertex
 10
57.764478
 20
93.069227
 30
0.0
  0
VERTEX
  5
6021
100
AcDbEntity
  8
TRACK
100
AcDbVertex
100
AcDb2dVertex
 10
57.764478
 20
94.620124
 30
0.0
 42
-0.57735
  0
VERTEX
  5
6022
100
AcDbEntity
  8
TRACK
100
AcDbVertex
100
AcDb2dVertex
 10
57.863253
 20
94.677152
 30
0.0
  0
VERTEX
  5
6023
100
AcDbEntity
  8
TRACK
100
AcDbVertex
100
AcDb2dVertex
 10
60.940096
 20
92.900736
 30
0.0
 42
-0.267949
  0
VERTEX
  5
6024
100
AcDbEntity
  8
TRACK
100
AcDbVertex
100
AcDb2dVertex
 10
60.973021
 20
92.843708
 30
0.0
  0
VERTEX
  5
6025
100
AcDbEntity
  8
TRACK
100
AcDbVertex
100
AcDb2dVertex
 10
60.973021
 20
91.216774
 30
0.0
  0
SEQEND
  5
6026
100
AcDbEntity
  8
TRACK
  0
LINE
  5
6027
100
AcDbEntity
  8
TRACK
100
AcDbLine
 10
124.716834
 20
128.019282
 30
0.0
 11
111.120871
 21
120.169649
 31
0.0
  0
POLYLINE
  5
6038
100
AcDbEntity
  8
TRACK
100
AcDb2dPolyline
 66
     1
 10
0.0
 20
0.0
 30
0.0
 70
     1
  0
VERTEX
  5
6039
100
AcDbEntity
  8
TRACK
100
AcDbVertex
100
AcDb2dVertex
 10
121.838646
 20
73.017182
 30
0.0
  0
VERTEX
  5
603A
100
AcDbEntity
  8
TRACK
100
AcDbVertex
100
AcDb2dVertex
 10
121.838646
 20
71.410224
 30
0.0
 42
0.267949
  0
VERTEX
  5
603B
100
AcDbEntity
  8
TRACK
100
AcDbVertex
100
AcDb2dVertex
 10
121.854271
 20
71.383161
 30
0.0
  0
VERTEX
  5
603C
100
AcDbEntity
  8
TRACK
100
AcDbVertex
100
AcDb2dVertex
 10
124.931113
 20
69.606745
 30
0.0
 42
0.57735
  0
VERTEX
  5
603D
100
AcDbEntity
  8
TRACK
100
AcDbVertex
100
AcDb2dVertex
 10
124.977988
 20
69.633809
 30
0.0
  0
VERTEX
  5
603E
100
AcDbEntity
  8
TRACK
100
AcDbVertex
100
AcDb2dVertex
 10
124.977988
 20
71.204682
 30
0.0
  0
VERTEX
  5
603F
100
AcDbEntity
  8
TRACK
100
AcDbVertex
100
AcDb2dVertex
 10
125.012588
 20
71.184706
 30
0.0
  0
VERTEX
  5
6040
100
AcDbEntity
  8
TRACK
100
AcDbVertex
100
AcDb2dVertex
 10
125.012588
 20
69.633809
 30
0.0
 42
-0.57735
  0
VERTEX
  5
6041
100
AcDbEntity
  8
TRACK
100
AcDbVertex
100
AcDb2dVertex
 10
124.913813
 20
69.576781
 30
0.0
  0
VERTEX
  5
6042
100
AcDbEntity
  8
TRACK
100
AcDbVertex
100
AcDb2dVertex
 10
121.836971
 20
71.353197
 30
0.0
 42
-0.267949
  0
VERTEX
  5
6043
100
AcDbEntity
  8
TRACK
100
AcDbVertex
100
AcDb2dVertex
 10
121.804046
 20
71.410224
 30
0.0
  0
VERTEX
  5
6044
100
AcDbEntity
  8
TRACK
100
AcDbVertex
100
AcDb2dVertex
 10
121.804046
 20
73.037158
 30
0.0
  0
SEQEND
  5
6045
100
AcDbEntity
  8
TRACK
  0
POLYLINE
  5
6046
100
AcDbEntity
  8
TRACK
100
AcDb2dPolyline
 66
     1
 10
0.0
 20
0.0
 30
0.0
 70
     1
  0
VERTEX
  5
6047
100
AcDbEntity
  8
TRACK
100
AcDbVertex
100
AcDb2dVertex
 10
57.864928
 20
36.307457
 30
0.0
  0
VERTEX
  5
6048
100
AcDbEntity
  8
TRACK
100
AcDbVertex
100
AcDb2dVertex
 10
57.864928
 20
34.7005
 30
0.0
 42
0.267949
  0
VERTEX
  5
6049
100
AcDbEntity
  8
TRACK
100
AcDbVertex
100
AcDb2dVertex
 10
57.880553
 20
34.673436
 30
0.0
  0
VERTEX
  5
604A
100
AcDbEntity
  8
TRACK
100
AcDbVertex
100
AcDb2dVertex
 10
60.957396
 20
32.897021
 30
0.0
 42
0.57735
  0
VERTEX
  5
604B
100
AcDbEntity
  8
TRACK
100
AcDbVertex
100
AcDb2dVertex
 10
61.004271
 20
32.924084
 30
0.0
  0
VERTEX
  5
604C
100
AcDbEntity
  8
TRACK
100
AcDbVertex
100
AcDb2dVertex
 10
61.004271
 20
34.494957
 30
0.0
  0
VERTEX
  5
604D
100
AcDbEntity
  8
TRACK
100
AcDbVertex
100
AcDb2dVertex
 10
61.038871
 20
34.474981
 30
0.0
  0
VERTEX
  5
604E
100
AcDbEntity
  8
TRACK
100
AcDbVertex
100
AcDb2dVertex
 10
61.038871
 20
32.924084
 30
0.0
 42
-0.57735
  0
VERTEX
  5
604F
100
AcDbEntity
  8
TRACK
100
AcDbVertex
100
AcDb2dVertex
 10
60.940096
 20
32.867056
 30
0.0
  0
VERTEX
  5
6050
100
AcDbEntity
  8
TRACK
100
AcDbVertex
100
AcDb2dVertex
 10
57.863253
 20
34.643472
 30
0.0
 42
-0.267949
  0
VERTEX
  5
6051
100
AcDbEntity
  8
TRACK
100
AcDbVertex
100
AcDb2dVertex
 10
57.830328
 20
34.7005
 30
0.0
  0
VERTEX
  5
6052
100
AcDbEntity
  8
TRACK
100
AcDbVertex
100
AcDb2dVertex
 10
57.830328
 20
36.327434
 30
0.0
  0
SEQEND
  5
6053
100
AcDbEntity
  8
TRACK
  0
LINE
  5
6054
100
AcDbEntity
  8
TRACK
100
AcDbLine
 10
62.253637
 20
38.865639
 30
0.0
 11
71.772045
 21
44.32754
 31
0.0
  0
LINE
  5
6055
100
AcDbEntity
  8
TRACK
100
AcDbLine
 10
125.012588
 20
71.184706
 30
0.0
 11
61.038871
 21
34.474981
 31
0.0
  0
LINE
  5
6056
100
AcDbEntity
  8
TRACK
100
AcDbLine
 10
60.940096
 20
32.867056
 30
0.0
 11
125.012588
 21
69.633809
 31
0.0
  0
LINE
  5
6057
100
AcDbEntity
  8
TRACK
100
AcDbLine
 10
121.836971
 20
71.353197
 30
0.0
 11
117.679263
 21
68.968702
 31
0.0
  0
LINE
  5
6069
100
AcDbEntity
  8
TRACK
100
AcDbLine
 10
60.973021
 20
92.843708
 30
0.0
 11
106.546796
 21
119.15574
 31
0.0
  0
LINE
  5
606A
100
AcDbEntity
  8
TRACK
100
AcDbLine
 10
57.799078
 20
93.049251
 30
0.0
 11
57.894503
 21
93.104404
 31
0.0
  0
LINE
  5
606C
100
AcDbEntity
  8
STUD
100
AcDbLine
 10
60.940096
 20
92.900736
 30
0.0
 11
61.068596
 21
92.974926
 31
0.0
  0
ELLIPSE
  5
6150
100
AcDbEntity
  8
FASTENER
100
AcDbEllipse
 10
61.456692
 20
33.984601
 30
0.0
 11
0.0765465544619698
 21
0.1325825214724749
 31
0.0
210
0.0
220
0.0
230
-1.0
 40
0.57735
 41
0.0000000000000219
 42
6.283185307179622
  0
LINE
  5
6151
100
AcDbEntity
  8
FASTENER
100
AcDbLine
 10
61.348439
 20
33.922101
 30
0.0
 11
61.564946
 21
34.047101
 31
0.0
  0
LINE
  5
6152
100
AcDbEntity
  8
FASTENER
100
AcDbLine
 10
61.455463
 20
34.109595
 30
0.0
 11
61.457922
 21
33.859608
 31
0.0
  0
POLYLINE
  5
615F
100
AcDbEntity
  8
STUD
100
AcDb2dPolyline
 66
     1
 10
0.0
 20
0.0
 30
0.0
 70
     1
  0
VERTEX
  5
6160
100
AcDbEntity
  8
STUD
100
AcDbVertex
100
AcDb2dVertex
 10
60.176194
 20
46.987104
 30
0.0
 42
0.267949
  0
VERTEX
  5
6161
100
AcDbEntity
  8
STUD
100
AcDbVertex
100
AcDb2dVertex
 10
60.051194
 20
47.203611
 30
0.0
  0
VERTEX
  5
6162
100
AcDbEntity
  8
STUD
100
AcDbVertex
100
AcDb2dVertex
 10
59.252155
 20
47.664936
 30
0.0
 42
0.57735
  0
VERTEX
  5
6163
100
AcDbEntity
  8
STUD
100
AcDbVertex
100
AcDb2dVertex
 10
58.877155
 20
47.448429
 30
0.0
  0
VERTEX
  5
6164
100
AcDbEntity
  8
STUD
100
AcDbVertex
100
AcDb2dVertex
 10
58.877155
 20
44.77578
 30
0.0
 42
0.267949
  0
VERTEX
  5
6165
100
AcDbEntity
  8
STUD
100
AcDbVertex
100
AcDb2dVertex
 10
59.002155
 20
44.559273
 30
0.0
  0
VERTEX
  5
6166
100
AcDbEntity
  8
STUD
100
AcDbVertex
100
AcDb2dVertex
 10
59.801194
 20
44.097948
 30
0.0
 42
0.57735
  0
VERTEX
  5
6167
100
AcDbEntity
  8
STUD
100
AcDbVertex
100
AcDb2dVertex
 10
60.176194
 20
44.314455
 30
0.0
  0
SEQEND
  5
6168
100
AcDbEntity
  8
STUD
  0
POLYLINE
  5
619D
100
AcDbEntity
  8
STUD
100
AcDb2dPolyline
 66
     1
 10
0.0
 20
0.0
 30
0.0
 70
     1
  0
VERTEX
  5
619E
100
AcDbEntity
  8
STUD
100
AcDbVertex
100
AcDb2dVertex
 10
60.176194
 20
59.020784
 30
0.0
 42
0.267949
  0
VERTEX
  5
619F
100
AcDbEntity
  8
STUD
100
AcDbVertex
100
AcDb2dVertex
 10
60.051194
 20
59.237291
 30
0.0
  0
VERTEX
  5
61A0
100
AcDbEntity
  8
STUD
100
AcDbVertex
100
AcDb2dVertex
 10
59.252155
 20
59.698616
 30
0.0
 42
0.57735
  0
VERTEX
  5
61A1
100
AcDbEntity
  8
STUD
100
AcDbVertex
100
AcDb2dVertex
 10
58.877155
 20
59.482109
 30
0.0
  0
VERTEX
  5
61A2
100
AcDbEntity
  8
STUD
100
AcDbVertex
100
AcDb2dVertex
 10
58.877155
 20
56.80946
 30
0.0
 42
0.267949
  0
VERTEX
  5
61A3
100
AcDbEntity
  8
STUD
100
AcDbVertex
100
AcDb2dVertex
 10
59.002155
 20
56.592953
 30
0.0
  0
VERTEX
  5
61A4
100
AcDbEntity
  8
STUD
100
AcDbVertex
100
AcDb2dVertex
 10
59.801194
 20
56.131628
 30
0.0
 42
0.57735
  0
VERTEX
  5
61A5
100
AcDbEntity
  8
STUD
100
AcDbVertex
100
AcDb2dVertex
 10
60.176194
 20
56.348135
 30
0.0
  0
SEQEND
  5
61A6
100
AcDbEntity
  8
STUD
  0
POLYLINE
  5
61A7
100
AcDbEntity
  8
STUD
100
AcDb2dPolyline
 66
     1
 10
0.0
 20
0.0
 30
0.0
 70
     1
  0
VERTEX
  5
61A8
100
AcDbEntity
  8
STUD
100
AcDbVertex
100
AcDb2dVertex
 10
60.176194
 20
83.020784
 30
0.0
 42
0.267949
  0
VERTEX
  5
61A9
100
AcDbEntity
  8
STUD
100
AcDbVertex
100
AcDb2dVertex
 10
60.051194
 20
83.237291
 30
0.0
  0
VERTEX
  5
61AA
100
AcDbEntity
  8
STUD
100
AcDbVertex
100
AcDb2dVertex
 10
59.252155
 20
83.698616
 30
0.0
 42
0.57735
  0
VERTEX
  5
61AB
100
AcDbEntity
  8
STUD
100
AcDbVertex
100
AcDb2dVertex
 10
58.877155
 20
83.482109
 30
0.0
  0
VERTEX
  5
61AC
100
AcDbEntity
  8
STUD
100
AcDbVertex
100
AcDb2dVertex
 10
58.877155
 20
80.80946
 30
0.0
 42
0.267949
  0
VERTEX
  5
61AD
100
AcDbEntity
  8
STUD
100
AcDbVertex
100
AcDb2dVertex
 10
59.002155
 20
80.592953
 30
0.0
  0
VERTEX
  5
61AE
100
AcDbEntity
  8
STUD
100
AcDbVertex
100
AcDb2dVertex
 10
59.801194
 20
80.131628
 30
0.0
 42
0.57735
  0
VERTEX
  5
61AF
100
AcDbEntity
  8
STUD
100
AcDbVertex
100
AcDb2dVertex
 10
60.176194
 20
80.348135
 30
0.0
  0
SEQEND
  5
61B0
100
AcDbEntity
  8
STUD
  0
LINE
  5
61D2
100
AcDbEntity
  8
STUD
100
AcDbLine
 10
71.772045
 20
97.451594
 30
0.0
 11
71.772045
 21
63.169847
 31
0.0
  0
LINE
  5
61D3
100
AcDbEntity
  8
STUD
100
AcDbLine
 10
74.786387
 20
99.191925
 30
0.0
 11
74.786387
 21
61.429516
 31
0.0
  0
LINE
  5
61D4
100
AcDbEntity
  8
STUD
100
AcDbLine
 10
74.848887
 20
99.228009
 30
0.0
 11
74.848887
 21
61.400244
 31
0.0
  0
LINE
  5
61D5
100
AcDbEntity
  8
STUD
100
AcDbLine
 10
76.131178
 20
99.968341
 30
0.0
 11
76.131178
 21
62.140575
 31
0.0
  0
POLYLINE
  5
61F3
100
AcDbEntity
  8
STUD
100
AcDb2dPolyline
 66
     1
 10
0.0
 20
0.0
 30
0.0
 70
     1
  0
VERTEX
  5
61F4
100
AcDbEntity
  8
STUD
100
AcDbVertex
100
AcDb2dVertex
 10
74.053735
 20
90.984066
 30
0.0
 42
0.267949
  0
VERTEX
  5
61F5
100
AcDbEntity
  8
STUD
100
AcDbVertex
100
AcDb2dVertex
 10
73.928735
 20
91.200572
 30
0.0
  0
VERTEX
  5
61F6
100
AcDbEntity
  8
STUD
100
AcDbVertex
100
AcDb2dVertex
 10
73.129697
 20
91.661897
 30
0.0
 42
0.57735
  0
VERTEX
  5
61F7
100
AcDbEntity
  8
STUD
100
AcDbVertex
100
AcDb2dVertex
 10
72.754697
 20
91.445391
 30
0.0
  0
VERTEX
  5
61F8
100
AcDbEntity
  8
STUD
100
AcDbVertex
100
AcDb2dVertex
 10
72.754697
 20
88.772741
 30
0.0
 42
0.267949
  0
VERTEX
  5
61F9
100
AcDbEntity
  8
STUD
100
AcDbVertex
100
AcDb2dVertex
 10
72.879697
 20
88.556235
 30
0.0
  0
VERTEX
  5
61FA
100
AcDbEntity
  8
STUD
100
AcDbVertex
100
AcDb2dVertex
 10
73.678735
 20
88.09491
 30
0.0
 42
0.57735
  0
VERTEX
  5
61FB
100
AcDbEntity
  8
STUD
100
AcDbVertex
100
AcDb2dVertex
 10
74.053735
 20
88.311416
 30
0.0
  0
SEQEND
  5
61FC
100
AcDbEntity
  8
STUD
  0
POLYLINE
  5
61FD
100
AcDbEntity
  8
STUD
100
AcDb2dPolyline
 66
     1
 10
0.0
 20
0.0
 30
0.0
 70
     1
  0
VERTEX
  5
61FE
100
AcDbEntity
  8
STUD
100
AcDbVertex
100
AcDb2dVertex
 10
74.053735
 20
66.984066
 30
0.0
 42
0.267949
  0
VERTEX
  5
61FF
100
AcDbEntity
  8
STUD
100
AcDbVertex
100
AcDb2dVertex
 10
73.928735
 20
67.200572
 30
0.0
  0
VERTEX
  5
6200
100
AcDbEntity
  8
STUD
100
AcDbVertex
100
AcDb2dVertex
 10
73.129697
 20
67.661897
 30
0.0
 42
0.57735
  0
VERTEX
  5
6201
100
AcDbEntity
  8
STUD
100
AcDbVertex
100
AcDb2dVertex
 10
72.754697
 20
67.445391
 30
0.0
  0
VERTEX
  5
6202
100
AcDbEntity
  8
STUD
100
AcDbVertex
100
AcDb2dVertex
 10
72.754697
 20
64.772741
 30
0.0
 42
0.267949
  0
VERTEX
  5
6203
100
AcDbEntity
  8
STUD
100
AcDbVertex
100
AcDb2dVertex
 10
72.879697
 20
64.556235
 30
0.0
  0
VERTEX
  5
6204
100
AcDbEntity
  8
STUD
100
AcDbVertex
100
AcDb2dVertex
 10
73.678735
 20
64.09491
 30
0.0
 42
0.57735
  0
VERTEX
  5
6205
100
AcDbEntity
  8
STUD
100
AcDbVertex
100
AcDb2dVertex
 10
74.053735
 20
64.311416
 30
0.0
  0
SEQEND
  5
6206
100
AcDbEntity
  8
STUD
  0
POLYLINE
  5
6207
100
AcDbEntity
  8
STUD
100
AcDb2dPolyline
 66
     1
 10
0.0
 20
0.0
 30
0.0
 70
     1
  0
VERTEX
  5
6208
100
AcDbEntity
  8
STUD
100
AcDbVertex
100
AcDb2dVertex
 10
74.053735
 20
54.950386
 30
0.0
 42
0.267949
  0
VERTEX
  5
6209
100
AcDbEntity
  8
STUD
100
AcDbVertex
100
AcDb2dVertex
 10
73.928735
 20
55.166892
 30
0.0
  0
VERTEX
  5
620A
100
AcDbEntity
  8
STUD
100
AcDbVertex
100
AcDb2dVertex
 10
73.129697
 20
55.628217
 30
0.0
 42
0.57735
  0
VERTEX
  5
620B
100
AcDbEntity
  8
STUD
100
AcDbVertex
100
AcDb2dVertex
 10
72.754697
 20
55.411711
 30
0.0
  0
VERTEX
  5
620C
100
AcDbEntity
  8
STUD
100
AcDbVertex
100
AcDb2dVertex
 10
72.754697
 20
52.739061
 30
0.0
 42
0.267949
  0
VERTEX
  5
620D
100
AcDbEntity
  8
STUD
100
AcDbVertex
100
AcDb2dVertex
 10
72.879697
 20
52.522555
 30
0.0
  0
VERTEX
  5
620E
100
AcDbEntity
  8
STUD
100
AcDbVertex
100
AcDb2dVertex
 10
73.678735
 20
52.06123
 30
0.0
 42
0.57735
  0
VERTEX
  5
620F
100
AcDbEntity
  8
STUD
100
AcDbVertex
100
AcDb2dVertex
 10
74.053735
 20
52.277736
 30
0.0
  0
SEQEND
  5
6210
100
AcDbEntity
  8
STUD
  0
LINE
  5
6237
100
AcDbEntity
  8
STUD
100
AcDbLine
 10
85.607316
 20
105.439392
 30
0.0
 11
85.607316
 21
71.206565
 31
0.0
  0
LINE
  5
6238
100
AcDbEntity
  8
STUD
100
AcDbLine
 10
88.621658
 20
107.179723
 30
0.0
 11
88.621658
 21
69.466234
 31
0.0
  0
LINE
  5
6239
100
AcDbEntity
  8
STUD
100
AcDbLine
 10
88.684158
 20
107.215807
 30
0.0
 11
88.684158
 21
69.436963
 31
0.0
  0
LINE
  5
623A
100
AcDbEntity
  8
STUD
100
AcDbLine
 10
89.96645
 20
107.956138
 30
0.0
 11
89.96645
 21
70.177294
 31
0.0
  0
POLYLINE
  5
6258
100
AcDbEntity
  8
STUD
100
AcDb2dPolyline
 66
     1
 10
0.0
 20
0.0
 30
0.0
 70
     1
  0
VERTEX
  5
6259
100
AcDbEntity
  8
STUD
100
AcDbVertex
100
AcDb2dVertex
 10
87.889006
 20
99.020784
 30
0.0
 42
0.267949
  0
VERTEX
  5
625A
100
AcDbEntity
  8
STUD
100
AcDbVertex
100
AcDb2dVertex
 10
87.764006
 20
99.237291
 30
0.0
  0
VERTEX
  5
625B
100
AcDbEntity
  8
STUD
100
AcDbVertex
100
AcDb2dVertex
 10
86.964968
 20
99.698616
 30
0.0
 42
0.57735
  0
VERTEX
  5
625C
100
AcDbEntity
  8
STUD
100
AcDbVertex
100
AcDb2dVertex
 10
86.589968
 20
99.482109
 30
0.0
  0
VERTEX
  5
625D
100
AcDbEntity
  8
STUD
100
AcDbVertex
100
AcDb2dVertex
 10
86.589968
 20
96.80946
 30
0.0
 42
0.267949
  0
VERTEX
  5
625E
100
AcDbEntity
  8
STUD
100
AcDbVertex
100
AcDb2dVertex
 10
86.714968
 20
96.592953
 30
0.0
  0
VERTEX
  5
625F
100
AcDbEntity
  8
STUD
100
AcDbVertex
100
AcDb2dVertex
 10
87.514006
 20
96.131628
 30
0.0
 42
0.57735
  0
VERTEX
  5
6260
100
AcDbEntity
  8
STUD
100
AcDbVertex
100
AcDb2dVertex
 10
87.889006
 20
96.348135
 30
0.0
  0
SEQEND
  5
6261
100
AcDbEntity
  8
STUD
  0
POLYLINE
  5
6262
100
AcDbEntity
  8
STUD
100
AcDb2dPolyline
 66
     1
 10
0.0
 20
0.0
 30
0.0
 70
     1
  0
VERTEX
  5
6263
100
AcDbEntity
  8
STUD
100
AcDbVertex
100
AcDb2dVertex
 10
87.889006
 20
75.020784
 30
0.0
 42
0.267949
  0
VERTEX
  5
6264
100
AcDbEntity
  8
STUD
100
AcDbVertex
100
AcDb2dVertex
 10
87.764006
 20
75.237291
 30
0.0
  0
VERTEX
  5
6265
100
AcDbEntity
  8
STUD
100
AcDbVertex
100
AcDb2dVertex
 10
86.964968
 20
75.698616
 30
0.0
 42
0.57735
  0
VERTEX
  5
6266
100
AcDbEntity
  8
STUD
100
AcDbVertex
100
AcDb2dVertex
 10
86.589968
 20
75.482109
 30
0.0
  0
VERTEX
  5
6267
100
AcDbEntity
  8
STUD
100
AcDbVertex
100
AcDb2dVertex
 10
86.589968
 20
72.80946
 30
0.0
 42
0.267949
  0
VERTEX
  5
6268
100
AcDbEntity
  8
STUD
100
AcDbVertex
100
AcDb2dVertex
 10
86.714968
 20
72.592953
 30
0.0
  0
VERTEX
  5
6269
100
AcDbEntity
  8
STUD
100
AcDbVertex
100
AcDb2dVertex
 10
87.514006
 20
72.131628
 30
0.0
 42
0.57735
  0
VERTEX
  5
626A
100
AcDbEntity
  8
STUD
100
AcDbVertex
100
AcDb2dVertex
 10
87.889006
 20
72.348135
 30
0.0
  0
SEQEND
  5
626B
100
AcDbEntity
  8
STUD
  0
POLYLINE
  5
626C
100
AcDbEntity
  8
STUD
100
AcDb2dPolyline
 66
     1
 10
0.0
 20
0.0
 30
0.0
 70
     1
  0
VERTEX
  5
626D
100
AcDbEntity
  8
STUD
100
AcDbVertex
100
AcDb2dVertex
 10
87.889006
 20
62.987104
 30
0.0
 42
0.267949
  0
VERTEX
  5
626E
100
AcDbEntity
  8
STUD
100
AcDbVertex
100
AcDb2dVertex
 10
87.764006
 20
63.203611
 30
0.0
  0
VERTEX
  5
626F
100
AcDbEntity
  8
STUD
100
AcDbVertex
100
AcDb2dVertex
 10
86.964968
 20
63.664936
 30
0.0
 42
0.57735
  0
VERTEX
  5
6270
100
AcDbEntity
  8
STUD
100
AcDbVertex
100
AcDb2dVertex
 10
86.589968
 20
63.448429
 30
0.0
  0
VERTEX
  5
6271
100
AcDbEntity
  8
STUD
100
AcDbVertex
100
AcDb2dVertex
 10
86.589968
 20
60.77578
 30
0.0
 42
0.267949
  0
VERTEX
  5
6272
100
AcDbEntity
  8
STUD
100
AcDbVertex
100
AcDb2dVertex
 10
86.714968
 20
60.559273
 30
0.0
  0
VERTEX
  5
6273
100
AcDbEntity
  8
STUD
100
AcDbVertex
100
AcDb2dVertex
 10
87.514006
 20
60.097948
 30
0.0
 42
0.57735
  0
VERTEX
  5
6274
100
AcDbEntity
  8
STUD
100
AcDbVertex
100
AcDb2dVertex
 10
87.889006
 20
60.314455
 30
0.0
  0
SEQEND
  5
6275
100
AcDbEntity
  8
STUD
  0
LINE
  5
629C
100
AcDbEntity
  8
STUD
100
AcDbLine
 10
99.463723
 20
113.439392
 30
0.0
 11
99.463723
 21
79.206565
 31
0.0
  0
LINE
  5
629D
100
AcDbEntity
  8
STUD
100
AcDbLine
 10
102.478065
 20
115.179723
 30
0.0
 11
102.478065
 21
77.466234
 31
0.0
  0
LINE
  5
629E
100
AcDbEntity
  8
STUD
100
AcDbLine
 10
102.540565
 20
115.215807
 30
0.0
 11
102.540565
 21
77.436963
 31
0.0
  0
LINE
  5
629F
100
AcDbEntity
  8
STUD
100
AcDbLine
 10
103.822856
 20
115.956138
 30
0.0
 11
103.822856
 21
78.177294
 31
0.0
  0
POLYLINE
  5
62BD
100
AcDbEntity
  8
STUD
100
AcDb2dPolyline
 66
     1
 10
0.0
 20
0.0
 30
0.0
 70
     1
  0
VERTEX
  5
62BE
100
AcDbEntity
  8
STUD
100
AcDbVertex
100
AcDb2dVertex
 10
101.745413
 20
107.020784
 30
0.0
 42
0.267949
  0
VERTEX
  5
62BF
100
AcDbEntity
  8
STUD
100
AcDbVertex
100
AcDb2dVertex
 10
101.620413
 20
107.237291
 30
0.0
  0
VERTEX
  5
62C0
100
AcDbEntity
  8
STUD
100
AcDbVertex
100
AcDb2dVertex
 10
100.821375
 20
107.698616
 30
0.0
 42
0.57735
  0
VERTEX
  5
62C1
100
AcDbEntity
  8
STUD
100
AcDbVertex
100
AcDb2dVertex
 10
100.446375
 20
107.482109
 30
0.0
  0
VERTEX
  5
62C2
100
AcDbEntity
  8
STUD
100
AcDbVertex
100
AcDb2dVertex
 10
100.446375
 20
104.80946
 30
0.0
 42
0.267949
  0
VERTEX
  5
62C3
100
AcDbEntity
  8
STUD
100
AcDbVertex
100
AcDb2dVertex
 10
100.571375
 20
104.592953
 30
0.0
  0
VERTEX
  5
62C4
100
AcDbEntity
  8
STUD
100
AcDbVertex
100
AcDb2dVertex
 10
101.370413
 20
104.131628
 30
0.0
 42
0.57735
  0
VERTEX
  5
62C5
100
AcDbEntity
  8
STUD
100
AcDbVertex
100
AcDb2dVertex
 10
101.745413
 20
104.348135
 30
0.0
  0
SEQEND
  5
62C6
100
AcDbEntity
  8
STUD
  0
POLYLINE
  5
62C7
100
AcDbEntity
  8
STUD
100
AcDb2dPolyline
 66
     1
 10
0.0
 20
0.0
 30
0.0
 70
     1
  0
VERTEX
  5
62C8
100
AcDbEntity
  8
STUD
100
AcDbVertex
100
AcDb2dVertex
 10
101.745413
 20
83.020784
 30
0.0
 42
0.267949
  0
VERTEX
  5
62C9
100
AcDbEntity
  8
STUD
100
AcDbVertex
100
AcDb2dVertex
 10
101.620413
 20
83.237291
 30
0.0
  0
VERTEX
  5
62CA
100
AcDbEntity
  8
STUD
100
AcDbVertex
100
AcDb2dVertex
 10
100.821375
 20
83.698616
 30
0.0
 42
0.57735
  0
VERTEX
  5
62CB
100
AcDbEntity
  8
STUD
100
AcDbVertex
100
AcDb2dVertex
 10
100.446375
 20
83.482109
 30
0.0
  0
VERTEX
  5
62CC
100
AcDbEntity
  8
STUD
100
AcDbVertex
100
AcDb2dVertex
 10
100.446375
 20
80.80946
 30
0.0
 42
0.267949
  0
VERTEX
  5
62CD
100
AcDbEntity
  8
STUD
100
AcDbVertex
100
AcDb2dVertex
 10
100.571375
 20
80.592953
 30
0.0
  0
VERTEX
  5
62CE
100
AcDbEntity
  8
STUD
100
AcDbVertex
100
AcDb2dVertex
 10
101.370413
 20
80.131628
 30
0.0
 42
0.57735
  0
VERTEX
  5
62CF
100
AcDbEntity
  8
STUD
100
AcDbVertex
100
AcDb2dVertex
 10
101.745413
 20
80.348135
 30
0.0
  0
SEQEND
  5
62D0
100
AcDbEntity
  8
STUD
  0
POLYLINE
  5
62D1
100
AcDbEntity
  8
STUD
100
AcDb2dPolyline
 66
     1
 10
0.0
 20
0.0
 30
0.0
 70
     1
  0
VERTEX
  5
62D2
100
AcDbEntity
  8
STUD
100
AcDbVertex
100
AcDb2dVertex
 10
101.745413
 20
70.987104
 30
0.0
 42
0.267949
  0
VERTEX
  5
62D3
100
AcDbEntity
  8
STUD
100
AcDbVertex
100
AcDb2dVertex
 10
101.620413
 20
71.203611
 30
0.0
  0
VERTEX
  5
62D4
100
AcDbEntity
  8
STUD
100
AcDbVertex
100
AcDb2dVertex
 10
100.821375
 20
71.664936
 30
0.0
 42
0.57735
  0
VERTEX
  5
62D5
100
AcDbEntity
  8
STUD
100
AcDbVertex
100
AcDb2dVertex
 10
100.446375
 20
71.448429
 30
0.0
  0
VERTEX
  5
62D6
100
AcDbEntity
  8
STUD
100
AcDbVertex
100
AcDb2dVertex
 10
100.446375
 20
68.77578
 30
0.0
 42
0.267949
  0
VERTEX
  5
62D7
100
AcDbEntity
  8
STUD
100
AcDbVertex
100
AcDb2dVertex
 10
100.571375
 20
68.559273
 30
0.0
  0
VERTEX
  5
62D8
100
AcDbEntity
  8
STUD
100
AcDbVertex
100
AcDb2dVertex
 10
101.370413
 20
68.097948
 30
0.0
 42
0.57735
  0
VERTEX
  5
62D9
100
AcDbEntity
  8
STUD
100
AcDbVertex
100
AcDb2dVertex
 10
101.745413
 20
68.314455
 30
0.0
  0
SEQEND
  5
62DA
100
AcDbEntity
  8
STUD
  0
LINE
  5
6363
100
AcDbEntity
  8
STUD
100
AcDbLine
 10
115.08621
 20
115.462809
 30
0.0
 11
115.08621
 21
112.212809
 31
0.0
  0
LINE
  5
6364
100
AcDbEntity
  8
STUD
100
AcDbLine
 10
115.12081
 20
115.442833
 30
0.0
 11
115.12081
 21
112.192833
 31
0.0
  0
LINE
  5
6365
100
AcDbEntity
  8
STUD
100
AcDbLine
 10
114.647621
 20
115.713422
 30
0.0
 11
114.647621
 21
112.466029
 31
0.0
  0
LINE
  5
6366
100
AcDbEntity
  8
STUD
100
AcDbLine
 10
113.320129
 20
121.439392
 30
0.0
 11
113.320129
 21
87.206565
 31
0.0
  0
LINE
  5
6367
100
AcDbEntity
  8
STUD
100
AcDbLine
 10
116.334471
 20
123.179723
 30
0.0
 11
116.334471
 21
85.466234
 31
0.0
  0
LINE
  5
6368
100
AcDbEntity
  8
STUD
100
AcDbLine
 10
116.396971
 20
123.215807
 30
0.0
 11
116.396971
 21
85.436963
 31
0.0
  0
LINE
  5
6369
100
AcDbEntity
  8
STUD
100
AcDbLine
 10
117.679263
 20
123.956138
 30
0.0
 11
117.679263
 21
86.177294
 31
0.0
  0
POLYLINE
  5
6387
100
AcDbEntity
  8
STUD
100
AcDb2dPolyline
 66
     1
 10
0.0
 20
0.0
 30
0.0
 70
     1
  0
VERTEX
  5
6388
100
AcDbEntity
  8
STUD
100
AcDbVertex
100
AcDb2dVertex
 10
115.601819
 20
115.020784
 30
0.0
 42
0.267949
  0
VERTEX
  5
6389
100
AcDbEntity
  8
STUD
100
AcDbVertex
100
AcDb2dVertex
 10
115.476819
 20
115.237291
 30
0.0
  0
VERTEX
  5
638A
100
AcDbEntity
  8
STUD
100
AcDbVertex
100
AcDb2dVertex
 10
114.677781
 20
115.698616
 30
0.0
 42
0.57735
  0
VERTEX
  5
638B
100
AcDbEntity
  8
STUD
100
AcDbVertex
100
AcDb2dVertex
 10
114.302781
 20
115.482109
 30
0.0
  0
VERTEX
  5
638C
100
AcDbEntity
  8
STUD
100
AcDbVertex
100
AcDb2dVertex
 10
114.302781
 20
112.80946
 30
0.0
 42
0.267949
  0
VERTEX
  5
638D
100
AcDbEntity
  8
STUD
100
AcDbVertex
100
AcDb2dVertex
 10
114.427781
 20
112.592953
 30
0.0
  0
VERTEX
  5
638E
100
AcDbEntity
  8
STUD
100
AcDbVertex
100
AcDb2dVertex
 10
115.226819
 20
112.131628
 30
0.0
 42
0.57735
  0
VERTEX
  5
638F
100
AcDbEntity
  8
STUD
100
AcDbVertex
100
AcDb2dVertex
 10
115.601819
 20
112.348135
 30
0.0
  0
SEQEND
  5
6390
100
AcDbEntity
  8
STUD
  0
POLYLINE
  5
6391
100
AcDbEntity
  8
STUD
100
AcDb2dPolyline
 66
     1
 10
0.0
 20
0.0
 30
0.0
 70
     1
  0
VERTEX
  5
6392
100
AcDbEntity
  8
STUD
100
AcDbVertex
100
AcDb2dVertex
 10
115.601819
 20
91.020784
 30
0.0
 42
0.267949
  0
VERTEX
  5
6393
100
AcDbEntity
  8
STUD
100
AcDbVertex
100
AcDb2dVertex
 10
115.476819
 20
91.237291
 30
0.0
  0
VERTEX
  5
6394
100
AcDbEntity
  8
STUD
100
AcDbVertex
100
AcDb2dVertex
 10
114.677781
 20
91.698616
 30
0.0
 42
0.57735
  0
VERTEX
  5
6395
100
AcDbEntity
  8
STUD
100
AcDbVertex
100
AcDb2dVertex
 10
114.302781
 20
91.482109
 30
0.0
  0
VERTEX
  5
6396
100
AcDbEntity
  8
STUD
100
AcDbVertex
100
AcDb2dVertex
 10
114.302781
 20
88.80946
 30
0.0
 42
0.267949
  0
VERTEX
  5
6397
100
AcDbEntity
  8
STUD
100
AcDbVertex
100
AcDb2dVertex
 10
114.427781
 20
88.592953
 30
0.0
  0
VERTEX
  5
6398
100
AcDbEntity
  8
STUD
100
AcDbVertex
100
AcDb2dVertex
 10
115.226819
 20
88.131628
 30
0.0
 42
0.57735
  0
VERTEX
  5
6399
100
AcDbEntity
  8
STUD
100
AcDbVertex
100
AcDb2dVertex
 10
115.601819
 20
88.348135
 30
0.0
  0
SEQEND
  5
639A
100
AcDbEntity
  8
STUD
  0
POLYLINE
  5
639B
100
AcDbEntity
  8
STUD
100
AcDb2dPolyline
 66
     1
 10
0.0
 20
0.0
 30
0.0
 70
     1
  0
VERTEX
  5
639C
100
AcDbEntity
  8
STUD
100
AcDbVertex
100
AcDb2dVertex
 10
115.601819
 20
78.987104
 30
0.0
 42
0.267949
  0
VERTEX
  5
639D
100
AcDbEntity
  8
STUD
100
AcDbVertex
100
AcDb2dVertex
 10
115.476819
 20
79.203611
 30
0.0
  0
VERTEX
  5
639E
100
AcDbEntity
  8
STUD
100
AcDbVertex
100
AcDb2dVertex
 10
114.677781
 20
79.664936
 30
0.0
 42
0.57735
  0
VERTEX
  5
639F
100
AcDbEntity
  8
STUD
100
AcDbVertex
100
AcDb2dVertex
 10
114.302781
 20
79.448429
 30
0.0
  0
VERTEX
  5
63A0
100
AcDbEntity
  8
STUD
100
AcDbVertex
100
AcDb2dVertex
 10
114.302781
 20
76.77578
 30
0.0
 42
0.267949
  0
VERTEX
  5
63A1
100
AcDbEntity
  8
STUD
100
AcDbVertex
100
AcDb2dVertex
 10
114.427781
 20
76.559273
 30
0.0
  0
VERTEX
  5
63A2
100
AcDbEntity
  8
STUD
100
AcDbVertex
100
AcDb2dVertex
 10
115.226819
 20
76.097948
 30
0.0
 42
0.57735
  0
VERTEX
  5
63A3
100
AcDbEntity
  8
STUD
100
AcDbVertex
100
AcDb2dVertex
 10
115.601819
 20
76.314455
 30
0.0
  0
SEQEND
  5
63A4
100
AcDbEntity
  8
STUD
  0
LINE
  5
65B1
100
AcDbEntity
  8
FASTENER
100
AcDbLine
 10
75.558571
 20
42.203108
 30
0.0
 11
75.561031
 21
41.95312
 31
0.0
  0
LINE
  5
65B2
100
AcDbEntity
  8
FASTENER
100
AcDbLine
 10
75.451548
 20
42.015614
 30
0.0
 11
75.668054
 21
42.140614
 31
0.0
  0
ELLIPSE
  5
65B3
100
AcDbEntity
  8
FASTENER
100
AcDbEllipse
 10
75.559801
 20
42.078114
 30
0.0
 11
0.0765465544619698
 21
0.1325825214724749
 31
0.0
210
0.0
220
0.0
230
-1.0
 40
0.57735
 41
0.0000000000000219
 42
6.283185307179622
  0
LINE
  5
65B4
100
AcDbEntity
  8
FASTENER
100
AcDbLine
 10
89.393843
 20
50.239827
 30
0.0
 11
89.396302
 21
49.989839
 31
0.0
  0
LINE
  5
65B5
100
AcDbEntity
  8
FASTENER
100
AcDbLine
 10
89.286819
 20
50.052333
 30
0.0
 11
89.503326
 21
50.177333
 31
0.0
  0
ELLIPSE
  5
65B6
100
AcDbEntity
  8
FASTENER
100
AcDbEllipse
 10
89.395073
 20
50.114833
 30
0.0
 11
0.0765465544619698
 21
0.1325825214724749
 31
0.0
210
0.0
220
0.0
230
-1.0
 40
0.57735
 41
-0.0000000000001576
 42
6.283185307179443
  0
LINE
  5
65B7
100
AcDbEntity
  8
FASTENER
100
AcDbLine
 10
103.250249
 20
58.239827
 30
0.0
 11
103.252709
 21
57.989839
 31
0.0
  0
LINE
  5
65B8
100
AcDbEntity
  8
FASTENER
100
AcDbLine
 10
103.143226
 20
58.052333
 30
0.0
 11
103.359732
 21
58.177333
 31
0.0
  0
ELLIPSE
  5
65B9
100
AcDbEntity
  8
FASTENER
100
AcDbEllipse
 10
103.251479
 20
58.114833
 30
0.0
 11
0.0765465544619698
 21
0.1325825214724749
 31
0.0
210
0.0
220
0.0
230
-1.0
 40
0.57735
 41
-0.0000000000001576
 42
6.283185307179443
  0
LINE
  5
65BA
100
AcDbEntity
  8
FASTENER
100
AcDbLine
 10
117.022068
 20
66.19099
 30
0.0
 11
117.024527
 21
65.941002
 31
0.0
  0
LINE
  5
65BB
100
AcDbEntity
  8
FASTENER
100
AcDbLine
 10
116.915044
 20
66.003496
 30
0.0
 11
117.13155
 21
66.128496
 31
0.0
  0
ELLIPSE
  5
65BC
100
AcDbEntity
  8
FASTENER
100
AcDbEllipse
 10
117.023297
 20
66.065996
 30
0.0
 11
0.0765465544619698
 21
0.1325825214724749
 31
0.0
210
0.0
220
0.0
230
-1.0
 40
0.57735
 41
-0.0000000000001173
 42
6.283185307179483
  0
LINE
  5
65BD
100
AcDbEntity
  8
FASTENER
100
AcDbLine
 10
75.324667
 20
100.174168
 30
0.0
 11
75.327127
 21
99.92418
 31
0.0
  0
LINE
  5
65BE
100
AcDbEntity
  8
FASTENER
100
AcDbLine
 10
75.217644
 20
99.986674
 30
0.0
 11
75.43415
 21
100.111674
 31
0.0
  0
ELLIPSE
  5
65BF
100
AcDbEntity
  8
FASTENER
100
AcDbEllipse
 10
75.325897
 20
100.049174
 30
0.0
 11
0.0765465544619698
 21
0.1325825214724749
 31
0.0
210
0.0
220
0.0
230
-1.0
 40
0.57735
 41
0.0000000000000219
 42
6.283185307179622
  0
LINE
  5
65C0
100
AcDbEntity
  8
FASTENER
100
AcDbLine
 10
103.016345
 20
116.161966
 30
0.0
 11
103.018805
 21
115.911978
 31
0.0
  0
LINE
  5
65C1
100
AcDbEntity
  8
FASTENER
100
AcDbLine
 10
102.909322
 20
115.974472
 30
0.0
 11
103.125828
 21
116.099472
 31
0.0
  0
ELLIPSE
  5
65C2
100
AcDbEntity
  8
FASTENER
100
AcDbEllipse
 10
103.017575
 20
116.036972
 30
0.0
 11
0.0765465544619698
 21
0.1325825214724749
 31
0.0
210
0.0
220
0.0
230
-1.0
 40
0.57735
 41
-0.0000000000001173
 42
6.283185307179483
  0
LINE
  5
65C3
100
AcDbEntity
  8
FASTENER
100
AcDbLine
 10
116.872752
 20
124.161966
 30
0.0
 11
116.875211
 21
123.911978
 31
0.0
  0
LINE
  5
65C4
100
AcDbEntity
  8
FASTENER
100
AcDbLine
 10
116.765728
 20
123.974472
 30
0.0
 11
116.982235
 21
124.099472
 31
0.0
  0
ELLIPSE
  5
65C5
100
AcDbEntity
  8
FASTENER
100
AcDbEllipse
 10
116.873982
 20
124.036972
 30
0.0
 11
0.0765465544619698
 21
0.1325825214724749
 31
0.0
210
0.0
220
0.0
230
-1.0
 40
0.57735
 41
-0.0000000000001173
 42
6.283185307179483
  0
LINE
  5
66DC
100
AcDbEntity
  8
STUD
100
AcDbLine
 10
71.772045
 20
61.869887
 30
0.0
 11
71.772045
 21
42.895311
 31
0.0
  0
LINE
  5
66DD
100
AcDbEntity
  8
STUD
100
AcDbLine
 10
74.786387
 20
60.51665
 30
0.0
 11
74.786387
 21
42.403482
 31
0.0
  0
LINE
  5
66DE
100
AcDbEntity
  8
STUD
100
AcDbLine
 10
74.848887
 20
60.524235
 30
0.0
 11
74.848887
 21
42.439346
 31
0.0
  0
LINE
  5
66DF
100
AcDbEntity
  8
STUD
100
AcDbLine
 10
76.131178
 20
61.264566
 30
0.0
 11
76.131178
 21
43.175157
 31
0.0
  0
LINE
  5
6744
100
AcDbEntity
  8
STUD
100
AcDbLine
 10
88.684158
 20
68.435996
 30
0.0
 11
88.684158
 21
50.378372
 31
0.0
  0
LINE
  5
6745
100
AcDbEntity
  8
STUD
100
AcDbLine
 10
88.621658
 20
68.401845
 30
0.0
 11
88.621658
 21
50.342508
 31
0.0
  0
LINE
  5
6746
100
AcDbEntity
  8
STUD
100
AcDbLine
 10
85.607316
 20
70.141209
 30
0.0
 11
85.607316
 21
50.93203
 31
0.0
  0
LINE
  5
6747
100
AcDbEntity
  8
STUD
100
AcDbLine
 10
89.96645
 20
69.177294
 30
0.0
 11
89.96645
 21
51.114183
 31
0.0
  0
LINE
  5
685D
100
AcDbEntity
  8
STUD
100
AcDbLine
 10
99.463723
 20
78.141209
 30
0.0
 11
99.463723
 21
58.93203
 31
0.0
  0
LINE
  5
6862
100
AcDbEntity
  8
STUD
100
AcDbLine
 10
103.822856
 20
77.252364
 30
0.0
 11
103.822856
 21
59.065336
 31
0.0
  0
LINE
  5
6884
100
AcDbEntity
  8
STUD
100
AcDbLine
 10
113.320129
 20
86.141209
 30
0.0
 11
113.320129
 21
66.93203
 31
0.0
  0
LINE
  5
6885
100
AcDbEntity
  8
STUD
100
AcDbLine
 10
116.396971
 20
84.436963
 30
0.0
 11
116.396971
 21
66.280679
 31
0.0
  0
LINE
  5
6886
100
AcDbEntity
  8
STUD
100
AcDbLine
 10
116.334471
 20
84.400878
 30
0.0
 11
116.334471
 21
66.244815
 31
0.0
  0
LINE
  5
6887
100
AcDbEntity
  8
STUD
100
AcDbLine
 10
115.12081
 20
79.409153
 30
0.0
 11
115.12081
 21
76.159153
 31
0.0
  0
LINE
  5
6888
100
AcDbEntity
  8
STUD
100
AcDbLine
 10
115.08621
 20
79.429129
 30
0.0
 11
115.08621
 21
76.179129
 31
0.0
  0
LINE
  5
6889
100
AcDbEntity
  8
STUD
100
AcDbLine
 10
114.647621
 20
79.679742
 30
0.0
 11
114.647621
 21
76.432349
 31
0.0
  0
LINE
  5
6893
100
AcDbEntity
  8
STUD
100
AcDbLine
 10
100.791214
 20
71.679742
 30
0.0
 11
100.791214
 21
68.432349
 31
0.0
  0
LINE
  5
6894
100
AcDbEntity
  8
STUD
100
AcDbLine
 10
101.229803
 20
71.429129
 30
0.0
 11
101.229803
 21
68.179129
 31
0.0
  0
LINE
  5
6895
100
AcDbEntity
  8
STUD
100
AcDbLine
 10
101.264403
 20
71.409153
 30
0.0
 11
101.264403
 21
68.159153
 31
0.0
  0
LINE
  5
6896
100
AcDbEntity
  8
STUD
100
AcDbLine
 10
86.934808
 20
63.679742
 30
0.0
 11
86.934808
 21
60.432349
 31
0.0
  0
LINE
  5
6897
100
AcDbEntity
  8
STUD
100
AcDbLine
 10
87.373397
 20
63.429129
 30
0.0
 11
87.373397
 21
60.179129
 31
0.0
  0
LINE
  5
6898
100
AcDbEntity
  8
STUD
100
AcDbLine
 10
87.407997
 20
63.409153
 30
0.0
 11
87.407997
 21
60.159153
 31
0.0
  0
LINE
  5
6899
100
AcDbEntity
  8
STUD
100
AcDbLine
 10
73.099536
 20
55.643023
 30
0.0
 11
73.099536
 21
52.39563
 31
0.0
  0
LINE
  5
689A
100
AcDbEntity
  8
STUD
100
AcDbLine
 10
73.538125
 20
55.392411
 30
0.0
 11
73.538125
 21
52.142411
 31
0.0
  0
LINE
  5
689B
100
AcDbEntity
  8
STUD
100
AcDbLine
 10
73.572725
 20
55.372434
 30
0.0
 11
73.572725
 21
52.122434
 31
0.0
  0
LINE
  5
689C
100
AcDbEntity
  8
STUD
100
AcDbLine
 10
73.099536
 20
67.676703
 30
0.0
 11
73.099536
 21
64.42931
 31
0.0
  0
LINE
  5
689D
100
AcDbEntity
  8
STUD
100
AcDbLine
 10
73.538125
 20
67.426091
 30
0.0
 11
73.538125
 21
64.176091
 31
0.0
  0
LINE
  5
689E
100
AcDbEntity
  8
STUD
100
AcDbLine
 10
73.572725
 20
67.406114
 30
0.0
 11
73.572725
 21
64.156114
 31
0.0
  0
LINE
  5
689F
100
AcDbEntity
  8
STUD
100
AcDbLine
 10
86.934808
 20
75.713422
 30
0.0
 11
86.934808
 21
72.466029
 31
0.0
  0
LINE
  5
68A0
100
AcDbEntity
  8
STUD
100
AcDbLine
 10
87.373397
 20
75.462809
 30
0.0
 11
87.373397
 21
72.212809
 31
0.0
  0
LINE
  5
68A1
100
AcDbEntity
  8
STUD
100
AcDbLine
 10
87.407997
 20
75.442833
 30
0.0
 11
87.407997
 21
72.192833
 31
0.0
  0
LINE
  5
68A2
100
AcDbEntity
  8
STUD
100
AcDbLine
 10
100.791214
 20
83.713422
 30
0.0
 11
100.791214
 21
80.674837
 31
0.0
  0
LINE
  5
68A3
100
AcDbEntity
  8
STUD
100
AcDbLine
 10
101.229803
 20
83.462809
 30
0.0
 11
101.229803
 21
80.421617
 31
0.0
  0
LINE
  5
68A4
100
AcDbEntity
  8
STUD
100
AcDbLine
 10
101.264403
 20
83.442833
 30
0.0
 11
101.264403
 21
80.401641
 31
0.0
  0
LINE
  5
68A5
100
AcDbEntity
  8
STUD
100
AcDbLine
 10
73.099536
 20
91.676703
 30
0.0
 11
73.099536
 21
88.42931
 31
0.0
  0
LINE
  5
68A6
100
AcDbEntity
  8
STUD
100
AcDbLine
 10
73.538125
 20
91.426091
 30
0.0
 11
73.538125
 21
88.176091
 31
0.0
  0
LINE
  5
68A7
100
AcDbEntity
  8
STUD
100
AcDbLine
 10
73.572725
 20
91.406114
 30
0.0
 11
73.572725
 21
88.156114
 31
0.0
  0
LINE
  5
68A8
100
AcDbEntity
  8
STUD
100
AcDbLine
 10
86.934808
 20
99.713422
 30
0.0
 11
86.934808
 21
96.466029
 31
0.0
  0
LINE
  5
68A9
100
AcDbEntity
  8
STUD
100
AcDbLine
 10
87.373397
 20
99.462809
 30
0.0
 11
87.373397
 21
96.212809
 31
0.0
  0
LINE
  5
68AA
100
AcDbEntity
  8
STUD
100
AcDbLine
 10
87.407997
 20
99.442833
 30
0.0
 11
87.407997
 21
96.192833
 31
0.0
  0
LINE
  5
68AB
100
AcDbEntity
  8
STUD
100
AcDbLine
 10
100.791214
 20
107.713422
 30
0.0
 11
100.791214
 21
104.466029
 31
0.0
  0
LINE
  5
68AC
100
AcDbEntity
  8
STUD
100
AcDbLine
 10
101.229803
 20
107.462809
 30
0.0
 11
101.229803
 21
104.212809
 31
0.0
  0
LINE
  5
68AD
100
AcDbEntity
  8
STUD
100
AcDbLine
 10
101.264403
 20
107.442833
 30
0.0
 11
101.264403
 21
104.192833
 31
0.0
  0
LINE
  5
68AF
100
AcDbEntity
  8
STUD
100
AcDbLine
 10
60.908846
 20
52.400878
 30
0.0
 11
60.908846
 21
33.191698
 31
0.0
  0
LINE
  5
68B0
100
AcDbEntity
  8
STUD
100
AcDbLine
 10
60.971346
 20
52.435996
 30
0.0
 11
60.971346
 21
33.191698
 31
0.0
  0
LINE
  5
68B1
100
AcDbEntity
  8
STUD
100
AcDbLine
 10
59.660584
 20
59.462809
 30
0.0
 11
59.660584
 21
56.212809
 31
0.0
  0
LINE
  5
68B2
100
AcDbEntity
  8
STUD
100
AcDbLine
 10
59.695184
 20
59.442833
 30
0.0
 11
59.695184
 21
56.192833
 31
0.0
  0
LINE
  5
68B3
100
AcDbEntity
  8
STUD
100
AcDbLine
 10
59.221995
 20
59.713422
 30
0.0
 11
59.221995
 21
56.466029
 31
0.0
  0
LINE
  5
68B4
100
AcDbEntity
  8
STUD
100
AcDbLine
 10
59.221995
 20
47.679742
 30
0.0
 11
59.221995
 21
44.432349
 31
0.0
  0
LINE
  5
68B5
100
AcDbEntity
  8
STUD
100
AcDbLine
 10
59.695184
 20
47.409153
 30
0.0
 11
59.695184
 21
44.159153
 31
0.0
  0
LINE
  5
68B6
100
AcDbEntity
  8
STUD
100
AcDbLine
 10
59.660584
 20
47.429129
 30
0.0
 11
59.660584
 21
44.179129
 31
0.0
  0
LINE
  5
690E
100
AcDbEntity
  8
STUD
100
AcDbLine
 10
114.647621
 20
91.713422
 30
0.0
 11
114.647621
 21
88.466029
 31
0.0
  0
LINE
  5
690F
100
AcDbEntity
  8
STUD
100
AcDbLine
 10
115.08621
 20
91.462809
 30
0.0
 11
115.08621
 21
88.212809
 31
0.0
  0
LINE
  5
6910
100
AcDbEntity
  8
STUD
100
AcDbLine
 10
115.12081
 20
91.442833
 30
0.0
 11
115.12081
 21
88.192833
 31
0.0
  0
POLYLINE
  5
6977
100
AcDbEntity
  8
STUD
100
AcDb2dPolyline
 66
     1
 10
0.0
 20
0.0
 30
0.0
 70
     1
  0
VERTEX
  5
6978
100
AcDbEntity
  8
STUD
100
AcDbVertex
100
AcDb2dVertex
 10
115.601819
 20
91.020784
 30
0.0
 42
0.267949
  0
VERTEX
  5
6979
100
AcDbEntity
  8
STUD
100
AcDbVertex
100
AcDb2dVertex
 10
115.476819
 20
91.237291
 30
0.0
  0
VERTEX
  5
697A
100
AcDbEntity
  8
STUD
100
AcDbVertex
100
AcDb2dVertex
 10
114.677781
 20
91.698616
 30
0.0
 42
0.57735
  0
VERTEX
  5
697B
100
AcDbEntity
  8
STUD
100
AcDbVertex
100
AcDb2dVertex
 10
114.302781
 20
91.482109
 30
0.0
  0
VERTEX
  5
697C
100
AcDbEntity
  8
STUD
100
AcDbVertex
100
AcDb2dVertex
 10
114.302781
 20
88.80946
 30
0.0
 42
0.267949
  0
VERTEX
  5
697D
100
AcDbEntity
  8
STUD
100
AcDbVertex
100
AcDb2dVertex
 10
114.427781
 20
88.592953
 30
0.0
  0
VERTEX
  5
697E
100
AcDbEntity
  8
STUD
100
AcDbVertex
100
AcDb2dVertex
 10
115.226819
 20
88.131628
 30
0.0
 42
0.57735
  0
VERTEX
  5
697F
100
AcDbEntity
  8
STUD
100
AcDbVertex
100
AcDb2dVertex
 10
115.601819
 20
88.348135
 30
0.0
  0
SEQEND
  5
6980
100
AcDbEntity
  8
STUD
  0
LINE
  5
699A
100
AcDbEntity
  8
STUD
100
AcDbLine
 10
59.660584
 20
83.462809
 30
0.0
 11
59.660584
 21
80.212809
 31
0.0
  0
LINE
  5
699B
100
AcDbEntity
  8
STUD
100
AcDbLine
 10
59.695184
 20
83.442833
 30
0.0
 11
59.695184
 21
80.192833
 31
0.0
  0
LINE
  5
699C
100
AcDbEntity
  8
STUD
100
AcDbLine
 10
59.221995
 20
83.713422
 30
0.0
 11
59.221995
 21
80.466029
 31
0.0
  0
LINE
  5
699D
100
AcDbEntity
  8
STUD
100
AcDbLine
 10
115.12081
 20
91.442833
 30
0.0
 11
115.12081
 21
88.192833
 31
0.0
  0
LINE
  5
699E
100
AcDbEntity
  8
STUD
100
AcDbLine
 10
115.08621
 20
91.462809
 30
0.0
 11
115.08621
 21
88.212809
 31
0.0
  0
LINE
  5
699F
100
AcDbEntity
  8
STUD
100
AcDbLine
 10
114.647621
 20
91.713422
 30
0.0
 11
114.647621
 21
88.466029
 31
0.0
  0
LINE
  5
69B0
100
AcDbEntity
  8
STUD
100
AcDbLine
 10
101.264403
 20
107.651641
 30
0.0
 11
101.264403
 21
104.401641
 31
0.0
  0
LINE
  5
69B1
100
AcDbEntity
  8
STUD
100
AcDbLine
 10
101.229803
 20
107.671617
 30
0.0
 11
101.229803
 21
104.421617
 31
0.0
  0
LINE
  5
69B2
100
AcDbEntity
  8
STUD
100
AcDbLine
 10
100.791214
 20
107.92223
 30
0.0
 11
100.791214
 21
104.674837
 31
0.0
  0
LINE
  5
69B3
100
AcDbEntity
  8
STUD
100
AcDbLine
 10
114.647621
 20
91.713422
 30
0.0
 11
114.647621
 21
88.466029
 31
0.0
  0
LINE
  5
69B4
100
AcDbEntity
  8
STUD
100
AcDbLine
 10
115.08621
 20
91.462809
 30
0.0
 11
115.08621
 21
88.212809
 31
0.0
  0
LINE
  5
69B5
100
AcDbEntity
  8
STUD
100
AcDbLine
 10
115.12081
 20
91.442833
 30
0.0
 11
115.12081
 21
88.192833
 31
0.0
  0
POLYLINE
  5
6A02
100
AcDbEntity
  8
STUD
100
AcDb2dPolyline
 66
     1
 10
0.0
 20
0.0
 30
0.0
 70
     1
  0
VERTEX
  5
6A03
100
AcDbEntity
  8
STUD
100
AcDbVertex
100
AcDb2dVertex
 10
115.601819
 20
91.020784
 30
0.0
 42
0.267949
  0
VERTEX
  5
6A04
100
AcDbEntity
  8
STUD
100
AcDbVertex
100
AcDb2dVertex
 10
115.476819
 20
91.237291
 30
0.0
  0
VERTEX
  5
6A05
100
AcDbEntity
  8
STUD
100
AcDbVertex
100
AcDb2dVertex
 10
114.677781
 20
91.698616
 30
0.0
 42
0.57735
  0
VERTEX
  5
6A06
100
AcDbEntity
  8
STUD
100
AcDbVertex
100
AcDb2dVertex
 10
114.302781
 20
91.482109
 30
0.0
  0
VERTEX
  5
6A07
100
AcDbEntity
  8
STUD
100
AcDbVertex
100
AcDb2dVertex
 10
114.302781
 20
88.80946
 30
0.0
 42
0.267949
  0
VERTEX
  5
6A08
100
AcDbEntity
  8
STUD
100
AcDbVertex
100
AcDb2dVertex
 10
114.427781
 20
88.592953
 30
0.0
  0
VERTEX
  5
6A09
100
AcDbEntity
  8
STUD
100
AcDbVertex
100
AcDb2dVertex
 10
115.226819
 20
88.131628
 30
0.0
 42
0.57735
  0
VERTEX
  5
6A0A
100
AcDbEntity
  8
STUD
100
AcDbVertex
100
AcDb2dVertex
 10
115.601819
 20
88.348135
 30
0.0
  0
SEQEND
  5
6A0B
100
AcDbEntity
  8
STUD
  0
POLYLINE
  5
6A0C
100
AcDbEntity
  8
STUD
100
AcDb2dPolyline
 66
     1
 10
0.0
 20
0.0
 30
0.0
 70
     1
  0
VERTEX
  5
6A0D
100
AcDbEntity
  8
STUD
100
AcDbVertex
100
AcDb2dVertex
 10
101.745413
 20
107.020784
 30
0.0
 42
0.267949
  0
VERTEX
  5
6A0E
100
AcDbEntity
  8
STUD
100
AcDbVertex
100
AcDb2dVertex
 10
101.620413
 20
107.237291
 30
0.0
  0
VERTEX
  5
6A0F
100
AcDbEntity
  8
STUD
100
AcDbVertex
100
AcDb2dVertex
 10
100.821375
 20
107.698616
 30
0.0
 42
0.57735
  0
VERTEX
  5
6A10
100
AcDbEntity
  8
STUD
100
AcDbVertex
100
AcDb2dVertex
 10
100.446375
 20
107.482109
 30
0.0
  0
VERTEX
  5
6A11
100
AcDbEntity
  8
STUD
100
AcDbVertex
100
AcDb2dVertex
 10
100.446375
 20
104.80946
 30
0.0
 42
0.267949
  0
VERTEX
  5
6A12
100
AcDbEntity
  8
STUD
100
AcDbVertex
100
AcDb2dVertex
 10
100.571375
 20
104.592953
 30
0.0
  0
VERTEX
  5
6A13
100
AcDbEntity
  8
STUD
100
AcDbVertex
100
AcDb2dVertex
 10
101.370413
 20
104.131628
 30
0.0
 42
0.57735
  0
VERTEX
  5
6A14
100
AcDbEntity
  8
STUD
100
AcDbVertex
100
AcDb2dVertex
 10
101.745413
 20
104.348135
 30
0.0
  0
SEQEND
  5
6A15
100
AcDbEntity
  8
STUD
  0
ELLIPSE
  5
6A17
100
AcDbEntity
  8
FASTENER
100
AcDbEllipse
 10
89.305761
 20
108.264886
 30
0.0
 11
-0.0765465544619743
 21
-0.1325825214724723
 31
0.0
210
0.0
220
0.0
230
1.0
 40
0.57735
 41
0.0000000000006153
 42
6.283185307180215
  0
LINE
  5
6A18
100
AcDbEntity
  8
FASTENER
100
AcDbLine
 10
89.305761
 20
108.389886
 30
0.0
 11
89.305761
 21
108.139886
 31
0.0
  0
LINE
  5
6A19
100
AcDbEntity
  8
FASTENER
100
AcDbLine
 10
89.196899
 20
108.203454
 30
0.0
 11
89.414624
 21
108.326318
 31
0.0
  0
LINE
  5
6A1A
100
AcDbEntity
  8
STUD
100
AcDbLine
 10
117.679263
 20
85.24265
 30
0.0
 11
117.679263
 21
67.01649
 31
0.0
  0
LINE
  5
6A30
100
AcDbEntity
  8
STUD
100
AcDbLine
 10
57.894503
 20
94.384404
 30
0.0
 11
60.938421
 21
92.608956
 31
0.0
  0
LINE
  5
6A31
100
AcDbEntity
  8
STUD
100
AcDbLine
 10
57.894503
 20
94.384404
 30
0.0
 11
58.097805
 21
94.501781
 31
0.0
  0
LINE
  5
6A32
100
AcDbEntity
  8
STUD
100
AcDbLine
 10
60.971346
 20
91.217741
 30
0.0
 11
60.971346
 21
53.436963
 31
0.0
  0
LINE
  5
6A33
100
AcDbEntity
  8
STUD
100
AcDbLine
 10
60.908846
 20
91.226762
 30
0.0
 11
60.908846
 21
53.466234
 31
0.0
  0
LINE
  5
6A35
100
AcDbEntity
  8
STUD
100
AcDbLine
 10
57.894503
 20
94.384404
 30
0.0
 11
57.894503
 21
34.93203
 31
0.0
  0
LINE
  5
6A39
100
AcDbEntity
  8
TRACK
100
AcDbLine
 10
124.977988
 20
71.204682
 30
0.0
 11
61.004271
 21
34.494957
 31
0.0
  0
LINE
  5
6A3A
100
AcDbEntity
  8
TRACK
100
AcDbLine
 10
121.838646
 20
73.017182
 30
0.0
 11
117.679263
 21
70.615761
 31
0.0
  0
POLYLINE
  5
6A3B
100
AcDbEntity
  8
STUD
100
AcDb2dPolyline
 66
     1
 10
0.0
 20
0.0
 30
0.0
  0
VERTEX
  5
6A3C
100
AcDbEntity
  8
STUD
100
AcDbVertex
100
AcDb2dVertex
 10
57.894503
 20
34.93203
 30
0.0
  0
VERTEX
  5
6A3D
100
AcDbEntity
  8
STUD
100
AcDbVertex
100
AcDb2dVertex
 10
60.908846
 20
33.191698
 30
0.0
  0
VERTEX
  5
6A3F
100
AcDbEntity
  8
STUD
100
AcDbVertex
100
AcDb2dVertex
 10
60.971346
 20
33.191698
 30
0.0
  0
VERTEX
  5
6A40
100
AcDbEntity
  8
STUD
100
AcDbVertex
100
AcDb2dVertex
 10
61.004271
 20
33.210708
 30
0.0
  0
SEQEND
  5
6A3E
100
AcDbEntity
  8
STUD
  0
POLYLINE
  5
6A59
100
AcDbEntity
  8
STUD
100
AcDb2dPolyline
 66
     1
 10
0.0
 20
0.0
 30
0.0
  0
VERTEX
  5
6A5A
100
AcDbEntity
  8
STUD
100
AcDbVertex
100
AcDb2dVertex
 10
71.772045
 20
42.895311
 30
0.0
  0
VERTEX
  5
6A5B
100
AcDbEntity
  8
STUD
100
AcDbVertex
100
AcDb2dVertex
 10
73.701841
 20
41.781142
 30
0.0
  0
SEQEND
  5
6A5C
100
AcDbEntity
  8
STUD
  0
LINE
  5
6A62
100
AcDbEntity
  8
TRACK
100
AcDbLine
 10
71.993566
 20
42.767416
 30
0.0
 11
62.253637
 21
37.181451
 31
0.0
  0
LINE
  5
6A63
100
AcDbEntity
  8
TRACK
100
AcDbLine
 10
76.131178
 20
46.82892
 30
0.0
 11
85.607316
 21
52.266566
 31
0.0
  0
POLYLINE
  5
6A64
100
AcDbEntity
  8
STUD
100
AcDb2dPolyline
 66
     1
 10
0.0
 20
0.0
 30
0.0
  0
VERTEX
  5
6A65
100
AcDbEntity
  8
STUD
100
AcDbVertex
100
AcDb2dVertex
 10
85.607316
 20
50.93203
 30
0.0
  0
VERTEX
  5
6A66
100
AcDbEntity
  8
STUD
100
AcDbVertex
100
AcDb2dVertex
 10
87.621976
 20
49.768865
 30
0.0
  0
SEQEND
  5
6A67
100
AcDbEntity
  8
STUD
  0
LINE
  5
6A6D
100
AcDbEntity
  8
TRACK
100
AcDbLine
 10
85.91749
 20
50.752951
 30
0.0
 11
76.131178
 21
45.140385
 31
0.0
  0
LINE
  5
6A6E
100
AcDbEntity
  8
TRACK
100
AcDbLine
 10
89.96645
 20
54.767947
 30
0.0
 11
99.463723
 21
60.21772
 31
0.0
  0
POLYLINE
  5
6A6F
100
AcDbEntity
  8
STUD
100
AcDb2dPolyline
 66
     1
 10
0.0
 20
0.0
 30
0.0
  0
VERTEX
  5
6A70
100
AcDbEntity
  8
STUD
100
AcDbVertex
100
AcDb2dVertex
 10
99.463723
 20
58.93203
 30
0.0
  0
VERTEX
  5
6A71
100
AcDbEntity
  8
STUD
100
AcDbVertex
100
AcDb2dVertex
 10
101.520815
 20
57.744367
 30
0.0
  0
SEQEND
  5
6A72
100
AcDbEntity
  8
STUD
  0
LINE
  5
6A78
100
AcDbEntity
  8
TRACK
100
AcDbLine
 10
99.820112
 20
58.726268
 30
0.0
 11
89.96645
 21
53.075076
 31
0.0
  0
LINE
  5
6A79
100
AcDbEntity
  8
TRACK
100
AcDbLine
 10
103.822856
 20
62.7191
 30
0.0
 11
113.320129
 21
68.168874
 31
0.0
  0
POLYLINE
  5
6A7A
100
AcDbEntity
  8
STUD
100
AcDb2dPolyline
 66
     1
 10
0.0
 20
0.0
 30
0.0
  0
VERTEX
  5
6A7B
100
AcDbEntity
  8
STUD
100
AcDbVertex
100
AcDb2dVertex
 10
113.320129
 20
66.93203
 30
0.0
  0
VERTEX
  5
6A7C
100
AcDbEntity
  8
STUD
100
AcDbVertex
100
AcDb2dVertex
 10
115.419653
 20
65.719869
 30
0.0
  0
SEQEND
  5
6A7D
100
AcDbEntity
  8
STUD
  0
LINE
  5
6A83
100
AcDbEntity
  8
TRACK
100
AcDbLine
 10
113.722734
 20
66.699586
 30
0.0
 11
103.822856
 21
61.021889
 31
0.0
  0
LINE
  5
6A84
100
AcDbEntity
  8
TRACK
100
AcDbLine
 10
117.679263
 20
70.670254
 30
0.0
 11
121.804046
 21
73.037158
 31
0.0
  0
LINE
  5
6A85
100
AcDbEntity
  8
FASTENER
100
AcDbLine
 10
122.146527
 20
70.691491
 30
0.0
 11
121.93126
 21
70.818615
 31
0.0
  0
LINE
  5
6A86
100
AcDbEntity
  8
FASTENER
100
AcDbLine
 10
121.93064
 20
70.692553
 30
0.0
 11
122.147147
 21
70.817553
 31
0.0
  0
ELLIPSE
  5
6A87
100
AcDbEntity
  8
FASTENER
100
AcDbEllipse
 10
122.038893
 20
70.755053
 30
0.0
 11
0.153093108923944
 21
-0.0000000000000026
 31
0.0
210
0.0
220
0.0
230
1.0
 40
0.57735
 41
0.0000000000000298
 42
6.28318530717963
  0
LINE
  5
6AE8
100
AcDbEntity
  8
STUD
100
AcDbLine
 10
62.253637
 20
91.956138
 30
0.0
 11
62.253637
 21
54.177294
 31
0.0
  0
POLYLINE
  5
6AE9
100
AcDbEntity
  8
TRACK
100
AcDb2dPolyline
 66
     1
 10
0.0
 20
0.0
 30
0.0
  0
VERTEX
  5
6AEA
100
AcDbEntity
  8
TRACK
100
AcDbVertex
100
AcDb2dVertex
 10
121.607067
 20
131.479659
 30
0.0
  0
VERTEX
  5
6AEB
100
AcDbEntity
  8
TRACK
100
AcDbVertex
100
AcDb2dVertex
 10
124.683909
 20
129.703244
 30
0.0
  0
VERTEX
  5
6AEC
100
AcDbEntity
  8
TRACK
100
AcDbVertex
100
AcDb2dVertex
 10
124.716834
 20
129.646216
 30
0.0
  0
VERTEX
  5
6AED
100
AcDbEntity
  8
TRACK
100
AcDbVertex
100
AcDb2dVertex
 10
124.716834
 20
128.019282
 30
0.0
  0
SEQEND
  5
6AEE
100
AcDbEntity
  8
TRACK
  0
SPLINE
  5
6B06
100
AcDbEntity
  8
GYPSUM
100
AcDbSpline
210
0.0
220
0.0
230
1.0
 70
     8
 71
     3
 72
    10
 73
     6
 74
     0
 42
0.0000001
 43
0.0000001
 40
10.04818512765434
 40
10.04818512765434
 40
10.04818512765434
 40
10.04818512765434
 40
14.77043292805183
 40
20.53335538057201
 40
22.9571543917501
 40
22.9571543917501
 40
22.9571543917501
 40
22.9571543917501
 10
62.25363679569658
 20
74.29633159959241
 30
0.0
 10
64.48069880990562
 20
75.67089621745165
 30
0.0
 10
69.21544268758933
 20
79.29019476313527
 30
0.0
 10
69.38554313791776
 20
83.48952142052054
 30
0.0
 10
71.15015011981881
 20
85.21443878054862
 30
0.0
 10
71.77204461719586
 20
85.66419785628536
 30
0.0
  0
LINE
  5
6B07
100
AcDbEntity
  8
GYPSUM
100
AcDbLine
 10
121.838646
 20
72.213703
 30
0.0
 11
121.653557
 21
117.17944
 31
0.0
  0
SPLINE
  5
6B09
100
AcDbEntity
  8
GYPSUM
100
AcDbSpline
210
0.0
220
0.0
230
1.0
 70
     8
 71
     3
 72
     8
 73
     4
 74
     0
 42
0.0000001
 43
0.0000001
 40
6.799587998152141
 40
6.799587998152141
 40
6.799587998152141
 40
6.799587998152141
 40
7.274558325846102
 40
7.274558325846102
 40
7.274558325846102
 40
7.274558325846102
 10
57.28906254846335
 20
72.21168995842512
 30
0.0
 10
57.48628788525344
 20
72.30041827475881
 30
0.0
 10
57.68838564283079
 20
72.39380334826451
 30
0.0
 10
57.89450342582859
 20
72.49154220247762
 30
0.0
  0
LINE
  5
6B0A
100
AcDbEntity
  8
GYPSUM
100
AcDbLine
 10
57.289063
 20
72.21169
 30
0.0
 11
57.894503
 21
71.963779
 31
0.0
  0
POLYLINE
  5
6B0B
100
AcDbEntity
  8
GYPSUM
100
AcDb2dPolyline
 66
     1
 10
0.0
 20
0.0
 30
0.0
  0
VERTEX
  5
6B0C
100
AcDbEntity
  8
GYPSUM
100
AcDbVertex
100
AcDb2dVertex
 10
57.830328
 20
34.7005
 30
0.0
  0
VERTEX
  5
6B0D
100
AcDbEntity
  8
GYPSUM
100
AcDbVertex
100
AcDb2dVertex
 10
57.351563
 20
34.976915
 30
0.0
 42
-0.267949
  0
VERTEX
  5
6B0E
100
AcDbEntity
  8
GYPSUM
100
AcDbVertex
100
AcDb2dVertex
 10
57.289063
 20
35.085168
 30
0.0
  0
VERTEX
  5
6B0F
100
AcDbEntity
  8
GYPSUM
100
AcDbVertex
100
AcDb2dVertex
 10
57.289063
 20
72.21169
 30
0.0
  0
SEQEND
  5
6B10
100
AcDbEntity
  8
GYPSUM
  0
LINE
  5
6B11
100
AcDbEntity
  8
GYPSUM
100
AcDbLine
 10
121.146864
 20
117.47198
 30
0.0
 11
121.653557
 21
117.17944
 31
0.0
  0
SPLINE
  5
6B13
100
AcDbEntity
  8
GYPSUM
100
AcDbSpline
210
0.0
220
0.0
230
1.0
 70
     8
 71
     3
 72
     8
 73
     4
 74
     0
 42
0.0000001
 43
0.0000001
 40
74.43007193431255
 40
74.43007193431255
 40
74.43007193431255
 40
74.43007193431255
 40
78.61817287569408
 40
78.61817287569408
 40
78.61817287569408
 40
78.61817287569408
 10
117.6792626379013
 20
112.381321169002
 30
0.0
 10
119.1140928570713
 20
114.0661667613227
 30
0.0
 10
120.4755340848457
 20
115.7766931824635
 30
0.0
 10
121.6535573230165
 20
117.1794398060848
 30
0.0
  0
SPLINE
  5
6B14
100
AcDbEntity
  8
GYPSUM
100
AcDbSpline
210
0.0
220
0.0
230
1.0
 70
     8
 71
     3
 72
     8
 73
     4
 74
     0
 42
0.0000001
 43
0.0000001
 40
74.92624989076364
 40
74.92624989076364
 40
74.92624989076364
 40
74.92624989076364
 40
78.61817287569405
 40
78.61817287569405
 40
78.61817287569405
 40
78.61817287569405
 10
117.6792626379023
 20
113.2732152677081
 30
0.0
 10
118.9274133536946
 20
114.7596898722878
 30
0.0
 10
120.1084045182303
 20
116.235420953689
 30
0.0
 10
121.1468635073182
 20
117.4719796169749
 30
0.0
  0
SPLINE
  5
6B15
100
AcDbEntity
  8
GYPSUM
100
AcDbSpline
210
0.0
220
0.0
230
-1.0
 70
     8
 71
     3
 72
    10
 73
     6
 74
     0
 42
0.0000001
 43
0.0000001
 40
59.95115859458758
 40
59.95115859458758
 40
59.95115859458758
 40
59.95115859458758
 40
63.27418881804359
 40
67.84868361897053
 40
70.29460107015785
 40
70.29460107015785
 40
70.29460107015785
 40
70.29460107015785
 10
103.8228561773499
 20
102.1296156450897
 30
0.0
 10
104.7074420434298
 20
102.9605236337127
 30
0.0
 10
106.8526260625227
 20
104.7300580722286
 30
0.0
 10
110.0264047776053
 20
105.1752394458079
 30
0.0
 10
112.4601759862313
 20
107.0219924678433
 30
0.0
 10
113.3201292680324
 20
107.7864675029747
 30
0.0
  0
SPLINE
  5
6B16
100
AcDbEntity
  8
GYPSUM
100
AcDbSpline
210
0.0
220
0.0
230
1.0
 70
     8
 71
     3
 72
    10
 73
     6
 74
     0
 42
0.0000001
 43
0.0000001
 40
60.58292172982242
 40
60.58292172982242
 40
60.58292172982242
 40
60.58292172982242
 40
63.27418881804359
 40
67.84868361897053
 40
70.7738313882095
 40
70.7738313882095
 40
70.7738313882095
 40
70.7738313882095
 10
103.8228561773642
 20
102.8855551677041
 30
0.0
 10
104.5457361141604
 20
103.5270230616851
 30
0.0
 10
106.5397822533689
 20
105.0497889446038
 30
0.0
 10
109.6667578456352
 20
105.4884053114913
 30
0.0
 10
112.2870553956687
 20
107.573857370783
 30
0.0
 10
113.3201292680322
 20
108.5418027014908
 30
0.0
  0
SPLINE
  5
6B17
100
AcDbEntity
  8
GYPSUM
100
AcDbSpline
210
0.0
220
0.0
230
1.0
 70
     8
 71
     3
 72
    10
 73
     6
 74
     0
 42
0.0000001
 43
0.0000001
 40
44.01171911351705
 40
44.01171911351705
 40
44.01171911351705
 40
44.01171911351705
 40
46.24215617237148
 40
49.99337650437156
 40
54.48319958167155
 40
54.48319958167155
 40
54.48319958167155
 40
54.48319958167155
 10
89.96644971680785
 20
97.31660141945917
 30
0.0
 10
90.56828473974901
 20
97.63754919833633
 30
0.0
 10
92.26926549097788
 20
98.09805753312824
 30
0.0
 10
95.86710391153104
 20
96.15766761413267
 30
0.0
 10
98.23463449191656
 20
97.17303676996397
 30
0.0
 10
99.46372280748168
 20
98.0695430072922
 30
0.0
  0
SPLINE
  5
6B18
100
AcDbEntity
  8
GYPSUM
100
AcDbSpline
210
0.0
220
0.0
230
1.0
 70
     8
 71
     3
 72
    10
 73
     6
 74
     0
 42
0.0000001
 43
0.0000001
 40
44.62805060062383
 40
44.62805060062383
 40
44.62805060062383
 40
44.62805060062383
 40
46.24215617237148
 40
49.99337650437156
 40
55.104177464897
 40
55.104177464897
 40
55.104177464897
 40
55.104177464897
 10
89.96644971679964
 20
97.83956246057829
 30
0.0
 10
90.41587917766401
 20
98.00833107946459
 30
0.0
 10
91.97433362344474
 20
98.27638967223993
 30
0.0
 10
95.57376847370271
 20
96.33513876513328
 30
0.0
 10
98.08210196072744
 20
97.6330322763277
 30
0.0
 10
99.46372280748171
 20
98.75267837278205
 30
0.0
  0
SPLINE
  5
6B19
100
AcDbEntity
  8
GYPSUM
100
AcDbSpline
210
0.0
220
0.0
230
1.0
 70
     8
 71
     3
 72
    10
 73
     6
 74
     0
 42
0.0000001
 43
0.0000001
 40
27.61182953263933
 40
27.61182953263933
 40
27.61182953263933
 40
27.61182953263933
 40
30.28432357300026
 40
36.07899745714668
 40
38.17631111632319
 40
38.17631111632319
 40
38.17631111632319
 40
38.17631111632319
 10
76.13117798709237
 20
87.73220649515584
 30
0.0
 10
77.05198290642693
 20
88.05675744950196
 30
0.0
 10
80.01391477748519
 20
89.00799429166438
 30
0.0
 10
83.11744319849147
 20
90.24818508022306
 30
0.0
 10
85.09265124318469
 20
92.37456629410866
 30
0.0
 10
85.60731634692279
 20
92.96710905480077
 30
0.0
  0
SPLINE
  5
6B1A
100
AcDbEntity
  8
GYPSUM
100
AcDbSpline
210
0.0
220
0.0
230
1.0
 70
     8
 71
     3
 72
    10
 73
     6
 74
     0
 42
0.0000001
 43
0.0000001
 40
28.10102540031281
 40
28.10102540031281
 40
28.10102540031281
 40
28.10102540031281
 40
30.28432357300026
 40
36.07899745714668
 40
38.86845430106129
 40
38.86845430106129
 40
38.86845430106129
 40
38.86845430106129
 10
76.1311779871387
 20
88.20070334272108
 30
0.0
 10
76.88595998868638
 20
88.45935653906749
 30
0.0
 10
79.65093206268072
 20
89.35796202309029
 30
0.0
 10
82.81408032981838
 20
90.62197730234382
 30
0.0
 10
84.92977692778428
 20
93.04931129065471
 30
0.0
 10
85.60731634692755
 20
93.85320157877023
 30
0.0
  0
SPLINE
  5
6B1B
100
AcDbEntity
  8
GYPSUM
100
AcDbSpline
210
0.0
220
0.0
230
1.0
 70
     8
 71
     3
 72
    10
 73
     6
 74
     0
 42
0.0000001
 43
0.0000001
 40
10.40774016518186
 40
10.40774016518186
 40
10.40774016518186
 40
10.40774016518186
 40
14.77043292805183
 40
20.53335538057201
 40
23.59005359076167
 40
23.59005359076167
 40
23.59005359076167
 40
23.59005359076167
 10
62.2536367956969
 20
74.90716396681648
 30
0.0
 10
64.29332524479637
 20
76.2114152174756
 30
0.0
 10
68.71348669971836
 20
79.6996989127729
 30
0.0
 10
68.88718898409038
 20
83.98794525076757
 30
0.0
 10
70.92619433875258
 20
85.76807100550983
 30
0.0
 10
71.77204461722401
 20
86.29697585828793
 30
0.0
  0
LEADER
  5
6B1C
100
AcDbEntity
  8
D-TEXT
100
AcDbLeader
  3
LEADER
 73
     0
 40
1.0
 41
13.241379
 76
     2
 10
119.023985
 20
105.705523
 30
0.0
 10
134.726235
 20
105.955601
 30
0.0
 77
   256
  0
MTEXT
  5
6B1D
100
AcDbEntity
  8
D-TEXT
100
AcDbMText
 10
136.036807
 20
105.705523
 30
0.0
 40
3.0
 41
0.0
 71
     4
 72
     1
  1
{FINISH SURFACE}
  7
ARCH
  0
LINE
  5
6B42
100
AcDbEntity
  8
STUD
100
AcDbLine
 10
60.908846
 20
52.400878
 30
0.0
 11
59.909151
 21
52.978052
 31
0.0
  0
LINE
  5
6B43
100
AcDbEntity
  8
STUD
100
AcDbLine
 10
60.908846
 20
52.400878
 30
0.0
 11
60.908846
 21
52.400878
 31
0.0
  0
LINE
  5
6B44
100
AcDbEntity
  8
STUD
100
AcDbLine
 10
60.908846
 20
52.400878
 30
0.0
 11
62.253637
 21
53.177294
 31
0.0
  0
POLYLINE
  5
6B56
100
AcDbEntity
  8
STUD
100
AcDb2dPolyline
 66
     1
 10
0.0
 20
0.0
 30
0.0
  0
VERTEX
  5
6B57
100
AcDbEntity
  8
STUD
100
AcDbVertex
100
AcDb2dVertex
 10
59.458274
 20
52.757575
 30
0.0
  0
VERTEX
  5
6B58
100
AcDbEntity
  8
STUD
100
AcDbVertex
100
AcDb2dVertex
 10
59.458274
 20
53.303722
 30
0.0
  0
VERTEX
  5
6B59
100
AcDbEntity
  8
STUD
100
AcDbVertex
100
AcDb2dVertex
 10
59.401674
 20
53.271044
 30
0.0
  0
VERTEX
  5
6B5A
100
AcDbEntity
  8
STUD
100
AcDbVertex
100
AcDb2dVertex
 10
59.401674
 20
52.652004
 30
0.0
  0
VERTEX
  5
6B5B
100
AcDbEntity
  8
STUD
100
AcDbVertex
100
AcDb2dVertex
 10
59.909151
 20
53.598553
 30
0.0
  0
VERTEX
  5
6B5C
100
AcDbEntity
  8
STUD
100
AcDbVertex
100
AcDb2dVertex
 10
59.909151
 20
52.978052
 30
0.0
  0
VERTEX
  5
6B5D
100
AcDbEntity
  8
STUD
100
AcDbVertex
100
AcDb2dVertex
 10
59.965751
 20
53.01073
 30
0.0
  0
VERTEX
  5
6B5E
100
AcDbEntity
  8
STUD
100
AcDbVertex
100
AcDb2dVertex
 10
59.965751
 20
53.631231
 30
0.0
  0
VERTEX
  5
6B5F
100
AcDbEntity
  8
STUD
100
AcDbVertex
100
AcDb2dVertex
 10
59.909151
 20
53.598553
 30
0.0
  0
SEQEND
  5
6B60
100
AcDbEntity
  8
STUD
  0
LINE
  5
6B70
100
AcDbEntity
  8
STUD
100
AcDbLine
 10
60.908846
 20
52.466234
 30
0.0
 11
59.965751
 21
53.01073
 31
0.0
  0
LINE
  5
6B72
100
AcDbEntity
  8
STUD
100
AcDbLine
 10
60.908846
 20
52.466234
 30
0.0
 11
62.253637
 21
53.24265
 31
0.0
  0
LINE
  5
6B75
100
AcDbEntity
  8
STUD
100
AcDbLine
 10
59.401674
 20
53.271044
 30
0.0
 11
57.837066
 21
54.174371
 31
0.0
  0
LINE
  5
6B76
100
AcDbEntity
  8
STUD
100
AcDbLine
 10
59.458274
 20
53.303722
 30
0.0
 11
57.951103
 21
54.173887
 31
0.0
  0
LINE
  5
6B77
100
AcDbEntity
  8
STUD
100
AcDbLine
 10
57.951103
 20
54.173887
 30
0.0
 11
58.817129
 21
54.673887
 31
0.0
  0
LINE
  5
6B78
100
AcDbEntity
  8
STUD
100
AcDbLine
 10
57.837066
 20
54.174371
 30
0.0
 11
58.759691
 21
54.707049
 31
0.0
  0
LINE
  5
6B7A
100
AcDbEntity
  8
STUD
100
AcDbLine
 10
71.714607
 20
62.137652
 30
0.0
 11
72.637233
 21
62.67033
 31
0.0
  0
LINE
  5
6B7B
100
AcDbEntity
  8
STUD
100
AcDbLine
 10
71.828645
 20
62.137169
 30
0.0
 11
72.69467
 21
62.637169
 31
0.0
  0
LINE
  5
6B7C
100
AcDbEntity
  8
STUD
100
AcDbLine
 10
73.335816
 20
61.267003
 30
0.0
 11
71.828645
 21
62.137169
 31
0.0
  0
LINE
  5
6B7D
100
AcDbEntity
  8
STUD
100
AcDbLine
 10
73.279216
 20
61.234325
 30
0.0
 11
71.714607
 21
62.137652
 31
0.0
  0
LINE
  5
6B80
100
AcDbEntity
  8
STUD
100
AcDbLine
 10
74.786387
 20
60.429516
 30
0.0
 11
76.131178
 21
61.205931
 31
0.0
  0
LINE
  5
6B81
100
AcDbEntity
  8
STUD
100
AcDbLine
 10
74.786387
 20
60.429516
 30
0.0
 11
73.843292
 21
60.974011
 31
0.0
  0
POLYLINE
  5
6B8F
100
AcDbEntity
  8
STUD
100
AcDb2dPolyline
 66
     1
 10
0.0
 20
0.0
 30
0.0
  0
VERTEX
  5
6B90
100
AcDbEntity
  8
STUD
100
AcDbVertex
100
AcDb2dVertex
 10
73.335816
 20
60.720856
 30
0.0
  0
VERTEX
  5
6B91
100
AcDbEntity
  8
STUD
100
AcDbVertex
100
AcDb2dVertex
 10
73.335816
 20
61.267003
 30
0.0
  0
VERTEX
  5
6B92
100
AcDbEntity
  8
STUD
100
AcDbVertex
100
AcDb2dVertex
 10
73.279216
 20
61.234325
 30
0.0
  0
VERTEX
  5
6B93
100
AcDbEntity
  8
STUD
100
AcDbVertex
100
AcDb2dVertex
 10
73.279216
 20
60.615286
 30
0.0
  0
VERTEX
  5
6B94
100
AcDbEntity
  8
STUD
100
AcDbVertex
100
AcDb2dVertex
 10
73.786692
 20
61.561834
 30
0.0
  0
VERTEX
  5
6B95
100
AcDbEntity
  8
STUD
100
AcDbVertex
100
AcDb2dVertex
 10
73.786692
 20
60.941333
 30
0.0
  0
VERTEX
  5
6B96
100
AcDbEntity
  8
STUD
100
AcDbVertex
100
AcDb2dVertex
 10
73.843292
 20
60.974011
 30
0.0
  0
VERTEX
  5
6B97
100
AcDbEntity
  8
STUD
100
AcDbVertex
100
AcDb2dVertex
 10
73.843292
 20
61.594512
 30
0.0
  0
VERTEX
  5
6B98
100
AcDbEntity
  8
STUD
100
AcDbVertex
100
AcDb2dVertex
 10
73.786692
 20
61.561834
 30
0.0
  0
SEQEND
  5
6B99
100
AcDbEntity
  8
STUD
  0
LINE
  5
6B9A
100
AcDbEntity
  8
STUD
100
AcDbLine
 10
74.786387
 20
60.36416
 30
0.0
 11
76.131178
 21
61.140575
 31
0.0
  0
LINE
  5
6B9B
100
AcDbEntity
  8
STUD
100
AcDbLine
 10
74.786387
 20
60.36416
 30
0.0
 11
74.786387
 21
60.36416
 31
0.0
  0
LINE
  5
6B9C
100
AcDbEntity
  8
STUD
100
AcDbLine
 10
74.786387
 20
60.36416
 30
0.0
 11
73.786692
 21
60.941333
 31
0.0
  0
LINE
  5
6B9D
100
AcDbEntity
  8
STUD
100
AcDbLine
 10
85.549879
 20
70.174371
 30
0.0
 11
86.472504
 21
70.707049
 31
0.0
  0
LINE
  5
6B9E
100
AcDbEntity
  8
STUD
100
AcDbLine
 10
85.663916
 20
70.173887
 30
0.0
 11
86.529942
 21
70.673887
 31
0.0
  0
LINE
  5
6B9F
100
AcDbEntity
  8
STUD
100
AcDbLine
 10
87.171087
 20
69.303722
 30
0.0
 11
85.663916
 21
70.173887
 31
0.0
  0
LINE
  5
6BA0
100
AcDbEntity
  8
STUD
100
AcDbLine
 10
87.114487
 20
69.271044
 30
0.0
 11
85.549879
 21
70.174371
 31
0.0
  0
LINE
  5
6BA3
100
AcDbEntity
  8
STUD
100
AcDbLine
 10
88.621658
 20
68.466234
 30
0.0
 11
89.96645
 21
69.24265
 31
0.0
  0
LINE
  5
6BA4
100
AcDbEntity
  8
STUD
100
AcDbLine
 10
88.621658
 20
68.466234
 30
0.0
 11
87.678564
 21
69.01073
 31
0.0
  0
POLYLINE
  5
6BB2
100
AcDbEntity
  8
STUD
100
AcDb2dPolyline
 66
     1
 10
0.0
 20
0.0
 30
0.0
  0
VERTEX
  5
6BB3
100
AcDbEntity
  8
STUD
100
AcDbVertex
100
AcDb2dVertex
 10
87.171087
 20
68.757575
 30
0.0
  0
VERTEX
  5
6BB4
100
AcDbEntity
  8
STUD
100
AcDbVertex
100
AcDb2dVertex
 10
87.171087
 20
69.303722
 30
0.0
  0
VERTEX
  5
6BB5
100
AcDbEntity
  8
STUD
100
AcDbVertex
100
AcDb2dVertex
 10
87.114487
 20
69.271044
 30
0.0
  0
VERTEX
  5
6BB6
100
AcDbEntity
  8
STUD
100
AcDbVertex
100
AcDb2dVertex
 10
87.114487
 20
68.652004
 30
0.0
  0
VERTEX
  5
6BB7
100
AcDbEntity
  8
STUD
100
AcDbVertex
100
AcDb2dVertex
 10
87.621964
 20
69.598553
 30
0.0
  0
VERTEX
  5
6BB8
100
AcDbEntity
  8
STUD
100
AcDbVertex
100
AcDb2dVertex
 10
87.621964
 20
68.978052
 30
0.0
  0
VERTEX
  5
6BB9
100
AcDbEntity
  8
STUD
100
AcDbVertex
100
AcDb2dVertex
 10
87.678564
 20
69.01073
 30
0.0
  0
VERTEX
  5
6BBA
100
AcDbEntity
  8
STUD
100
AcDbVertex
100
AcDb2dVertex
 10
87.678564
 20
69.631231
 30
0.0
  0
VERTEX
  5
6BBB
100
AcDbEntity
  8
STUD
100
AcDbVertex
100
AcDb2dVertex
 10
87.621964
 20
69.598553
 30
0.0
  0
SEQEND
  5
6BBC
100
AcDbEntity
  8
STUD
  0
LINE
  5
6BBD
100
AcDbEntity
  8
STUD
100
AcDbLine
 10
88.621658
 20
68.400878
 30
0.0
 11
89.96645
 21
69.177294
 31
0.0
  0
LINE
  5
6BBE
100
AcDbEntity
  8
STUD
100
AcDbLine
 10
88.621658
 20
68.400878
 30
0.0
 11
88.621658
 21
68.400878
 31
0.0
  0
LINE
  5
6BBF
100
AcDbEntity
  8
STUD
100
AcDbLine
 10
88.621658
 20
68.400878
 30
0.0
 11
87.621964
 21
68.978052
 31
0.0
  0
LINE
  5
6BC0
100
AcDbEntity
  8
STUD
100
AcDbLine
 10
99.406285
 20
78.174371
 30
0.0
 11
100.328911
 21
78.707049
 31
0.0
  0
LINE
  5
6BC1
100
AcDbEntity
  8
STUD
100
AcDbLine
 10
99.520323
 20
78.173887
 30
0.0
 11
100.386348
 21
78.673887
 31
0.0
  0
LINE
  5
6BC2
100
AcDbEntity
  8
STUD
100
AcDbLine
 10
101.027494
 20
77.303722
 30
0.0
 11
99.520323
 21
78.173887
 31
0.0
  0
LINE
  5
6BC3
100
AcDbEntity
  8
STUD
100
AcDbLine
 10
100.970894
 20
77.271044
 30
0.0
 11
99.406285
 21
78.174371
 31
0.0
  0
LINE
  5
6BC6
100
AcDbEntity
  8
STUD
100
AcDbLine
 10
102.478065
 20
76.466234
 30
0.0
 11
103.822856
 21
77.24265
 31
0.0
  0
LINE
  5
6BC7
100
AcDbEntity
  8
STUD
100
AcDbLine
 10
102.478065
 20
76.466234
 30
0.0
 11
101.53497
 21
77.01073
 31
0.0
  0
POLYLINE
  5
6BD5
100
AcDbEntity
  8
STUD
100
AcDb2dPolyline
 66
     1
 10
0.0
 20
0.0
 30
0.0
  0
VERTEX
  5
6BD6
100
AcDbEntity
  8
STUD
100
AcDbVertex
100
AcDb2dVertex
 10
101.027494
 20
76.757575
 30
0.0
  0
VERTEX
  5
6BD7
100
AcDbEntity
  8
STUD
100
AcDbVertex
100
AcDb2dVertex
 10
101.027494
 20
77.303722
 30
0.0
  0
VERTEX
  5
6BD8
100
AcDbEntity
  8
STUD
100
AcDbVertex
100
AcDb2dVertex
 10
100.970894
 20
77.271044
 30
0.0
  0
VERTEX
  5
6BD9
100
AcDbEntity
  8
STUD
100
AcDbVertex
100
AcDb2dVertex
 10
100.970894
 20
76.652004
 30
0.0
  0
VERTEX
  5
6BDA
100
AcDbEntity
  8
STUD
100
AcDbVertex
100
AcDb2dVertex
 10
101.47837
 20
77.598553
 30
0.0
  0
VERTEX
  5
6BDB
100
AcDbEntity
  8
STUD
100
AcDbVertex
100
AcDb2dVertex
 10
101.47837
 20
76.978052
 30
0.0
  0
VERTEX
  5
6BDC
100
AcDbEntity
  8
STUD
100
AcDbVertex
100
AcDb2dVertex
 10
101.53497
 20
77.01073
 30
0.0
  0
VERTEX
  5
6BDD
100
AcDbEntity
  8
STUD
100
AcDbVertex
100
AcDb2dVertex
 10
101.53497
 20
77.631231
 30
0.0
  0
VERTEX
  5
6BDE
100
AcDbEntity
  8
STUD
100
AcDbVertex
100
AcDb2dVertex
 10
101.47837
 20
77.598553
 30
0.0
  0
SEQEND
  5
6BDF
100
AcDbEntity
  8
STUD
  0
LINE
  5
6BE0
100
AcDbEntity
  8
STUD
100
AcDbLine
 10
102.478065
 20
76.400878
 30
0.0
 11
103.822856
 21
77.177294
 31
0.0
  0
LINE
  5
6BE1
100
AcDbEntity
  8
STUD
100
AcDbLine
 10
102.478065
 20
76.400878
 30
0.0
 11
102.478065
 21
76.400878
 31
0.0
  0
LINE
  5
6BE2
100
AcDbEntity
  8
STUD
100
AcDbLine
 10
102.478065
 20
76.400878
 30
0.0
 11
101.47837
 21
76.978052
 31
0.0
  0
LINE
  5
6BE3
100
AcDbEntity
  8
STUD
100
AcDbLine
 10
113.262692
 20
86.174371
 30
0.0
 11
114.185317
 21
86.707049
 31
0.0
  0
LINE
  5
6BE4
100
AcDbEntity
  8
STUD
100
AcDbLine
 10
113.376729
 20
86.173887
 30
0.0
 11
114.242755
 21
86.673887
 31
0.0
  0
LINE
  5
6BE5
100
AcDbEntity
  8
STUD
100
AcDbLine
 10
114.8839
 20
85.303722
 30
0.0
 11
113.376729
 21
86.173887
 31
0.0
  0
LINE
  5
6BE6
100
AcDbEntity
  8
STUD
100
AcDbLine
 10
114.8273
 20
85.271044
 30
0.0
 11
113.262692
 21
86.174371
 31
0.0
  0
LINE
  5
6BE9
100
AcDbEntity
  8
STUD
100
AcDbLine
 10
116.334471
 20
84.466234
 30
0.0
 11
117.679263
 21
85.24265
 31
0.0
  0
LINE
  5
6BEA
100
AcDbEntity
  8
STUD
100
AcDbLine
 10
116.334471
 20
84.466234
 30
0.0
 11
115.391377
 21
85.01073
 31
0.0
  0
POLYLINE
  5
6BF8
100
AcDbEntity
  8
STUD
100
AcDb2dPolyline
 66
     1
 10
0.0
 20
0.0
 30
0.0
  0
VERTEX
  5
6BF9
100
AcDbEntity
  8
STUD
100
AcDbVertex
100
AcDb2dVertex
 10
114.8839
 20
84.757575
 30
0.0
  0
VERTEX
  5
6BFA
100
AcDbEntity
  8
STUD
100
AcDbVertex
100
AcDb2dVertex
 10
114.8839
 20
85.303722
 30
0.0
  0
VERTEX
  5
6BFB
100
AcDbEntity
  8
STUD
100
AcDbVertex
100
AcDb2dVertex
 10
114.8273
 20
85.271044
 30
0.0
  0
VERTEX
  5
6BFC
100
AcDbEntity
  8
STUD
100
AcDbVertex
100
AcDb2dVertex
 10
114.8273
 20
84.652004
 30
0.0
  0
VERTEX
  5
6BFD
100
AcDbEntity
  8
STUD
100
AcDbVertex
100
AcDb2dVertex
 10
115.334777
 20
85.598553
 30
0.0
  0
VERTEX
  5
6BFE
100
AcDbEntity
  8
STUD
100
AcDbVertex
100
AcDb2dVertex
 10
115.334777
 20
84.978052
 30
0.0
  0
VERTEX
  5
6BFF
100
AcDbEntity
  8
STUD
100
AcDbVertex
100
AcDb2dVertex
 10
115.391377
 20
85.01073
 30
0.0
  0
VERTEX
  5
6C00
100
AcDbEntity
  8
STUD
100
AcDbVertex
100
AcDb2dVertex
 10
115.391377
 20
85.631231
 30
0.0
  0
VERTEX
  5
6C01
100
AcDbEntity
  8
STUD
100
AcDbVertex
100
AcDb2dVertex
 10
115.334777
 20
85.598553
 30
0.0
  0
SEQEND
  5
6C02
100
AcDbEntity
  8
STUD
  0
LINE
  5
6C03
100
AcDbEntity
  8
STUD
100
AcDbLine
 10
116.334471
 20
84.400878
 30
0.0
 11
117.679263
 21
85.177294
 31
0.0
  0
LINE
  5
6C04
100
AcDbEntity
  8
STUD
100
AcDbLine
 10
116.334471
 20
84.400878
 30
0.0
 11
116.334471
 21
84.400878
 31
0.0
  0
LINE
  5
6C05
100
AcDbEntity
  8
STUD
100
AcDbLine
 10
116.334471
 20
84.400878
 30
0.0
 11
115.334777
 21
84.978052
 31
0.0
  0
POLYLINE
  5
6C0F
100
AcDbEntity
  8
STUD
100
AcDb2dPolyline
 66
     1
 10
0.0
 20
0.0
 30
0.0
  0
VERTEX
  5
6C1F
100
AcDbEntity
  8
STUD
100
AcDbVertex
100
AcDb2dVertex
 10
113.320129
 20
87.206565
 30
0.0
  0
VERTEX
  5
6C16
100
AcDbEntity
  8
STUD
100
AcDbVertex
100
AcDb2dVertex
 10
114.8839
 20
86.303722
 30
0.0
  0
VERTEX
  5
6C15
100
AcDbEntity
  8
STUD
100
AcDbVertex
100
AcDb2dVertex
 10
114.8839
 20
85.684682
 30
0.0
  0
VERTEX
  5
6C14
100
AcDbEntity
  8
STUD
100
AcDbVertex
100
AcDb2dVertex
 10
115.391377
 20
86.631231
 30
0.0
  0
VERTEX
  5
6C13
100
AcDbEntity
  8
STUD
100
AcDbVertex
100
AcDb2dVertex
 10
115.391377
 20
86.01073
 30
0.0
  0
VERTEX
  5
6C10
100
AcDbEntity
  8
STUD
100
AcDbVertex
100
AcDb2dVertex
 10
116.391071
 20
85.433556
 30
0.0
  0
VERTEX
  5
6C11
100
AcDbEntity
  8
STUD
100
AcDbVertex
100
AcDb2dVertex
 10
117.679263
 20
86.177294
 30
0.0
  0
SEQEND
  5
6C12
100
AcDbEntity
  8
STUD
  0
POLYLINE
  5
6C20
100
AcDbEntity
  8
STUD
100
AcDb2dPolyline
 66
     1
 10
0.0
 20
0.0
 30
0.0
  0
VERTEX
  5
6C21
100
AcDbEntity
  8
STUD
100
AcDbVertex
100
AcDb2dVertex
 10
99.463723
 20
79.206565
 30
0.0
  0
VERTEX
  5
6C22
100
AcDbEntity
  8
STUD
100
AcDbVertex
100
AcDb2dVertex
 10
101.027494
 20
78.303722
 30
0.0
  0
VERTEX
  5
6C23
100
AcDbEntity
  8
STUD
100
AcDbVertex
100
AcDb2dVertex
 10
101.027494
 20
77.684682
 30
0.0
  0
VERTEX
  5
6C24
100
AcDbEntity
  8
STUD
100
AcDbVertex
100
AcDb2dVertex
 10
101.53497
 20
78.631231
 30
0.0
  0
VERTEX
  5
6C25
100
AcDbEntity
  8
STUD
100
AcDbVertex
100
AcDb2dVertex
 10
101.53497
 20
78.01073
 30
0.0
  0
VERTEX
  5
6C26
100
AcDbEntity
  8
STUD
100
AcDbVertex
100
AcDb2dVertex
 10
102.534665
 20
77.433556
 30
0.0
  0
VERTEX
  5
6C27
100
AcDbEntity
  8
STUD
100
AcDbVertex
100
AcDb2dVertex
 10
103.822856
 20
78.177294
 30
0.0
  0
SEQEND
  5
6C28
100
AcDbEntity
  8
STUD
  0
POLYLINE
  5
6C29
100
AcDbEntity
  8
STUD
100
AcDb2dPolyline
 66
     1
 10
0.0
 20
0.0
 30
0.0
  0
VERTEX
  5
6C2A
100
AcDbEntity
  8
STUD
100
AcDbVertex
100
AcDb2dVertex
 10
85.607316
 20
71.206565
 30
0.0
  0
VERTEX
  5
6C2B
100
AcDbEntity
  8
STUD
100
AcDbVertex
100
AcDb2dVertex
 10
87.171087
 20
70.303722
 30
0.0
  0
VERTEX
  5
6C2C
100
AcDbEntity
  8
STUD
100
AcDbVertex
100
AcDb2dVertex
 10
87.171087
 20
69.684682
 30
0.0
  0
VERTEX
  5
6C2D
100
AcDbEntity
  8
STUD
100
AcDbVertex
100
AcDb2dVertex
 10
87.678564
 20
70.631231
 30
0.0
  0
VERTEX
  5
6C2E
100
AcDbEntity
  8
STUD
100
AcDbVertex
100
AcDb2dVertex
 10
87.678564
 20
70.01073
 30
0.0
  0
VERTEX
  5
6C2F
100
AcDbEntity
  8
STUD
100
AcDbVertex
100
AcDb2dVertex
 10
88.678258
 20
69.433556
 30
0.0
  0
VERTEX
  5
6C30
100
AcDbEntity
  8
STUD
100
AcDbVertex
100
AcDb2dVertex
 10
89.96645
 20
70.177294
 30
0.0
  0
SEQEND
  5
6C31
100
AcDbEntity
  8
STUD
  0
POLYLINE
  5
6C32
100
AcDbEntity
  8
STUD
100
AcDb2dPolyline
 66
     1
 10
0.0
 20
0.0
 30
0.0
  0
VERTEX
  5
6C33
100
AcDbEntity
  8
STUD
100
AcDbVertex
100
AcDb2dVertex
 10
71.772045
 20
63.169847
 30
0.0
  0
VERTEX
  5
6C34
100
AcDbEntity
  8
STUD
100
AcDbVertex
100
AcDb2dVertex
 10
73.335816
 20
62.267003
 30
0.0
  0
VERTEX
  5
6C35
100
AcDbEntity
  8
STUD
100
AcDbVertex
100
AcDb2dVertex
 10
73.335816
 20
61.647964
 30
0.0
  0
VERTEX
  5
6C36
100
AcDbEntity
  8
STUD
100
AcDbVertex
100
AcDb2dVertex
 10
73.843292
 20
62.594512
 30
0.0
  0
VERTEX
  5
6C37
100
AcDbEntity
  8
STUD
100
AcDbVertex
100
AcDb2dVertex
 10
73.843292
 20
61.974011
 30
0.0
  0
VERTEX
  5
6C38
100
AcDbEntity
  8
STUD
100
AcDbVertex
100
AcDb2dVertex
 10
74.842987
 20
61.396838
 30
0.0
  0
VERTEX
  5
6C39
100
AcDbEntity
  8
STUD
100
AcDbVertex
100
AcDb2dVertex
 10
76.131178
 20
62.140575
 30
0.0
  0
SEQEND
  5
6C3A
100
AcDbEntity
  8
STUD
  0
POLYLINE
  5
6C3B
100
AcDbEntity
  8
STUD
100
AcDb2dPolyline
 66
     1
 10
0.0
 20
0.0
 30
0.0
  0
VERTEX
  5
6C3C
100
AcDbEntity
  8
STUD
100
AcDbVertex
100
AcDb2dVertex
 10
57.894503
 20
55.206565
 30
0.0
  0
VERTEX
  5
6C3D
100
AcDbEntity
  8
STUD
100
AcDbVertex
100
AcDb2dVertex
 10
59.458274
 20
54.303722
 30
0.0
  0
VERTEX
  5
6C3E
100
AcDbEntity
  8
STUD
100
AcDbVertex
100
AcDb2dVertex
 10
59.458274
 20
53.684682
 30
0.0
  0
VERTEX
  5
6C3F
100
AcDbEntity
  8
STUD
100
AcDbVertex
100
AcDb2dVertex
 10
59.965751
 20
54.631231
 30
0.0
  0
VERTEX
  5
6C40
100
AcDbEntity
  8
STUD
100
AcDbVertex
100
AcDb2dVertex
 10
59.965751
 20
54.01073
 30
0.0
  0
VERTEX
  5
6C41
100
AcDbEntity
  8
STUD
100
AcDbVertex
100
AcDb2dVertex
 10
60.965446
 20
53.433556
 30
0.0
  0
VERTEX
  5
6C42
100
AcDbEntity
  8
STUD
100
AcDbVertex
100
AcDb2dVertex
 10
62.253637
 20
54.177294
 30
0.0
  0
SEQEND
  5
6C43
100
AcDbEntity
  8
STUD
  0
LINE
  5
6C44
100
AcDbEntity
  8
STUD
100
AcDbLine
 10
102.478065
 20
76.466234
 30
0.0
 11
102.478065
 21
58.293661
 31
0.0
  0
LINE
  5
6C45
100
AcDbEntity
  8
STUD
100
AcDbLine
 10
102.540565
 20
76.436963
 30
0.0
 11
102.540565
 21
58.329525
 31
0.0
  0
POLYLINE
  5
791C
100
AcDbEntity
  8
STUD
100
AcDb2dPolyline
 66
     1
 10
0.0
 20
0.0
 30
0.0
 70
     1
  0
VERTEX
  5
791D
100
AcDbEntity
  8
STUD
100
AcDbVertex
100
AcDb2dVertex
 10
73.674203
 20
101.994309
 30
0.0
  0
VERTEX
  5
791E
100
AcDbEntity
  8
STUD
100
AcDbVertex
100
AcDb2dVertex
 10
73.674203
 20
100.423436
 30
0.0
 42
0.57735
  0
VERTEX
  5
791F
100
AcDbEntity
  8
STUD
100
AcDbVertex
100
AcDb2dVertex
 10
73.721078
 20
100.396373
 30
0.0
  0
VERTEX
  5
7920
100
AcDbEntity
  8
STUD
100
AcDbVertex
100
AcDb2dVertex
 10
76.79792
 20
102.172788
 30
0.0
 42
0.267949
  0
VERTEX
  5
7921
100
AcDbEntity
  8
STUD
100
AcDbVertex
100
AcDb2dVertex
 10
76.813545
 20
102.199851
 30
0.0
  0
VERTEX
  5
7922
100
AcDbEntity
  8
STUD
100
AcDbVertex
100
AcDb2dVertex
 10
76.813545
 20
103.806809
 30
0.0
  0
VERTEX
  5
7923
100
AcDbEntity
  8
STUD
100
AcDbVertex
100
AcDb2dVertex
 10
76.848145
 20
103.826786
 30
0.0
  0
VERTEX
  5
7924
100
AcDbEntity
  8
STUD
100
AcDbVertex
100
AcDb2dVertex
 10
76.848145
 20
102.199851
 30
0.0
 42
-0.267949
  0
VERTEX
  5
7925
100
AcDbEntity
  8
STUD
100
AcDbVertex
100
AcDb2dVertex
 10
76.81522
 20
102.142824
 30
0.0
  0
VERTEX
  5
7926
100
AcDbEntity
  8
STUD
100
AcDbVertex
100
AcDb2dVertex
 10
73.738378
 20
100.366408
 30
0.0
 42
-0.57735
  0
VERTEX
  5
7927
100
AcDbEntity
  8
STUD
100
AcDbVertex
100
AcDb2dVertex
 10
73.639603
 20
100.423436
 30
0.0
  0
VERTEX
  5
7928
100
AcDbEntity
  8
STUD
100
AcDbVertex
100
AcDb2dVertex
 10
73.639603
 20
101.974333
 30
0.0
  0
SEQEND
  5
7929
100
AcDbEntity
  8
STUD
  0
LINE
  5
792A
100
AcDbEntity
  8
STUD
100
AcDbLine
 10
76.813545
 20
103.806809
 30
0.0
 11
74.820401
 21
104.969744
 31
0.0
  0
LINE
  5
792B
100
AcDbEntity
  8
STUD
100
AcDbLine
 10
76.848145
 20
103.826786
 30
0.0
 11
74.845908
 21
104.995026
 31
0.0
  0
LINE
  5
792C
100
AcDbEntity
  8
STUD
100
AcDbLine
 10
73.674203
 20
101.994309
 30
0.0
 11
70.623764
 21
103.774142
 31
0.0
  0
LINE
  5
792D
100
AcDbEntity
  8
STUD
100
AcDbLine
 10
73.639603
 20
101.974333
 30
0.0
 11
70.589164
 21
103.754165
 31
0.0
  0
LINE
  5
792E
100
AcDbEntity
  8
STUD
100
AcDbLine
 10
73.639603
 20
100.423436
 30
0.0
 11
70.589164
 21
102.203268
 31
0.0
  0
LINE
  5
792F
100
AcDbEntity
  8
STUD
100
AcDbLine
 10
76.79792
 20
102.172788
 30
0.0
 11
73.747481
 21
103.95262
 31
0.0
  0
LINE
  5
793E
100
AcDbEntity
  8
STUD
100
AcDbLine
 10
73.763106
 20
103.979684
 30
0.0
 11
76.813545
 21
102.199851
 31
0.0
  0
ELLIPSE
  5
793F
100
AcDbEntity
  8
FASTENER
100
AcDbEllipse
 10
75.687551
 20
102.043076
 30
0.0
 11
-0.153093108923944
 21
-0.0000000000000026
 31
0.0
210
0.0
220
0.0
230
-1.0
 40
0.57735
 41
0.0000000000000298
 42
6.28318530717963
  0
LINE
  5
7940
100
AcDbEntity
  8
FASTENER
100
AcDbLine
 10
75.795804
 20
101.980576
 30
0.0
 11
75.579298
 21
102.105576
 31
0.0
  0
LINE
  5
7941
100
AcDbEntity
  8
FASTENER
100
AcDbLine
 10
75.579918
 20
101.979514
 30
0.0
 11
75.795184
 21
102.106638
 31
0.0
  0
ELLIPSE
  5
7942
100
AcDbEntity
  8
FASTENER
100
AcDbEllipse
 10
73.965422
 20
101.026084
 30
0.0
 11
-0.153093108923944
 21
-0.0000000000000025
 31
0.0
210
0.0
220
0.0
230
-1.0
 40
0.57735
 41
0.0000000000000286
 42
6.283185307179628
  0
LINE
  5
7943
100
AcDbEntity
  8
FASTENER
100
AcDbLine
 10
74.073675
 20
100.963584
 30
0.0
 11
73.857169
 21
101.088584
 31
0.0
  0
LINE
  5
7944
100
AcDbEntity
  8
FASTENER
100
AcDbLine
 10
73.857789
 20
100.962522
 30
0.0
 11
74.073055
 21
101.089646
 31
0.0
  0
LINE
  5
797D
100
AcDbEntity
  8
STUD
100
AcDbLine
 10
74.928104
 20
105.125216
 30
0.0
 11
67.571242
 21
133.188444
 31
0.0
  0
LINE
  5
797E
100
AcDbEntity
  8
STUD
100
AcDbLine
 10
74.966649
 20
105.114705
 30
0.0
 11
67.60065
 21
133.212787
 31
0.0
  0
LINE
  5
797F
100
AcDbEntity
  8
STUD
100
AcDbLine
 10
71.772532
 20
103.334406
 30
0.0
 11
64.355864
 21
131.625773
 31
0.0
  0
LINE
  5
7980
100
AcDbEntity
  8
STUD
100
AcDbLine
 10
71.733987
 20
103.344917
 30
0.0
 11
64.325702
 21
131.604305
 31
0.0
  0
LINE
  5
7981
100
AcDbEntity
  8
STUD
100
AcDbLine
 10
70.589164
 20
102.203268
 30
0.0
 11
62.713222
 21
132.461738
 31
0.0
  0
LINE
  5
7982
100
AcDbEntity
  8
STUD
100
AcDbLine
 10
73.747481
 20
103.95262
 30
0.0
 11
65.838872
 21
134.188629
 31
0.0
  0
LINE
  5
7991
100
AcDbEntity
  8
STUD
100
AcDbLine
 10
65.87694
 20
134.16665
 30
0.0
 11
73.763106
 21
103.979684
 31
0.0
  0
ELLIPSE
  5
799E
100
AcDbEntity
  8
FASTENER
100
AcDbEllipse
 10
70.895061
 20
103.151951
 30
0.0
 11
0.0765465544619742
 21
-0.1325825214724724
 31
0.0
210
0.0
220
0.0
230
-1.0
 40
0.57735
 41
0.0000000000000358
 42
6.283185307179635
  0
LINE
  5
799F
100
AcDbEntity
  8
FASTENER
100
AcDbLine
 10
70.895061
 20
103.276951
 30
0.0
 11
70.895061
 21
103.026951
 31
0.0
  0
LINE
  5
79A0
100
AcDbEntity
  8
FASTENER
100
AcDbLine
 10
71.003924
 20
103.090519
 30
0.0
 11
70.786199
 21
103.213383
 31
0.0
  0
LINE
  5
79A2
100
AcDbEntity
  8
STUD
100
AcDbLine
 10
74.09622
 20
105.053316
 30
0.0
 11
74.09622
 21
104.803316
 31
0.0
  0
LINE
  5
79A3
100
AcDbEntity
  8
STUD
100
AcDbLine
 10
74.205083
 20
104.866884
 30
0.0
 11
73.987358
 21
104.989748
 31
0.0
  0
LINE
  5
79A7
100
AcDbEntity
  8
FASTENER
100
AcDbLine
 10
73.358629
 20
103.28408
 30
0.0
 11
73.573895
 21
103.411204
 31
0.0
  0
LINE
  5
79A8
100
AcDbEntity
  8
FASTENER
100
AcDbLine
 10
73.574515
 20
103.285142
 30
0.0
 11
73.358009
 21
103.410142
 31
0.0
  0
ELLIPSE
  5
79A9
100
AcDbEntity
  8
FASTENER
100
AcDbEllipse
 10
73.466262
 20
103.347642
 30
0.0
 11
-0.153093108923944
 21
-0.0000000000000026
 31
0.0
210
0.0
220
0.0
230
-1.0
 40
0.57735
 41
0.0000000000000298
 42
6.28318530717963
  0
LINE
  5
79BC
100
AcDbEntity
  8
STUD
100
AcDbLine
 10
62.713222
 20
132.461738
 30
0.0
 11
59.110306
 21
134.541882
 31
0.0
  0
LINE
  5
79BD
100
AcDbEntity
  8
STUD
100
AcDbLine
 10
65.732725
 20
134.291234
 30
0.0
 11
62.268623
 21
136.291234
 31
0.0
  0
ELLIPSE
  5
79D7
100
AcDbEntity
  8
FASTENER
100
AcDbEllipse
 10
64.622356
 20
134.161523
 30
0.0
 11
-0.153093108923944
 21
-0.0000000000000026
 31
0.0
210
0.0
220
0.0
230
-1.0
 40
0.57735
 41
0.0000000000000298
 42
6.28318530717963
  0
LINE
  5
79D8
100
AcDbEntity
  8
FASTENER
100
AcDbLine
 10
64.730609
 20
134.099023
 30
0.0
 11
64.514103
 21
134.224023
 31
0.0
  0
LINE
  5
79D9
100
AcDbEntity
  8
FASTENER
100
AcDbLine
 10
64.514723
 20
134.097961
 30
0.0
 11
64.729989
 21
134.225085
 31
0.0
  0
ELLIPSE
  5
79DA
100
AcDbEntity
  8
FASTENER
100
AcDbEllipse
 10
62.900227
 20
133.144531
 30
0.0
 11
-0.153093108923944
 21
-0.0000000000000025
 31
0.0
210
0.0
220
0.0
230
-1.0
 40
0.57735
 41
0.0000000000000286
 42
6.283185307179628
  0
LINE
  5
79DB
100
AcDbEntity
  8
FASTENER
100
AcDbLine
 10
63.00848
 20
133.082031
 30
0.0
 11
62.791974
 21
133.207031
 31
0.0
  0
LINE
  5
79DC
100
AcDbEntity
  8
FASTENER
100
AcDbLine
 10
62.792594
 20
133.080969
 30
0.0
 11
63.00786
 21
133.208093
 31
0.0
  0
POLYLINE
  5
79DD
100
AcDbEntity
  8
STUD
100
AcDb2dPolyline
 66
     1
 10
0.0
 20
0.0
 30
0.0
  0
VERTEX
  5
79DE
100
AcDbEntity
  8
STUD
100
AcDbVertex
100
AcDb2dVertex
 10
62.617437
 20
132.517039
 30
0.0
  0
VERTEX
  5
79DF
100
AcDbEntity
  8
STUD
100
AcDbVertex
100
AcDb2dVertex
 10
63.92996
 20
133.250408
 30
0.0
  0
VERTEX
  5
79E0
100
AcDbEntity
  8
STUD
100
AcDbVertex
100
AcDb2dVertex
 10
60.552198
 20
135.260303
 30
0.0
  0
SEQEND
  5
79E1
100
AcDbEntity
  8
STUD
  0
LINE
  5
79E7
100
AcDbEntity
  8
STUD
100
AcDbLine
 10
64.325702
 20
131.604305
 30
0.0
 11
62.728079
 21
132.526692
 31
0.0
  0
LINE
  5
79E8
100
AcDbEntity
  8
STUD
100
AcDbLine
 10
65.732725
 20
134.291234
 30
0.0
 11
67.60065
 21
133.212787
 31
0.0
  0
POLYLINE
  5
79EE
100
AcDbEntity
  8
STUD
100
AcDb2dPolyline
 66
     1
 10
0.0
 20
0.0
 30
0.0
  0
VERTEX
  5
79F4
100
AcDbEntity
  8
STUD
100
AcDbVertex
100
AcDb2dVertex
 10
62.284248
 20
136.318298
 30
0.0
  0
VERTEX
  5
79EF
100
AcDbEntity
  8
STUD
100
AcDbVertex
100
AcDb2dVertex
 10
65.764275
 20
134.309103
 30
0.0
  0
VERTEX
  5
79F0
100
AcDbEntity
  8
STUD
100
AcDbVertex
100
AcDb2dVertex
 10
64.671423
 20
133.690143
 30
0.0
  0
VERTEX
  5
79F1
100
AcDbEntity
  8
STUD
100
AcDbVertex
100
AcDb2dVertex
 10
61.29366
 20
135.700038
 30
0.0
  0
SEQEND
  5
79F2
100
AcDbEntity
  8
STUD
  0
LINE
  5
79F3
100
AcDbEntity
  8
STUD
100
AcDbLine
 10
65.838872
 20
134.188629
 30
0.0
 11
67.571242
 21
133.188444
 31
0.0
  0
LINE
  5
79F5
100
AcDbEntity
  8
STUD
100
AcDbLine
 10
64.355864
 20
131.625773
 30
0.0
 11
62.762193
 21
132.545879
 31
0.0
  0
LINE
  5
79F6
100
AcDbEntity
  8
STUD
100
AcDbLine
 10
65.838872
 20
134.188629
 30
0.0
 11
62.8391
 21
132.501477
 31
0.0
  0
LINE
  5
79F7
100
AcDbEntity
  8
STUD
100
AcDbLine
 10
65.793187
 20
134.250591
 30
0.0
 11
62.663742
 21
132.490305
 31
0.0
  0
LINE
  5
79F8
100
AcDbEntity
  8
STUD
100
AcDbLine
 10
62.728079
 20
132.526692
 30
0.0
 11
62.713222
 21
132.461738
 31
0.0
  0
POLYLINE
  5
7A0F
100
AcDbEntity
  8
STUD
100
AcDb2dPolyline
 66
     1
 10
0.0
 20
0.0
 30
0.0
  0
VERTEX
  5
7A10
100
AcDbEntity
  8
STUD
100
AcDbVertex
100
AcDb2dVertex
 10
71.595194
 20
103.207344
 30
0.0
  0
VERTEX
  5
7A11
100
AcDbEntity
  8
STUD
100
AcDbVertex
100
AcDb2dVertex
 10
71.733987
 20
103.344917
 30
0.0
  0
VERTEX
  5
7A12
100
AcDbEntity
  8
STUD
100
AcDbVertex
100
AcDb2dVertex
 10
71.772532
 20
103.334406
 30
0.0
  0
SEQEND
  5
7A13
100
AcDbEntity
  8
STUD
  0
POLYLINE
  5
7A35
100
AcDbEntity
  8
STUD
100
AcDb2dPolyline
 66
     1
 10
0.0
 20
0.0
 30
0.0
  0
VERTEX
  5
7A36
100
AcDbEntity
  8
STUD
100
AcDbVertex
100
AcDb2dVertex
 10
73.768959
 20
103.976268
 30
0.0
  0
VERTEX
  5
7A37
100
AcDbEntity
  8
STUD
100
AcDbVertex
100
AcDb2dVertex
 10
74.928104
 20
105.125216
 30
0.0
  0
VERTEX
  5
7A38
100
AcDbEntity
  8
STUD
100
AcDbVertex
100
AcDb2dVertex
 10
74.966649
 20
105.114705
 30
0.0
  0
VERTEX
  5
7A39
100
AcDbEntity
  8
STUD
100
AcDbVertex
100
AcDb2dVertex
 10
73.799897
 20
103.958217
 30
0.0
 42
-0.267949
  0
SEQEND
  5
7A3A
100
AcDbEntity
  8
STUD
  0
POLYLINE
  5
7A3B
100
AcDbEntity
  8
STUD
100
AcDb2dPolyline
 66
     1
 10
0.0
 20
0.0
 30
0.0
  0
VERTEX
  5
7A3C
100
AcDbEntity
  8
STUD
100
AcDbVertex
100
AcDb2dVertex
 10
71.772532
 20
103.334406
 30
0.0
  0
VERTEX
  5
7A3D
100
AcDbEntity
  8
STUD
100
AcDbVertex
100
AcDb2dVertex
 10
71.626131
 20
103.189293
 30
0.0
 42
0.57735
  0
SEQEND
  5
7A3E
100
AcDbEntity
  8
STUD
  0
POLYLINE
  5
7A65
100
AcDbEntity
  8
STUD
100
AcDb2dPolyline
 66
     1
 10
0.0
 20
0.0
 30
0.0
  0
VERTEX
  5
7A66
100
AcDbEntity
  8
STUD
100
AcDbVertex
100
AcDb2dVertex
 10
70.687939
 20
102.14624
 30
0.0
 42
-0.57735
  0
VERTEX
  5
7A67
100
AcDbEntity
  8
STUD
100
AcDbVertex
100
AcDb2dVertex
 10
70.589164
 20
102.203268
 30
0.0
  0
VERTEX
  5
7A68
100
AcDbEntity
  8
STUD
100
AcDbVertex
100
AcDb2dVertex
 10
70.589164
 20
103.754165
 30
0.0
  0
VERTEX
  5
7A69
100
AcDbEntity
  8
STUD
100
AcDbVertex
100
AcDb2dVertex
 10
70.623764
 20
103.774142
 30
0.0
  0
SEQEND
  5
7A6A
100
AcDbEntity
  8
STUD
  0
LINE
  5
7A77
100
AcDbEntity
  8
TRACK
100
AcDbLine
 10
121.607067
 20
131.479659
 30
0.0
 11
118.408198
 21
129.632792
 31
0.0
  0
LINE
  5
7A78
100
AcDbEntity
  8
FASTENER
100
AcDbLine
 10
60.253702
 20
134.546798
 30
0.0
 11
60.468968
 21
134.673922
 31
0.0
  0
LINE
  5
7A79
100
AcDbEntity
  8
FASTENER
100
AcDbLine
 10
60.469589
 20
134.54786
 30
0.0
 11
60.253082
 21
134.67286
 31
0.0
  0
ELLIPSE
  5
7A7A
100
AcDbEntity
  8
FASTENER
100
AcDbEllipse
 10
60.361335
 20
134.61036
 30
0.0
 11
-0.153093108923944
 21
-0.0000000000000025
 31
0.0
210
0.0
220
0.0
230
-1.0
 40
0.57735
 41
0.0000000000000286
 42
6.283185307179628
  0
LINE
  5
7A7B
100
AcDbEntity
  8
FASTENER
100
AcDbLine
 10
61.975831
 20
135.56379
 30
0.0
 11
62.191097
 21
135.690914
 31
0.0
  0
LINE
  5
7A7C
100
AcDbEntity
  8
FASTENER
100
AcDbLine
 10
62.191717
 20
135.564852
 30
0.0
 11
61.975211
 21
135.689852
 31
0.0
  0
ELLIPSE
  5
7A7D
100
AcDbEntity
  8
FASTENER
100
AcDbEllipse
 10
62.083464
 20
135.627352
 30
0.0
 11
-0.153093108923944
 21
-0.0000000000000026
 31
0.0
210
0.0
220
0.0
230
-1.0
 40
0.57735
 41
0.0000000000000298
 42
6.28318530717963
  0
LINE
  5
7A7E
100
AcDbEntity
  8
STUD
100
AcDbLine
 10
62.284248
 20
136.318298
 30
0.0
 11
59.110306
 21
134.541882
 31
0.0
  0
LINE
  5
7AF7
100
AcDbEntity
  8
STUD
100
AcDbLine
 10
113.034485
 20
128.593007
 30
0.0
 11
120.391347
 21
156.64249
 31
0.0
  0
LINE
  5
7AF8
100
AcDbEntity
  8
STUD
100
AcDbLine
 10
112.99594
 20
128.568751
 30
0.0
 11
120.361939
 21
156.666833
 31
0.0
  0
LINE
  5
7AF9
100
AcDbEntity
  8
STUD
100
AcDbLine
 10
116.190057
 20
126.788452
 30
0.0
 11
123.606726
 21
155.079819
 31
0.0
  0
LINE
  5
7AFA
100
AcDbEntity
  8
STUD
100
AcDbLine
 10
116.228602
 20
126.798963
 30
0.0
 11
123.636887
 21
155.058351
 31
0.0
  0
LINE
  5
7AFB
100
AcDbEntity
  8
STUD
100
AcDbLine
 10
117.373425
 20
125.657314
 30
0.0
 11
125.249367
 21
155.915784
 31
0.0
  0
LINE
  5
7AFC
100
AcDbEntity
  8
STUD
100
AcDbLine
 10
114.215108
 20
127.406666
 30
0.0
 11
122.123717
 21
157.642675
 31
0.0
  0
LINE
  5
7AFD
100
AcDbEntity
  8
STUD
100
AcDbLine
 10
122.085649
 20
157.620696
 30
0.0
 11
114.199483
 21
127.43373
 31
0.0
  0
LINE
  5
7AFE
100
AcDbEntity
  8
STUD
100
AcDbLine
 10
125.249367
 20
155.915784
 30
0.0
 11
128.852283
 21
157.995928
 31
0.0
  0
LINE
  5
7AFF
100
AcDbEntity
  8
STUD
100
AcDbLine
 10
122.229864
 20
157.74528
 30
0.0
 11
125.693966
 21
159.74528
 31
0.0
  0
ELLIPSE
  5
7B00
100
AcDbEntity
  8
STUD
100
AcDbEllipse
 10
123.340233
 20
157.615569
 30
0.0
 11
0.153093108923944
 21
-0.0000000000000026
 31
0.0
210
0.0
220
0.0
230
1.0
 40
0.57735
 41
0.0000000000000298
 42
6.28318530717963
  0
LINE
  5
7B01
100
AcDbEntity
  8
STUD
100
AcDbLine
 10
123.23198
 20
157.553069
 30
0.0
 11
123.448487
 21
157.678069
 31
0.0
  0
LINE
  5
7B02
100
AcDbEntity
  8
STUD
100
AcDbLine
 10
123.447866
 20
157.552007
 30
0.0
 11
123.2326
 21
157.679131
 31
0.0
  0
ELLIPSE
  5
7B03
100
AcDbEntity
  8
STUD
100
AcDbEllipse
 10
125.062362
 20
156.598577
 30
0.0
 11
0.153093108923944
 21
-0.0000000000000025
 31
0.0
210
0.0
220
0.0
230
1.0
 40
0.57735
 41
0.0000000000000286
 42
6.283185307179628
  0
LINE
  5
7B04
100
AcDbEntity
  8
STUD
100
AcDbLine
 10
124.954109
 20
156.536077
 30
0.0
 11
125.170615
 21
156.661077
 31
0.0
  0
LINE
  5
7B05
100
AcDbEntity
  8
STUD
100
AcDbLine
 10
125.169995
 20
156.535015
 30
0.0
 11
124.954729
 21
156.662139
 31
0.0
  0
POLYLINE
  5
7B06
100
AcDbEntity
  8
STUD
100
AcDb2dPolyline
 66
     1
 10
0.0
 20
0.0
 30
0.0
  0
VERTEX
  5
7B07
100
AcDbEntity
  8
STUD
100
AcDbVertex
100
AcDb2dVertex
 10
125.345152
 20
155.971085
 30
0.0
  0
VERTEX
  5
7B08
100
AcDbEntity
  8
STUD
100
AcDbVertex
100
AcDb2dVertex
 10
124.032629
 20
156.704454
 30
0.0
  0
VERTEX
  5
7B09
100
AcDbEntity
  8
STUD
100
AcDbVertex
100
AcDb2dVertex
 10
127.410391
 20
158.714349
 30
0.0
  0
SEQEND
  5
7B0A
100
AcDbEntity
  8
STUD
  0
LINE
  5
7B0B
100
AcDbEntity
  8
STUD
100
AcDbLine
 10
123.636887
 20
155.058351
 30
0.0
 11
125.23451
 21
155.980739
 31
0.0
  0
LINE
  5
7B0C
100
AcDbEntity
  8
STUD
100
AcDbLine
 10
122.229864
 20
157.74528
 30
0.0
 11
120.361939
 21
156.666833
 31
0.0
  0
POLYLINE
  5
7B0D
100
AcDbEntity
  8
STUD
100
AcDb2dPolyline
 66
     1
 10
0.0
 20
0.0
 30
0.0
  0
VERTEX
  5
7B0E
100
AcDbEntity
  8
STUD
100
AcDbVertex
100
AcDb2dVertex
 10
125.678341
 20
159.772344
 30
0.0
  0
VERTEX
  5
7B0F
100
AcDbEntity
  8
STUD
100
AcDbVertex
100
AcDb2dVertex
 10
122.198314
 20
157.76315
 30
0.0
  0
VERTEX
  5
7B10
100
AcDbEntity
  8
STUD
100
AcDbVertex
100
AcDb2dVertex
 10
123.291166
 20
157.144189
 30
0.0
  0
VERTEX
  5
7B11
100
AcDbEntity
  8
STUD
100
AcDbVertex
100
AcDb2dVertex
 10
126.668929
 20
159.154084
 30
0.0
  0
SEQEND
  5
7B12
100
AcDbEntity
  8
STUD
  0
LINE
  5
7B13
100
AcDbEntity
  8
STUD
100
AcDbLine
 10
122.123717
 20
157.642675
 30
0.0
 11
120.391347
 21
156.64249
 31
0.0
  0
LINE
  5
7B14
100
AcDbEntity
  8
STUD
100
AcDbLine
 10
123.606726
 20
155.079819
 30
0.0
 11
125.200396
 21
155.999925
 31
0.0
  0
LINE
  5
7B15
100
AcDbEntity
  8
STUD
100
AcDbLine
 10
122.123717
 20
157.642675
 30
0.0
 11
125.123489
 21
155.955523
 31
0.0
  0
LINE
  5
7B16
100
AcDbEntity
  8
STUD
100
AcDbLine
 10
122.169402
 20
157.704637
 30
0.0
 11
125.298847
 21
155.944351
 31
0.0
  0
LINE
  5
7B17
100
AcDbEntity
  8
STUD
100
AcDbLine
 10
125.23451
 20
155.980739
 30
0.0
 11
125.249367
 21
155.915784
 31
0.0
  0
LINE
  5
7B18
100
AcDbEntity
  8
STUD
100
AcDbLine
 10
127.708887
 20
158.000845
 30
0.0
 11
127.493621
 21
158.127968
 31
0.0
  0
LINE
  5
7B19
100
AcDbEntity
  8
STUD
100
AcDbLine
 10
127.493001
 20
158.001907
 30
0.0
 11
127.709507
 21
158.126907
 31
0.0
  0
ELLIPSE
  5
7B1A
100
AcDbEntity
  8
STUD
100
AcDbEllipse
 10
127.601254
 20
158.064407
 30
0.0
 11
0.153093108923944
 21
-0.0000000000000025
 31
0.0
210
0.0
220
0.0
230
1.0
 40
0.57735
 41
0.0000000000000286
 42
6.283185307179628
  0
LINE
  5
7B1B
100
AcDbEntity
  8
STUD
100
AcDbLine
 10
125.986758
 20
159.017836
 30
0.0
 11
125.771492
 21
159.14496
 31
0.0
  0
LINE
  5
7B1C
100
AcDbEntity
  8
STUD
100
AcDbLine
 10
125.770872
 20
159.018898
 30
0.0
 11
125.987378
 21
159.143898
 31
0.0
  0
ELLIPSE
  5
7B1D
100
AcDbEntity
  8
STUD
100
AcDbEllipse
 10
125.879125
 20
159.081398
 30
0.0
 11
0.153093108923944
 21
-0.0000000000000026
 31
0.0
210
0.0
220
0.0
230
1.0
 40
0.57735
 41
0.0000000000000298
 42
6.28318530717963
  0
LINE
  5
7B1E
100
AcDbEntity
  8
STUD
100
AcDbLine
 10
125.678341
 20
159.772344
 30
0.0
 11
128.852283
 21
157.995928
 31
0.0
  0
POLYLINE
  5
7B1F
100
AcDbEntity
  8
STUD
100
AcDb2dPolyline
 66
     1
 10
0.0
 20
0.0
 30
0.0
 70
     1
  0
VERTEX
  5
7B20
100
AcDbEntity
  8
STUD
100
AcDbVertex
100
AcDb2dVertex
 10
114.288386
 20
125.448355
 30
0.0
  0
VERTEX
  5
7B21
100
AcDbEntity
  8
STUD
100
AcDbVertex
100
AcDb2dVertex
 10
114.288386
 20
123.877482
 30
0.0
 42
-0.57735
  0
VERTEX
  5
7B22
100
AcDbEntity
  8
STUD
100
AcDbVertex
100
AcDb2dVertex
 10
114.241511
 20
123.850419
 30
0.0
  0
VERTEX
  5
7B23
100
AcDbEntity
  8
STUD
100
AcDbVertex
100
AcDb2dVertex
 10
111.164669
 20
125.626834
 30
0.0
 42
-0.267949
  0
VERTEX
  5
7B24
100
AcDbEntity
  8
STUD
100
AcDbVertex
100
AcDb2dVertex
 10
111.149044
 20
125.653897
 30
0.0
  0
VERTEX
  5
7B25
100
AcDbEntity
  8
STUD
100
AcDbVertex
100
AcDb2dVertex
 10
111.149044
 20
127.260855
 30
0.0
  0
VERTEX
  5
7B26
100
AcDbEntity
  8
STUD
100
AcDbVertex
100
AcDb2dVertex
 10
111.114444
 20
127.280832
 30
0.0
  0
VERTEX
  5
7B27
100
AcDbEntity
  8
STUD
100
AcDbVertex
100
AcDb2dVertex
 10
111.114444
 20
125.653897
 30
0.0
 42
0.267949
  0
VERTEX
  5
7B28
100
AcDbEntity
  8
STUD
100
AcDbVertex
100
AcDb2dVertex
 10
111.147369
 20
125.59687
 30
0.0
  0
VERTEX
  5
7B29
100
AcDbEntity
  8
STUD
100
AcDbVertex
100
AcDb2dVertex
 10
114.224211
 20
123.820454
 30
0.0
 42
0.57735
  0
VERTEX
  5
7B2A
100
AcDbEntity
  8
STUD
100
AcDbVertex
100
AcDb2dVertex
 10
114.322986
 20
123.877482
 30
0.0
  0
VERTEX
  5
7B2B
100
AcDbEntity
  8
STUD
100
AcDbVertex
100
AcDb2dVertex
 10
114.322986
 20
125.428379
 30
0.0
  0
SEQEND
  5
7B2C
100
AcDbEntity
  8
STUD
  0
LINE
  5
7B2D
100
AcDbEntity
  8
STUD
100
AcDbLine
 10
111.149044
 20
127.260855
 30
0.0
 11
113.197803
 21
128.456239
 31
0.0
  0
LINE
  5
7B2F
100
AcDbEntity
  8
STUD
100
AcDbLine
 10
114.288386
 20
125.448355
 30
0.0
 11
117.338825
 21
127.228188
 31
0.0
  0
LINE
  5
7B30
100
AcDbEntity
  8
STUD
100
AcDbLine
 10
114.322986
 20
125.428379
 30
0.0
 11
117.373425
 21
127.208211
 31
0.0
  0
LINE
  5
7B31
100
AcDbEntity
  8
STUD
100
AcDbLine
 10
114.322986
 20
123.877482
 30
0.0
 11
117.373425
 21
125.657314
 31
0.0
  0
LINE
  5
7B32
100
AcDbEntity
  8
STUD
100
AcDbLine
 10
111.164669
 20
125.626834
 30
0.0
 11
114.215108
 21
127.406666
 31
0.0
  0
LINE
  5
7B33
100
AcDbEntity
  8
STUD
100
AcDbLine
 10
114.199483
 20
127.43373
 30
0.0
 11
111.149044
 21
125.653897
 31
0.0
  0
ELLIPSE
  5
7B34
100
AcDbEntity
  8
FASTENER
100
AcDbEllipse
 10
112.275038
 20
125.497122
 30
0.0
 11
0.153093108923944
 21
-0.0000000000000026
 31
0.0
210
0.0
220
0.0
230
1.0
 40
0.57735
 41
0.0000000000000298
 42
6.28318530717963
  0
LINE
  5
7B35
100
AcDbEntity
  8
FASTENER
100
AcDbLine
 10
112.166785
 20
125.434622
 30
0.0
 11
112.383291
 21
125.559622
 31
0.0
  0
LINE
  5
7B36
100
AcDbEntity
  8
FASTENER
100
AcDbLine
 10
112.382671
 20
125.43356
 30
0.0
 11
112.167405
 21
125.560684
 31
0.0
  0
ELLIPSE
  5
7B37
100
AcDbEntity
  8
FASTENER
100
AcDbEllipse
 10
113.997167
 20
124.48013
 30
0.0
 11
0.153093108923944
 21
-0.0000000000000025
 31
0.0
210
0.0
220
0.0
230
1.0
 40
0.57735
 41
0.0000000000000286
 42
6.283185307179628
  0
LINE
  5
7B38
100
AcDbEntity
  8
FASTENER
100
AcDbLine
 10
113.888914
 20
124.41763
 30
0.0
 11
114.10542
 21
124.54263
 31
0.0
  0
LINE
  5
7B39
100
AcDbEntity
  8
FASTENER
100
AcDbLine
 10
114.1048
 20
124.416568
 30
0.0
 11
113.889534
 21
124.543692
 31
0.0
  0
ELLIPSE
  5
7B3A
100
AcDbEntity
  8
FASTENER
100
AcDbEllipse
 10
117.067528
 20
126.605997
 30
0.0
 11
-0.0765465544619742
 21
-0.1325825214724724
 31
0.0
210
0.0
220
0.0
230
1.0
 40
0.57735
 41
0.0000000000000358
 42
6.283185307179635
  0
LINE
  5
7B3B
100
AcDbEntity
  8
FASTENER
100
AcDbLine
 10
117.067528
 20
126.730997
 30
0.0
 11
117.067528
 21
126.480997
 31
0.0
  0
LINE
  5
7B3C
100
AcDbEntity
  8
FASTENER
100
AcDbLine
 10
116.958665
 20
126.544565
 30
0.0
 11
117.176391
 21
126.667429
 31
0.0
  0
LINE
  5
7B3D
100
AcDbEntity
  8
STUD
100
AcDbLine
 10
113.866369
 20
128.507362
 30
0.0
 11
113.866369
 21
128.257362
 31
0.0
  0
LINE
  5
7B3E
100
AcDbEntity
  8
STUD
100
AcDbLine
 10
113.757506
 20
128.32093
 30
0.0
 11
113.975231
 21
128.443794
 31
0.0
  0
LINE
  5
7B42
100
AcDbEntity
  8
FASTENER
100
AcDbLine
 10
114.60396
 20
126.738126
 30
0.0
 11
114.388694
 21
126.86525
 31
0.0
  0
LINE
  5
7B43
100
AcDbEntity
  8
FASTENER
100
AcDbLine
 10
114.388074
 20
126.739188
 30
0.0
 11
114.60458
 21
126.864188
 31
0.0
  0
ELLIPSE
  5
7B44
100
AcDbEntity
  8
FASTENER
100
AcDbEllipse
 10
114.496327
 20
126.801688
 30
0.0
 11
0.153093108923944
 21
-0.0000000000000026
 31
0.0
210
0.0
220
0.0
230
1.0
 40
0.57735
 41
0.0000000000000298
 42
6.28318530717963
  0
POLYLINE
  5
7B45
100
AcDbEntity
  8
STUD
100
AcDb2dPolyline
 66
     1
 10
0.0
 20
0.0
 30
0.0
  0
VERTEX
  5
7B46
100
AcDbEntity
  8
STUD
100
AcDbVertex
100
AcDb2dVertex
 10
116.367396
 20
126.66139
 30
0.0
  0
VERTEX
  5
7B47
100
AcDbEntity
  8
STUD
100
AcDbVertex
100
AcDb2dVertex
 10
116.228602
 20
126.798963
 30
0.0
  0
VERTEX
  5
7B48
100
AcDbEntity
  8
STUD
100
AcDbVertex
100
AcDb2dVertex
 10
116.190057
 20
126.788452
 30
0.0
  0
SEQEND
  5
7B49
100
AcDbEntity
  8
STUD
  0
POLYLINE
  5
7B50
100
AcDbEntity
  8
STUD
100
AcDb2dPolyline
 66
     1
 10
0.0
 20
0.0
 30
0.0
  0
VERTEX
  5
7B51
100
AcDbEntity
  8
STUD
100
AcDbVertex
100
AcDb2dVertex
 10
116.190057
 20
126.788452
 30
0.0
  0
VERTEX
  5
7B52
100
AcDbEntity
  8
STUD
100
AcDbVertex
100
AcDb2dVertex
 10
116.336458
 20
126.643339
 30
0.0
 42
-0.57735
  0
SEQEND
  5
7B53
100
AcDbEntity
  8
STUD
  0
POLYLINE
  5
7B54
100
AcDbEntity
  8
STUD
100
AcDb2dPolyline
 66
     1
 10
0.0
 20
0.0
 30
0.0
  0
VERTEX
  5
7B55
100
AcDbEntity
  8
STUD
100
AcDbVertex
100
AcDb2dVertex
 10
117.27465
 20
125.600286
 30
0.0
 42
0.57735
  0
VERTEX
  5
7B56
100
AcDbEntity
  8
STUD
100
AcDbVertex
100
AcDb2dVertex
 10
117.373425
 20
125.657314
 30
0.0
  0
VERTEX
  5
7B57
100
AcDbEntity
  8
STUD
100
AcDbVertex
100
AcDb2dVertex
 10
117.373425
 20
127.208211
 30
0.0
  0
VERTEX
  5
7B58
100
AcDbEntity
  8
STUD
100
AcDbVertex
100
AcDb2dVertex
 10
117.338825
 20
127.228188
 30
0.0
  0
SEQEND
  5
7B59
100
AcDbEntity
  8
STUD
  0
POLYLINE
  5
7B5A
100
AcDbEntity
  8
STUD
100
AcDb2dPolyline
 66
     1
 10
0.0
 20
0.0
 30
0.0
  0
VERTEX
  5
7B5B
100
AcDbEntity
  8
STUD
100
AcDbVertex
100
AcDb2dVertex
 10
115.93895
 20
126.411406
 30
0.0
  0
VERTEX
  5
7B5C
100
AcDbEntity
  8
STUD
100
AcDbVertex
100
AcDb2dVertex
 10
114.215108
 20
127.406666
 30
0.0
 42
-0.267949
  0
VERTEX
  5
7B5D
100
AcDbEntity
  8
STUD
100
AcDbVertex
100
AcDb2dVertex
 10
114.199483
 20
127.43373
 30
0.0
  0
VERTEX
  5
7B5E
100
AcDbEntity
  8
STUD
100
AcDbVertex
100
AcDb2dVertex
 10
114.199483
 20
129.040688
 30
0.0
  0
VERTEX
  5
7B5F
100
AcDbEntity
  8
STUD
100
AcDbVertex
100
AcDb2dVertex
 10
114.164883
 20
129.060664
 30
0.0
  0
SEQEND
  5
7B60
100
AcDbEntity
  8
STUD
  0
LINE
  5
7E4A
100
AcDbEntity
  8
STUD
100
AcDbLine
 10
109.187808
 20
121.14251
 30
0.0
 11
106.272056
 21
121.14251
 31
0.0
  0
LINE
  5
7E4B
100
AcDbEntity
  8
STUD
100
AcDbLine
 10
106.195895
 20
119.415129
 30
0.0
 11
103.312113
 21
119.415129
 31
0.0
  0
LINE
  5
7E4C
100
AcDbEntity
  8
STUD
100
AcDbLine
 10
106.125231
 20
119.355873
 30
0.0
 11
103.209479
 21
119.355873
 31
0.0
  0
LINE
  5
7E4D
100
AcDbEntity
  8
STUD
100
AcDbLine
 10
109.275179
 20
121.174496
 30
0.0
 11
106.359427
 21
121.174496
 31
0.0
  0
LINE
  5
7E4E
100
AcDbEntity
  8
STUD
100
AcDbLine
 10
109.720997
 20
117.37918
 30
0.0
 11
106.140494
 21
119.383143
 31
0.0
  0
LINE
  5
7E4F
100
AcDbEntity
  8
STUD
100
AcDbLine
 10
112.831661
 20
119.183978
 30
0.0
 11
112.765668
 21
119.220913
 31
0.0
  0
ELLIPSE
  5
7E50
100
AcDbEntity
  8
FASTENER
100
AcDbEllipse
 10
111.657129
 20
119.076392
 30
0.0
 11
-0.1530794700651532
 21
-0.0020434883338105
 31
0.0
210
0.0
220
0.0
230
-1.0
 40
0.57735
 41
-0.0000000000000085
 42
6.283185307179591
  0
LINE
  5
7E51
100
AcDbEntity
  8
FASTENER
100
AcDbLine
 10
111.766207
 20
119.015342
 30
0.0
 11
111.548051
 21
119.137441
 31
0.0
  0
LINE
  5
7E52
100
AcDbEntity
  8
FASTENER
100
AcDbLine
 10
111.550354
 20
119.011399
 30
0.0
 11
111.763904
 21
119.141385
 31
0.0
  0
ELLIPSE
  5
7E53
100
AcDbEntity
  8
FASTENER
100
AcDbEllipse
 10
109.948729
 20
118.036504
 30
0.0
 11
-0.1530794700651533
 21
-0.0020434883338103
 31
0.0
210
0.0
220
0.0
230
-1.0
 40
0.57735
 41
-0.0000000000000098
 42
6.28318530717959
  0
LINE
  5
7E54
100
AcDbEntity
  8
FASTENER
100
AcDbLine
 10
110.057806
 20
117.975454
 30
0.0
 11
109.839651
 21
118.097553
 31
0.0
  0
LINE
  5
7E55
100
AcDbEntity
  8
FASTENER
100
AcDbLine
 10
109.841954
 20
117.971511
 30
0.0
 11
110.055504
 21
118.101497
 31
0.0
  0
POLYLINE
  5
7E5B
100
AcDbEntity
  8
STUD
100
AcDb2dPolyline
 66
     1
 10
0.0
 20
0.0
 30
0.0
  0
VERTEX
  5
7E5C
100
AcDbEntity
  8
STUD
100
AcDbVertex
100
AcDb2dVertex
 10
109.290442
 20
121.201766
 30
0.0
  0
VERTEX
  5
7E5D
100
AcDbEntity
  8
STUD
100
AcDbVertex
100
AcDb2dVertex
 10
112.796977
 20
119.239202
 30
0.0
  0
VERTEX
  5
7E5E
100
AcDbEntity
  8
STUD
100
AcDbVertex
100
AcDb2dVertex
 10
111.712484
 20
118.605709
 30
0.0
  0
VERTEX
  5
7E5F
100
AcDbEntity
  8
STUD
100
AcDbVertex
100
AcDb2dVertex
 10
108.308194
 20
120.570339
 30
0.0
  0
SEQEND
  5
7E60
100
AcDbEntity
  8
STUD
  0
LINE
  5
7E61
100
AcDbEntity
  8
STUD
100
AcDbLine
 10
112.831661
 20
119.183978
 30
0.0
 11
109.720997
 21
117.37918
 31
0.0
  0
LINE
  5
7E62
100
AcDbEntity
  8
FASTENER
100
AcDbLine
 10
107.283722
 20
119.403321
 30
0.0
 11
107.497272
 21
119.533307
 31
0.0
  0
LINE
  5
7E63
100
AcDbEntity
  8
FASTENER
100
AcDbLine
 10
107.499575
 20
119.407264
 30
0.0
 11
107.28142
 21
119.529363
 31
0.0
  0
ELLIPSE
  5
7E64
100
AcDbEntity
  8
FASTENER
100
AcDbEllipse
 10
107.390497
 20
119.468314
 30
0.0
 11
-0.1530794700651533
 21
-0.0020434883338103
 31
0.0
210
0.0
220
0.0
230
-1.0
 40
0.57735
 41
-0.0000000000000098
 42
6.28318530717959
  0
LINE
  5
7E65
100
AcDbEntity
  8
FASTENER
100
AcDbLine
 10
108.992123
 20
120.443209
 30
0.0
 11
109.205673
 21
120.573195
 31
0.0
  0
LINE
  5
7E66
100
AcDbEntity
  8
FASTENER
100
AcDbLine
 10
109.207976
 20
120.447152
 30
0.0
 11
108.98982
 21
120.569251
 31
0.0
  0
ELLIPSE
  5
7E67
100
AcDbEntity
  8
FASTENER
100
AcDbEllipse
 10
109.098898
 20
120.508202
 30
0.0
 11
-0.1530794700651532
 21
-0.0020434883338105
 31
0.0
210
0.0
220
0.0
230
-1.0
 40
0.57735
 41
-0.0000000000000085
 42
6.283185307179591
  0
LINE
  5
7E68
100
AcDbEntity
  8
STUD
100
AcDbLine
 10
109.290442
 20
121.201766
 30
0.0
 11
106.140494
 21
119.383143
 31
0.0
  0
LINE
  5
7E69
100
AcDbEntity
  8
STUD
100
AcDbLine
 10
86.677029
 20
109.810859
 30
0.0
 11
106.359427
 21
121.174496
 31
0.0
  0
LINE
  5
7ECC
100
AcDbEntity
  8
STUD
100
AcDbLine
 10
90.52253
 20
112.03106
 30
0.0
 11
87.058428
 21
114.03106
 31
0.0
  0
LINE
  5
7ECD
100
AcDbEntity
  8
STUD
100
AcDbLine
 10
90.55713
 20
112.051036
 30
0.0
 11
87.093028
 21
114.051036
 31
0.0
  0
LINE
  5
7ECE
100
AcDbEntity
  8
STUD
100
AcDbLine
 10
87.383188
 20
110.21856
 30
0.0
 11
83.919086
 21
112.21856
 31
0.0
  0
LINE
  5
7ECF
100
AcDbEntity
  8
STUD
100
AcDbLine
 10
87.348588
 20
110.198583
 30
0.0
 11
83.884486
 21
112.198583
 31
0.0
  0
LINE
  5
7ED0
100
AcDbEntity
  8
STUD
100
AcDbLine
 10
87.348588
 20
108.647686
 30
0.0
 11
83.884486
 21
110.647686
 31
0.0
  0
LINE
  5
7ED1
100
AcDbEntity
  8
STUD
100
AcDbLine
 10
89.099613
 20
111.209538
 30
0.0
 11
87.042803
 21
112.397038
 31
0.0
  0
LINE
  5
7EE0
100
AcDbEntity
  8
STUD
100
AcDbLine
 10
87.058428
 20
112.424102
 30
0.0
 11
89.130863
 21
111.227581
 31
0.0
  0
ELLIPSE
  5
7EE1
100
AcDbEntity
  8
FASTENER
100
AcDbEllipse
 10
87.119893
 20
111.581747
 30
0.0
 11
-0.153093108923944
 21
-0.0000000000000026
 31
0.0
210
0.0
220
0.0
230
-1.0
 40
0.57735
 41
0.0000000000000298
 42
6.28318530717963
  0
LINE
  5
7EE2
100
AcDbEntity
  8
FASTENER
100
AcDbLine
 10
87.228146
 20
111.519247
 30
0.0
 11
87.011639
 21
111.644247
 31
0.0
  0
LINE
  5
7EE3
100
AcDbEntity
  8
FASTENER
100
AcDbLine
 10
87.01226
 20
111.518185
 30
0.0
 11
87.227526
 21
111.645309
 31
0.0
  0
LINE
  5
7EED
100
AcDbEntity
  8
STUD
100
AcDbLine
 10
61.523381
 20
96.770351
 30
0.0
 11
59.450945
 21
95.57383
 31
0.0
  0
LINE
  5
7EFC
100
AcDbEntity
  8
STUD
100
AcDbLine
 10
59.482195
 20
95.555788
 30
0.0
 11
61.539006
 21
96.743288
 31
0.0
  0
LINE
  5
7EFD
100
AcDbEntity
  8
TRACK
100
AcDbLine
 10
61.233221
 20
92.993935
 30
0.0
 11
64.697323
 21
94.993935
 31
0.0
  0
LINE
  5
7EFE
100
AcDbEntity
  8
STUD
100
AcDbLine
 10
61.233221
 20
94.544832
 30
0.0
 11
64.697323
 21
96.544832
 31
0.0
  0
LINE
  5
7EFF
100
AcDbEntity
  8
STUD
100
AcDbLine
 10
61.198621
 20
94.564809
 30
0.0
 11
64.662723
 21
96.564809
 31
0.0
  0
LINE
  5
7F00
100
AcDbEntity
  8
STUD
100
AcDbLine
 10
58.024679
 20
96.397285
 30
0.0
 11
61.488781
 21
98.397285
 31
0.0
  0
LINE
  5
7F01
100
AcDbEntity
  8
STUD
100
AcDbLine
 10
58.059279
 20
96.377309
 30
0.0
 11
61.523381
 21
98.377309
 31
0.0
  0
LINE
  5
7F10
100
AcDbEntity
  8
STUD
100
AcDbLine
 10
61.134446
 20
92.936908
 30
0.0
 11
39.291367
 21
105.548015
 31
0.0
  0
LINE
  5
7F64
100
AcDbEntity
  8
STUD
100
AcDbLine
 10
61.789542
 20
94.223641
 30
0.0
 11
42.222382
 21
105.520746
 31
0.0
  0
LINE
  5
7F65
100
AcDbEntity
  8
STUD
100
AcDbLine
 10
39.291367
 20
105.548015
 30
0.0
 11
42.441315
 21
103.729392
 31
0.0
  0
ELLIPSE
  5
7F66
100
AcDbEntity
  8
FASTENER
100
AcDbEllipse
 10
39.482911
 20
104.854451
 30
0.0
 11
0.1530794700651532
 21
-0.0020434883338105
 31
0.0
210
0.0
220
0.0
230
1.0
 40
0.57735
 41
-0.0000000000000085
 42
6.283185307179591
  0
LINE
  5
7F67
100
AcDbEntity
  8
FASTENER
100
AcDbLine
 10
39.373833
 20
104.793402
 30
0.0
 11
39.591989
 21
104.915501
 31
0.0
  0
LINE
  5
7F68
100
AcDbEntity
  8
FASTENER
100
AcDbLine
 10
39.589686
 20
104.789458
 30
0.0
 11
39.376136
 21
104.919444
 31
0.0
  0
ELLIPSE
  5
7F69
100
AcDbEntity
  8
FASTENER
100
AcDbEllipse
 10
41.191311
 20
103.814563
 30
0.0
 11
0.1530794700651533
 21
-0.0020434883338103
 31
0.0
210
0.0
220
0.0
230
1.0
 40
0.57735
 41
-0.0000000000000098
 42
6.28318530717959
  0
LINE
  5
7F6A
100
AcDbEntity
  8
FASTENER
100
AcDbLine
 10
41.082234
 20
103.753513
 30
0.0
 11
41.300389
 21
103.875612
 31
0.0
  0
LINE
  5
7F6B
100
AcDbEntity
  8
FASTENER
100
AcDbLine
 10
41.298087
 20
103.74957
 30
0.0
 11
41.084536
 21
103.879556
 31
0.0
  0
LINE
  5
7F6C
100
AcDbEntity
  8
STUD
100
AcDbLine
 10
35.750147
 20
103.530227
 30
0.0
 11
38.860812
 21
101.725429
 31
0.0
  0
POLYLINE
  5
7F6D
100
AcDbEntity
  8
STUD
100
AcDb2dPolyline
 66
     1
 10
0.0
 20
0.0
 30
0.0
  0
VERTEX
  5
7F6E
100
AcDbEntity
  8
STUD
100
AcDbVertex
100
AcDb2dVertex
 10
39.291367
 20
105.548015
 30
0.0
  0
VERTEX
  5
7F6F
100
AcDbEntity
  8
STUD
100
AcDbVertex
100
AcDb2dVertex
 10
35.784832
 20
103.585451
 30
0.0
  0
VERTEX
  5
7F70
100
AcDbEntity
  8
STUD
100
AcDbVertex
100
AcDb2dVertex
 10
36.869325
 20
102.951958
 30
0.0
  0
VERTEX
  5
7F71
100
AcDbEntity
  8
STUD
100
AcDbVertex
100
AcDb2dVertex
 10
40.273615
 20
104.916588
 30
0.0
  0
SEQEND
  5
7F72
100
AcDbEntity
  8
STUD
  0
POLYLINE
  5
7F73
100
AcDbEntity
  8
STUD
100
AcDb2dPolyline
 66
     1
 10
0.0
 20
0.0
 30
0.0
  0
VERTEX
  5
7F74
100
AcDbEntity
  8
STUD
100
AcDbVertex
100
AcDb2dVertex
 10
38.907469
 20
101.751543
 30
0.0
  0
VERTEX
  5
7F75
100
AcDbEntity
  8
STUD
100
AcDbVertex
100
AcDb2dVertex
 10
37.604852
 20
102.502366
 30
0.0
  0
VERTEX
  5
7F76
100
AcDbEntity
  8
STUD
100
AcDbVertex
100
AcDb2dVertex
 10
41.009142
 20
104.466995
 30
0.0
  0
SEQEND
  5
7F77
100
AcDbEntity
  8
STUD
  0
LINE
  5
7F78
100
AcDbEntity
  8
FASTENER
100
AcDbLine
 10
38.739855
 20
102.31776
 30
0.0
 11
38.526305
 21
102.447746
 31
0.0
  0
LINE
  5
7F79
100
AcDbEntity
  8
FASTENER
100
AcDbLine
 10
38.524002
 20
102.321703
 30
0.0
 11
38.742158
 21
102.443802
 31
0.0
  0
ELLIPSE
  5
7F7A
100
AcDbEntity
  8
FASTENER
100
AcDbEllipse
 10
38.63308
 20
102.382753
 30
0.0
 11
0.1530794700651533
 21
-0.0020434883338103
 31
0.0
210
0.0
220
0.0
230
1.0
 40
0.57735
 41
-0.0000000000000098
 42
6.28318530717959
  0
LINE
  5
7F7B
100
AcDbEntity
  8
FASTENER
100
AcDbLine
 10
37.031455
 20
103.357648
 30
0.0
 11
36.817905
 21
103.487634
 31
0.0
  0
LINE
  5
7F7C
100
AcDbEntity
  8
FASTENER
100
AcDbLine
 10
36.815602
 20
103.361592
 30
0.0
 11
37.033757
 21
103.483691
 31
0.0
  0
ELLIPSE
  5
7F7D
100
AcDbEntity
  8
FASTENER
100
AcDbEllipse
 10
36.92468
 20
103.422641
 30
0.0
 11
0.1530794700651532
 21
-0.0020434883338105
 31
0.0
210
0.0
220
0.0
230
1.0
 40
0.57735
 41
-0.0000000000000085
 42
6.283185307179591
  0
LINE
  5
7F7E
100
AcDbEntity
  8
STUD
100
AcDbLine
 10
35.750147
 20
103.530227
 30
0.0
 11
39.30663
 21
105.520746
 31
0.0
  0
LINE
  5
7F7F
100
AcDbEntity
  8
STUD
100
AcDbLine
 10
38.860812
 20
101.725429
 30
0.0
 11
42.441315
 21
103.729392
 31
0.0
  0
LINE
  5
7F80
100
AcDbEntity
  8
STUD
100
AcDbLine
 10
39.30663
 20
105.520746
 30
0.0
 11
42.222382
 21
105.520746
 31
0.0
  0
LINE
  5
7F81
100
AcDbEntity
  8
STUD
100
AcDbLine
 10
42.456577
 20
103.702123
 30
0.0
 11
45.37233
 21
103.702123
 31
0.0
  0
LINE
  5
7F82
100
AcDbEntity
  8
STUD
100
AcDbLine
 10
42.353944
 20
103.761378
 30
0.0
 11
45.269696
 21
103.761378
 31
0.0
  0
LINE
  5
7F83
100
AcDbEntity
  8
STUD
100
AcDbLine
 10
39.394001
 20
105.48876
 30
0.0
 11
42.309753
 21
105.48876
 31
0.0
  0
LINE
  5
7F84
100
AcDbEntity
  8
FASTENER
100
AcDbLine
 10
87.303798
 20
109.414424
 30
0.0
 11
87.086072
 21
109.537287
 31
0.0
  0
LINE
  5
7F85
100
AcDbEntity
  8
FASTENER
100
AcDbLine
 10
87.194935
 20
109.600856
 30
0.0
 11
87.194935
 21
109.350856
 31
0.0
  0
ELLIPSE
  5
7F86
100
AcDbEntity
  8
FASTENER
100
AcDbEllipse
 10
87.194935
 20
109.475856
 30
0.0
 11
0.0765465544619743
 21
-0.1325825214724723
 31
0.0
210
0.0
220
0.0
230
-1.0
 40
0.57735
 41
0.0000000000006153
 42
6.283185307180215
  0
POLYLINE
  5
7F87
100
AcDbEntity
  8
TRACK
100
AcDb2dPolyline
 66
     1
 10
0.0
 20
0.0
 30
0.0
  0
VERTEX
  5
7F88
100
AcDbEntity
  8
TRACK
100
AcDbVertex
100
AcDb2dVertex
 10
66.824725
 20
147.017842
 30
0.0
  0
SEQEND
  5
7F89
100
AcDbEntity
  8
TRACK
  0
POLYLINE
  5
7F8A
100
AcDbEntity
  8
STUD
100
AcDb2dPolyline
 66
     1
 10
0.0
 20
0.0
 30
0.0
  0
VERTEX
  5
7F8B
100
AcDbEntity
  8
STUD
100
AcDbVertex
100
AcDb2dVertex
 10
87.348588
 20
110.198583
 30
0.0
  0
VERTEX
  5
7F8C
100
AcDbEntity
  8
STUD
100
AcDbVertex
100
AcDb2dVertex
 10
87.383188
 20
110.21856
 30
0.0
  0
SEQEND
  5
7F8D
100
AcDbEntity
  8
STUD
  0
POLYLINE
  5
7F9A
100
AcDbEntity
  8
STUD
100
AcDb2dPolyline
 66
     1
 10
0.0
 20
0.0
 30
0.0
  0
VERTEX
  5
7F9B
100
AcDbEntity
  8
STUD
100
AcDbVertex
100
AcDb2dVertex
 10
83.983261
 20
110.590658
 30
0.0
 42
-0.57735
  0
VERTEX
  5
7F9C
100
AcDbEntity
  8
STUD
100
AcDbVertex
100
AcDb2dVertex
 10
83.884486
 20
110.647686
 30
0.0
  0
VERTEX
  5
7F9D
100
AcDbEntity
  8
STUD
100
AcDbVertex
100
AcDb2dVertex
 10
83.884486
 20
112.198583
 30
0.0
  0
VERTEX
  5
7F9E
100
AcDbEntity
  8
STUD
100
AcDbVertex
100
AcDb2dVertex
 10
83.919086
 20
112.21856
 30
0.0
  0
SEQEND
  5
7F9F
100
AcDbEntity
  8
STUD
  0
POLYLINE
  5
7FAA
100
AcDbEntity
  8
STUD
100
AcDb2dPolyline
 66
     1
 10
0.0
 20
0.0
 30
0.0
  0
VERTEX
  5
7FAB
100
AcDbEntity
  8
STUD
100
AcDbVertex
100
AcDb2dVertex
 10
85.326377
 20
111.40606
 30
0.0
  0
VERTEX
  5
7FAC
100
AcDbEntity
  8
STUD
100
AcDbVertex
100
AcDb2dVertex
 10
87.042803
 20
112.397038
 30
0.0
 42
0.267949
  0
VERTEX
  5
7FAD
100
AcDbEntity
  8
STUD
100
AcDbVertex
100
AcDb2dVertex
 10
87.058428
 20
112.424102
 30
0.0
  0
VERTEX
  5
7FAE
100
AcDbEntity
  8
STUD
100
AcDbVertex
100
AcDb2dVertex
 10
87.058428
 20
114.03106
 30
0.0
  0
VERTEX
  5
7FAF
100
AcDbEntity
  8
STUD
100
AcDbVertex
100
AcDb2dVertex
 10
87.093028
 20
114.051036
 30
0.0
  0
SEQEND
  5
7FB0
100
AcDbEntity
  8
STUD
  0
LINE
  5
7FB6
100
AcDbEntity
  8
STUD
100
AcDbLine
 10
87.348588
 20
108.647686
 30
0.0
 11
86.677029
 21
109.810859
 31
0.0
  0
LINE
  5
7FB7
100
AcDbEntity
  8
TRACK
100
AcDbLine
 10
84.704758
 20
110.174102
 30
0.0
 11
75.30526
 21
104.747299
 31
0.0
  0
LINE
  5
7FB8
100
AcDbEntity
  8
TRACK
100
AcDbLine
 10
107.970923
 20
118.351026
 30
0.0
 11
60.973021
 21
91.216774
 31
0.0
  0
ELLIPSE
  5
7FB9
100
AcDbEntity
  8
FASTENER
100
AcDbEllipse
 10
61.584871
 20
96.055045
 30
0.0
 11
0.153093108923944
 21
-0.0000000000000026
 31
0.0
210
0.0
220
0.0
230
1.0
 40
0.57735
 41
0.0000000000000298
 42
6.28318530717963
  0
LINE
  5
7FBA
100
AcDbEntity
  8
FASTENER
100
AcDbLine
 10
61.476618
 20
95.992545
 30
0.0
 11
61.693124
 21
96.117545
 31
0.0
  0
LINE
  5
7FBB
100
AcDbEntity
  8
FASTENER
100
AcDbLine
 10
61.692504
 20
95.991483
 30
0.0
 11
61.477238
 21
96.118607
 31
0.0
  0
LINE
  5
7FBF
100
AcDbEntity
  8
STUD
100
AcDbLine
 10
61.068596
 20
92.974926
 30
0.0
 11
61.789542
 21
94.223641
 31
0.0
  0
POLYLINE
  5
7FE3
100
AcDbEntity
  8
STUD
100
AcDb2dPolyline
 66
     1
 10
0.0
 20
0.0
 30
0.0
  0
VERTEX
  5
7FE4
100
AcDbEntity
  8
STUD
100
AcDbVertex
100
AcDb2dVertex
 10
64.598548
 20
94.936908
 30
0.0
 42
0.57735
  0
VERTEX
  5
7FE5
100
AcDbEntity
  8
STUD
100
AcDbVertex
100
AcDb2dVertex
 10
64.697323
 20
94.993935
 30
0.0
  0
VERTEX
  5
7FE6
100
AcDbEntity
  8
STUD
100
AcDbVertex
100
AcDb2dVertex
 10
64.697323
 20
96.544832
 30
0.0
  0
VERTEX
  5
7FE7
100
AcDbEntity
  8
STUD
100
AcDbVertex
100
AcDb2dVertex
 10
64.662723
 20
96.564809
 30
0.0
  0
SEQEND
  5
7FE8
100
AcDbEntity
  8
STUD
  0
POLYLINE
  5
7FE9
100
AcDbEntity
  8
STUD
100
AcDb2dPolyline
 66
     1
 10
0.0
 20
0.0
 30
0.0
  0
VERTEX
  5
7FEA
100
AcDbEntity
  8
STUD
100
AcDbVertex
100
AcDb2dVertex
 10
63.255432
 20
95.752309
 30
0.0
  0
VERTEX
  5
7FEB
100
AcDbEntity
  8
STUD
100
AcDbVertex
100
AcDb2dVertex
 10
61.539006
 20
96.743288
 30
0.0
 42
-0.267949
  0
VERTEX
  5
7FEC
100
AcDbEntity
  8
STUD
100
AcDbVertex
100
AcDb2dVertex
 10
61.523381
 20
96.770351
 30
0.0
  0
VERTEX
  5
7FED
100
AcDbEntity
  8
STUD
100
AcDbVertex
100
AcDb2dVertex
 10
61.523381
 20
98.377309
 30
0.0
  0
VERTEX
  5
7FEE
100
AcDbEntity
  8
STUD
100
AcDbVertex
100
AcDb2dVertex
 10
61.488781
 20
98.397285
 30
0.0
  0
SEQEND
  5
7FEF
100
AcDbEntity
  8
STUD
  0
LINE
  5
7FF4
100
AcDbEntity
  8
TRACK
100
AcDbLine
 10
57.991754
 20
94.751342
 30
0.0
 11
57.863253
 21
94.677152
 31
0.0
  0
LINE
  5
8031
100
AcDbEntity
  8
STUD
100
AcDbLine
 10
62.253637
 20
53.24265
 30
0.0
 11
62.253637
 21
35.211875
 31
0.0
  0
LINE
  5
8048
100
AcDbEntity
  8
TRACK
100
AcDbLine
 10
111.282572
 20
125.51881
 30
0.0
 11
89.256417
 21
112.802003
 31
0.0
  0
LINE
  5
809E
100
AcDbEntity
  8
TRACK
100
AcDbLine
 10
70.715456
 20
102.097374
 30
0.0
 11
61.523381
 21
96.790327
 31
0.0
  0
LEADER
  5
809F
100
AcDbEntity
  8
D-TEXT
100
AcDbLeader
  3
LEADER
 72
     1
 73
     0
 74
     0
 40
1.0
 41
21.517241
 76
     3
 10
67.425331
 20
123.868103
 30
0.0
 10
70.819792
 20
137.984279
 30
0.0
 10
94.962726
 20
161.95304
 30
0.0
 77
   256
  0
MTEXT
  5
80A0
100
AcDbEntity
  8
D-TEXT
100
AcDbMText
 10
96.962726
 20
161.95304
 30
0.0
 40
3.0
 41
0.0
 71
     4
 72
     1
  1
{STAGER KICKERS}\P{ 48" O.C.}
  7
ARCH
  0
LINE
  5
80AF
100
AcDbEntity
  8
STUD
100
AcDbLine
 10
87.348588
 20
108.647686
 30
0.0
 11
106.156285
 21
119.374305
 31
0.0
  0
LINE
  5
80B0
100
AcDbEntity
  8
TRACK
100
AcDbLine
 10
109.696744
 20
120.974363
 30
0.0
 11
124.716834
 21
129.646216
 31
0.0
  0
LINE
  5
80B1
100
AcDbEntity
  8
TRACK
100
AcDbLine
 10
109.629871
 20
121.011791
 30
0.0
 11
124.683909
 21
129.703244
 31
0.0
  0
POLYLINE
  5
80B3
100
AcDbEntity
  8
STUD
100
AcDb2dPolyline
 66
     1
 10
0.0
 20
0.0
 30
0.0
  0
VERTEX
  5
80B8
100
AcDbEntity
  8
STUD
100
AcDbVertex
100
AcDb2dVertex
 10
106.211158
 20
119.442398
 30
0.0
  0
VERTEX
  5
80B4
100
AcDbEntity
  8
STUD
100
AcDbVertex
100
AcDb2dVertex
 10
109.76131
 20
117.455423
 30
0.0
  0
VERTEX
  5
80B5
100
AcDbEntity
  8
STUD
100
AcDbVertex
100
AcDb2dVertex
 10
110.976957
 20
118.156116
 30
0.0
  0
VERTEX
  5
80B6
100
AcDbEntity
  8
STUD
100
AcDbVertex
100
AcDb2dVertex
 10
107.572667
 20
120.120746
 30
0.0
  0
SEQEND
  5
80B7
100
AcDbEntity
  8
STUD
  0
LINE
  5
80B9
100
AcDbEntity
  8
STUD
100
AcDbLine
 10
109.76131
 20
117.455423
 30
0.0
 11
109.720997
 21
117.37918
 31
0.0
  0
LINE
  5
80BA
100
AcDbEntity
  8
TRACK
100
AcDbLine
 10
64.697323
 20
95.069972
 30
0.0
 11
106.479924
 21
119.193168
 31
0.0
  0
LEADER
  5
80D7
100
AcDbEntity
  8
D-TEXT
100
AcDbLeader
  3
LEADER
 73
     0
 40
1.0
 41
14.137931
 76
     3
 10
60.911764
 20
133.50181
 30
0.0
 10
56.105716
 20
121.957767
 30
0.0
 10
53.687966
 20
121.399829
 30
0.0
 77
   256
  0
MTEXT
  5
80D8
100
AcDbEntity
  8
D-TEXT
100
AcDbMText
 10
52.687966
 20
121.399829
 30
0.0
 40
3.0
 41
0.0
 71
     6
 72
     1
  1
FASTEN TO DECK
  7
ARCH
  0
POLYLINE
  5
80D9
100
AcDbEntity
  8
D-TEXT
100
AcDb2dPolyline
 66
     1
 10
0.0
 20
0.0
 30
0.0
  0
VERTEX
  5
80DA
100
AcDbEntity
  8
D-TEXT
100
AcDbVertex
100
AcDb2dVertex
 10
47.113943
 20
103.849744
 30
0.0
  0
VERTEX
  5
80DB
100
AcDbEntity
  8
D-TEXT
100
AcDbVertex
100
AcDb2dVertex
 10
52.200119
 20
103.849744
 30
0.0
  0
VERTEX
  5
80DC
100
AcDbEntity
  8
D-TEXT
100
AcDbVertex
100
AcDb2dVertex
 10
52.200119
 20
100.148237
 30
0.0
  0
SEQEND
  5
80DD
100
AcDbEntity
  8
D-TEXT
  0
TEXT
  5
80DE
100
AcDbEntity
  8
D-TEXT
100
AcDbText
 10
49.116374
 20
104.810905
 30
0.0
 40
1.5
  1
1
  7
ARCH
 11
49.116374
 21
104.086767
 31
0.0
100
AcDbText
 73
     1
  0
TEXT
  5
80DF
100
AcDbEntity
  8
D-TEXT
100
AcDbText
 10
53.018951
 20
100.948982
 30
0.0
 40
1.5
  1
1
  7
ARCH
 11
53.018951
 21
100.224844
 31
0.0
100
AcDbText
 73
     1
  0
TEXT
  5
84EE
100
AcDbEntity
  8
LINK
 62
     1
100
AcDbText
 10
-43.64408
 20
46.016007
 30
0.0
 40
3.0
  1
drawing list
  7
BLOCK
 72
     1
 11
-28.08
 21
46.016007
 31
0.0
100
AcDbText
1001
PE_URL
1000
Cemco_drawings.htm
  0
TEXT
  5
84EF
100
AcDbEntity
  8
LINK
 62
     1
100
AcDbText
 10
-33.32526
 20
22.016007
 30
0.0
 40
3.0
  1
home
  7
BLOCK
 72
     1
 11
-28.08
 21
22.016007
 31
0.0
100
AcDbText
1001
PE_URL
1000
Cemco_drawings.htm
  0
TEXT
  5
84F0
100
AcDbEntity
  8
LINK
 62
     1
100
AcDbText
 10
-52.74257
 20
34.016007
 30
0.0
 40
3.0
  1
Assemble drawing 10
  7
BLOCK
 72
     1
 11
-28.08
 21
34.016007
 31
0.0
100
AcDbText
1001
PE_URL
1000
Cemco_drawings.htm
  0
TEXT
  5
84F1
100
AcDbEntity
  8
LINK
 62
     1
100
AcDbText
 10
-51.437971
 20
28.016007
 30
0.0
 40
3.0
  1
Cemco drawing list
  7
BLOCK
 72
     1
 11
-28.08
 21
28.016007
 31
0.0
100
AcDbText
1001
PE_URL
1000
Cemco_drawings.htm
  0
TEXT
  5
8500
100
AcDbEntity
  8
LINK
 62
     1
100
AcDbText
 10
-51.454824
 20
40.016007
 30
0.0
 40
3.0
  1
Assembly drawing 9
  7
BLOCK
 72
     1
 11
-28.08
 21
40.016007
 31
0.0
100
AcDbText
1001
PE_URL
1000
Cemco_drawings.htm
  0
MTEXT
  5
8505
100
AcDbEntity
  8
LINK
100
AcDbMText
 10
-17.004595
 20
4.396492
 30
0.0
 40
3.0
 41
0.0
 71
     7
 72
     1
  1
{Back}\P{Button}
  7
ARCH
  0
LEADER
  5
8506
100
AcDbEntity
  8
LINK
100
AcDbLeader
  3
LEADER
 72
     1
 73
     0
 74
     0
 40
0.125
 41
0.556034
 76
     7
 10
-0.666077
 20
13.352556
 30
0.0
 10
-15.171166
 20
19.149496
 30
0.0
 10
-19.993348
 20
19.640857
 30
0.0
 10
-28.262233
 20
16.877816
 30
0.0
 10
-26.568606
 20
6.778424
 30
0.0
 10
-23.023969
 20
6.082609
 30
0.0
 10
-17.636171
 20
6.116286
 30
0.0
 77
   256
  0
INSERT
  5
8507
100
AcDbEntity
  8
D-TEXT
100
AcDbBlockReference
 66
     1
  2
DETAIL_TITLE
 10
0.0
 20
0.0
 30
0.0
 41
24.0
 42
24.0
 43
24.0
1001
PE_URL
1000
6020-010.dwf
  0
ATTRIB
  5
8508
100
AcDbEntity
  8
D-TEXT
100
AcDbText
 10
27.924461
 20
15.603424
 30
0.0
 40
6.0
  1
45%%d KICKER BRACING
  7
BLOCK
100
AcDbAttribute
  2
DETAIL_DISCRIPTION
 70
     0
  0
ATTRIB
  5
8509
100
AcDbEntity
  8
D-TEXT
100
AcDbText
 10
1.938003
 20
9.462231
 30
0.0
 40
6.0
  1
D-16
  7
BLD
 72
     1
 11
12.462231
 21
12.462231
 31
0.0
100
AcDbAttribute
  2
DETAIL_NO
 70
     0
 74
     2
  0
ATTRIB
  5
850A
100
AcDbEntity
  8
D-TEXT
100
AcDbText
 10
27.924461
 20
4.129176
 30
0.0
 40
4.5
  1
N. T. Scale 1/2" = 1'0"
  7
BLOCK
100
AcDbAttribute
  2
SCALE
 70
     0
  0
SEQEND
  5
850B
100
AcDbEntity
  8
D-TEXT
  0
LINE
  5
8575
100
AcDbEntity
  8
STUD
100
AcDbLine
 10
115.740958
 20
127.084505
 30
0.0
 11
123.138551
 21
155.303107
 31
0.0
  0
LINE
  5
8576
100
AcDbEntity
  8
STUD
100
AcDbLine
 10
113.49719
 20
128.33511
 30
0.0
 11
120.860275
 21
156.422077
 31
0.0
  0
LINE
  5
8577
100
AcDbEntity
  8
STUD
100
AcDbLine
 10
116.190057
 20
126.788452
 30
0.0
 11
115.740958
 21
127.038765
 31
0.0
  0
LINE
  5
8578
100
AcDbEntity
  8
STUD
100
AcDbLine
 10
116.200519
 20
126.82836
 30
0.0
 11
115.740958
 21
127.084505
 31
0.0
  0
LINE
  5
8579
100
AcDbEntity
  8
STUD
100
AcDbLine
 10
115.740958
 20
127.084505
 30
0.0
 11
115.740958
 21
127.038765
 31
0.0
  0
LINE
  5
857A
100
AcDbEntity
  8
STUD
100
AcDbLine
 10
113.49719
 20
128.33511
 30
0.0
 11
113.49719
 21
128.28937
 31
0.0
  0
LINE
  5
857C
100
AcDbEntity
  8
STUD
100
AcDbLine
 10
113.142188
 20
128.42379
 30
0.0
 11
112.99594
 21
128.568751
 31
0.0
  0
LINE
  5
857D
100
AcDbEntity
  8
STUD
100
AcDbLine
 10
113.49719
 20
128.28937
 30
0.0
 11
112.99594
 21
128.568751
 31
0.0
  0
LINE
  5
857E
100
AcDbEntity
  8
STUD
100
AcDbLine
 10
113.49719
 20
128.33511
 30
0.0
 11
113.034485
 21
128.593007
 31
0.0
  0
LINE
  5
8580
100
AcDbEntity
  8
STUD
100
AcDbLine
 10
113.588742
 20
128.68434
 30
0.0
 11
114.199483
 21
129.040688
 31
0.0
  0
LINE
  5
8581
100
AcDbEntity
  8
STUD
100
AcDbLine
 10
123.636887
 20
155.058351
 30
0.0
 11
123.138551
 21
155.303107
 31
0.0
  0
LINE
  5
8582
100
AcDbEntity
  8
STUD
100
AcDbLine
 10
120.860275
 20
156.422077
 30
0.0
 11
120.361939
 21
156.666833
 31
0.0
  0
LINE
  5
8585
100
AcDbEntity
  8
STUD
100
AcDbLine
 10
71.772532
 20
103.334406
 30
0.0
 11
72.236486
 21
103.597703
 31
0.0
  0
LINE
  5
8586
100
AcDbEntity
  8
STUD
100
AcDbLine
 10
72.227385
 20
103.615037
 30
0.0
 11
64.824568
 21
131.853563
 31
0.0
  0
LINE
  5
8587
100
AcDbEntity
  8
STUD
100
AcDbLine
 10
74.437032
 20
104.846223
 30
0.0
 11
67.070792
 21
132.945226
 31
0.0
  0
LINE
  5
8588
100
AcDbEntity
  8
STUD
100
AcDbLine
 10
74.468117
 20
104.86417
 30
0.0
 11
67.102537
 21
132.960654
 31
0.0
  0
LINE
  5
8589
100
AcDbEntity
  8
STUD
100
AcDbLine
 10
74.468117
 20
104.86417
 30
0.0
 11
74.928104
 21
105.125216
 31
0.0
  0
LINE
  5
858A
100
AcDbEntity
  8
STUD
100
AcDbLine
 10
74.468117
 20
104.86417
 30
0.0
 11
74.437032
 21
104.846223
 31
0.0
  0
LINE
  5
858D
100
AcDbEntity
  8
STUD
100
AcDbLine
 10
64.355864
 20
131.625773
 30
0.0
 11
64.824568
 21
131.853563
 31
0.0
  0
LINE
  5
858E
100
AcDbEntity
  8
STUD
100
AcDbLine
 10
67.070792
 20
132.945226
 30
0.0
 11
67.571242
 21
133.188444
 31
0.0
  0
POLYLINE
  5
858F
100
AcDbEntity
  8
LAYOUT
100
AcDb2dPolyline
 66
     1
 10
0.0
 20
0.0
 30
0.0
 70
     1
  0
VERTEX
  5
8590
100
AcDbEntity
  8
LAYOUT
100
AcDbVertex
100
AcDb2dVertex
 10
0.0
 20
0.0
 30
0.0
  0
VERTEX
  5
8591
100
AcDbEntity
  8
LAYOUT
100
AcDbVertex
100
AcDb2dVertex
 10
246.48
 20
0.0
 30
0.0
  0
VERTEX
  5
8592
100
AcDbEntity
  8
LAYOUT
100
AcDbVertex
100
AcDb2dVertex
 10
246.48
 20
190.32
 30
0.0
  0
VERTEX
  5
8593
100
AcDbEntity
  8
LAYOUT
100
AcDbVertex
100
AcDb2dVertex
 10
190.32
 20
190.32
 30
0.0
  0
VERTEX
  5
8594
100
AcDbEntity
  8
LAYOUT
100
AcDbVertex
100
AcDb2dVertex
 10
190.32
 20
246.48
 30
0.0
  0
VERTEX
  5
8595
100
AcDbEntity
  8
LAYOUT
100
AcDbVertex
100
AcDb2dVertex
 10
0.0
 20
246.48
 30
0.0
  0
SEQEND
  5
8596
100
AcDbEntity
  8
LAYOUT
  0
TEXT
  5
860F
100
AcDbEntity
  8
LINK
100
AcDbText
 10
-48.789849
 20
4.322331
 30
0.0
 40
6.0
  1
24
  7
BLOCK
 11
-48.789849
 21
4.322331
 31
0.0
100
AcDbText
 73
     1
  0
POLYLINE
  5
869B
100
AcDbEntity
  8
_KTI_CONTROL
 60
     1
100
AcDb3dPolyline
 66
     1
 10
0.0
 20
0.0
 30
0.0
 70
     8
1001
_KTI_ARCHT
1070
 12000
1000
ENVIRONMENT
1070
 10003
1000
6020-016
1070
 20000
1000
standard
1070
 20001
1000
f:\archt
1070
 20003
1000
j:\archt
1070
 20002
1000
f:\archt\tmp
1070
 20004
1002
{
1000
f:\archt\blks
1000
f:\archt\blks3d
1000
h:\archt\blks
1000
h:\archt\blks3d
1000
j:\archt\blks
1000
j:\archt\blks3d
1002
}
1070
 20005
1002
{
1000
f:\archt\slds
1002
}
1070
 20006
1002
{
1000
f:\archt\dclswin
1002
}
1070
 20007
1002
{
1000
f:\archt\docs
1002
}
1070
 20008
1002
{
1000
f:\archt\help
1002
}
  0
VERTEX
  5
869C
100
AcDbEntity
  8
_KTI_CONTROL
100
AcDbVertex
100
AcDb3dPolylineVertex
 10
0.0
 20
0.0
 30
0.0
 70
    32
  0
VERTEX
  5
869D
100
AcDbEntity
  8
_KTI_CONTROL
100
AcDbVertex
100
AcDb3dPolylineVertex
 10
0.0
 20
0.0
 30
0.0
 70
    32
  0
SEQEND
  5
869E
100
AcDbEntity
  8
_KTI_CONTROL
  0
POLYLINE
  5
869F
100
AcDbEntity
  8
_KTI_CONTROL
 60
     1
100
AcDb3dPolyline
 66
     1
 10
0.0
 20
0.0
 30
0.0
 70
     8
1001
_KTI_ARCHT
1070
 12000
1000
ARCHTVARS
1070
 10003
1000
6020-016
1070
 12030
1000
in
1070
 12020
1070
     1
1070
 12021
1070
     0
1070
 12070
1070
     0
1070
 12071
1070
     1
1070
 12907
1070
     0
1070
 12072
1070
     2
1070
 12073
1070
    48
1070
 12074
1070
     0
1070
 12080
1070
     1
1070
 12092
1070
     1
1070
 12096
1070
     0
1070
 12095
1070
     0
1070
 12081
1070
     1
1070
 12082
1070
     1
1070
 12083
1070
     1
1070
 12084
1070
     1
1070
 12085
1070
     0
1070
 12086
1070
     1
1070
 12087
1070
     0
1070
 12088
1070
     0
1070
 12097
1070
     1
1070
 12089
1070
     4
1070
 12090
1070
     6
1070
 12091
1070
     1
1070
 12045
1000
standard
1070
 12046
1000

1070
 12047
1000
standard
1070
 12048
1000

1070
 12049
1000

1070
 12093
1070
     1
1070
 12094
1070
     1
1070
 12908
1070
     0
1070
 12909
1070
     0
1070
 12911
1070
     0
1070
 12910
1070
     0
1070
 12912
1070
     0
1070
 12098
1070
   640
1070
 12060
1002
{
1000

1000

1000

1000

1002
}
1070
 12904
1002
{
1070
     0
1070
     0
1070
     0
1070
     0
1070
     0
1002
}
1070
 12905
1002
{
1040
0.0
1040
0.0
1040
0.0
1040
0.0
1040
0.0
1002
}
1070
 12906
1002
{
1000

1000

1000

1000

1000

1002
}
1070
 12040
1002
{
1002
}
  0
VERTEX
  5
86A0
100
AcDbEntity
  8
_KTI_CONTROL
100
AcDbVertex
100
AcDb3dPolylineVertex
 10
0.0
 20
0.0
 30
0.0
 70
    32
  0
VERTEX
  5
86A1
100
AcDbEntity
  8
_KTI_CONTROL
100
AcDbVertex
100
AcDb3dPolylineVertex
 10
0.0
 20
0.0
 30
0.0
 70
    32
  0
SEQEND
  5
86A2
100
AcDbEntity
  8
_KTI_CONTROL
  0
ENDSEC
  0
SECTION
  2
OBJECTS
  0
DICTIONARY
  5
C
100
AcDbDictionary
  3
ACAD_GROUP
350
D
  3
ACAD_MLINESTYLE
350
E
  0
DICTIONARY
  5
D
102
{ACAD_REACTORS
330
C
102
}
100
AcDbDictionary
  3
*A2
350
5168
  3
STUD_3P625X1P625X96_WOLEENCHALA
350
2174
  0
DICTIONARY
  5
E
102
{ACAD_REACTORS
330
C
102
}
100
AcDbDictionary
  3
STANDARD
350
13
  0
GROUP
  5
5168
102
{ACAD_REACTORS
330
D
102
}
100
AcDbGroup
300

 70
     1
 71
     1
  0
GROUP
  5
2174
102
{ACAD_REACTORS
330
D
102
}
100
AcDbGroup
300
stud_3p625x1p625x96_woleEnchala
 70
     0
 71
     1
  0
MLINESTYLE
  5
13
102
{ACAD_REACTORS
330
E
102
}
100
AcDbMlineStyle
  2
STANDARD
 70
     0
  3

 62
     0
 51
90.0
 52
90.0
 71
     2
 49
0.5
 62
   256
  6
BYLAYER
 49
-0.5
 62
   256
  6
BYLAYER
  0
ENDSEC
  0
EOF
