  0
SECTION
  2
HEADER
  9
$ACADVER
  1
AC1012
  9
$DWGCODEPAGE
  3
ansi_1252
  9
$INSBASE
 10
0.0
 20
0.0
 30
0.0
  9
$EXTMIN
 10
-44.342313
 20
0.0
 30
0.0
  9
$EXTMAX
 10
190.32
 20
155.604125
 30
0.0
  9
$LIMMIN
 10
0.0
 20
0.0
  9
$LIMMAX
 10
102.656281
 20
151.743895
  9
$ORTHOMODE
 70
     0
  9
$REGENMODE
 70
     1
  9
$FILLMODE
 70
     1
  9
$QTEXTMODE
 70
     0
  9
$MIRRTEXT
 70
     1
  9
$DRAGMODE
 70
     2
  9
$LTSCALE
 40
12.0
  9
$OSMODE
 70
    39
  9
$ATTMODE
 70
     1
  9
$TEXTSIZE
 40
6.0
  9
$TRACEWID
 40
3.0
  9
$TEXTSTYLE
  7
ARCH
  9
$CLAYER
  8
D-TEXT
  9
$CELTYPE
  6
BYLAYER
  9
$CECOLOR
 62
   256
  9
$CELTSCALE
 40
1.0
  9
$DELOBJ
 70
     1
  9
$DISPSILH
 70
     0
  9
$DIMSCALE
 40
24.0
  9
$DIMASZ
 40
0.1875
  9
$DIMEXO
 40
0.0625
  9
$DIMDLI
 40
0.375
  9
$DIMRND
 40
0.0
  9
$DIMDLE
 40
0.0
  9
$DIMEXE
 40
0.1875
  9
$DIMTP
 40
0.0
  9
$DIMTM
 40
0.0
  9
$DIMTXT
 40
0.125
  9
$DIMCEN
 40
0.1875
  9
$DIMTSZ
 40
0.0
  9
$DIMTOL
 70
     0
  9
$DIMLIM
 70
     0
  9
$DIMTIH
 70
     1
  9
$DIMTOH
 70
     1
  9
$DIMSE1
 70
     0
  9
$DIMSE2
 70
     0
  9
$DIMTAD
 70
     0
  9
$DIMZIN
 70
     0
  9
$DIMBLK
  1
OBLIQUE
  9
$DIMASO
 70
     1
  9
$DIMSHO
 70
     1
  9
$DIMPOST
  1

  9
$DIMAPOST
  1

  9
$DIMALT
 70
     0
  9
$DIMALTD
 70
     1
  9
$DIMALTF
 40
25.4
  9
$DIMLFAC
 40
1.0
  9
$DIMTOFL
 70
     0
  9
$DIMTVP
 40
0.0
  9
$DIMTIX
 70
     0
  9
$DIMSOXD
 70
     0
  9
$DIMSAH
 70
     1
  9
$DIMBLK1
  1
_OPEN90
  9
$DIMBLK2
  1
_OPEN90
  9
$DIMSTYLE
  2
LEADER
  9
$DIMCLRD
 70
     0
  9
$DIMCLRE
 70
     0
  9
$DIMCLRT
 70
     0
  9
$DIMTFAC
 40
1.0
  9
$DIMGAP
 40
0.125
  9
$DIMJUST
 70
     0
  9
$DIMSD1
 70
     0
  9
$DIMSD2
 70
     0
  9
$DIMTOLJ
 70
     0
  9
$DIMTZIN
 70
     0
  9
$DIMALTZ
 70
     0
  9
$DIMALTTZ
 70
     0
  9
$DIMFIT
 70
     1
  9
$DIMUPT
 70
     1
  9
$DIMUNIT
 70
     4
  9
$DIMDEC
 70
     4
  9
$DIMTDEC
 70
     2
  9
$DIMALTU
 70
     2
  9
$DIMALTTD
 70
     1
  9
$DIMTXSTY
  7
ARCH
  9
$DIMAUNIT
 70
     0
  9
$LUNITS
 70
     4
  9
$LUPREC
 70
     4
  9
$SKETCHINC
 40
12.0
  9
$FILLETRAD
 40
0.0
  9
$AUNITS
 70
     0
  9
$AUPREC
 70
     0
  9
$MENU
  1
.
  9
$ELEVATION
 40
0.0
  9
$PELEVATION
 40
0.0
  9
$THICKNESS
 40
0.0
  9
$LIMCHECK
 70
     0
  9
$BLIPMODE
 70
     1
  9
$CHAMFERA
 40
24.0
  9
$CHAMFERB
 40
24.0
  9
$CHAMFERC
 40
24.0
  9
$CHAMFERD
 40
0.785398
  9
$SKPOLY
 70
     0
  9
$TDCREATE
 40
2451083.462892824
  9
$TDUPDATE
 40
2451103.334847801
  9
$TDINDWG
 40
0.2280177083
  9
$TDUSRTIMER
 40
0.2280177083
  9
$USRTIMER
 70
     1
  9
$ANGBASE
 50
0.0
  9
$ANGDIR
 70
     0
  9
$PDMODE
 70
     0
  9
$PDSIZE
 40
0.0
  9
$PLINEWID
 40
0.0
  9
$COORDS
 70
     2
  9
$SPLFRAME
 70
     0
  9
$SPLINETYPE
 70
     6
  9
$SPLINESEGS
 70
     8
  9
$ATTDIA
 70
     0
  9
$ATTREQ
 70
     1
  9
$HANDLING
 70
     1
  9
$HANDSEED
  5
52F8
  9
$SURFTAB1
 70
     6
  9
$SURFTAB2
 70
     6
  9
$SURFTYPE
 70
     6
  9
$SURFU
 70
     6
  9
$SURFV
 70
     6
  9
$UCSNAME
  2

  9
$UCSORG
 10
0.0
 20
0.0
 30
0.0
  9
$UCSXDIR
 10
1.0
 20
0.0
 30
0.0
  9
$UCSYDIR
 10
0.0
 20
1.0
 30
0.0
  9
$PUCSNAME
  2

  9
$PUCSORG
 10
0.0
 20
0.0
 30
0.0
  9
$PUCSXDIR
 10
1.0
 20
0.0
 30
0.0
  9
$PUCSYDIR
 10
0.0
 20
1.0
 30
0.0
  9
$USERI1
 70
     0
  9
$USERI2
 70
     0
  9
$USERI3
 70
     0
  9
$USERI4
 70
     0
  9
$USERI5
 70
     0
  9
$USERR1
 40
0.0
  9
$USERR2
 40
0.0
  9
$USERR3
 40
0.0
  9
$USERR4
 40
0.0
  9
$USERR5
 40
0.0
  9
$WORLDVIEW
 70
     1
  9
$SHADEDGE
 70
     3
  9
$SHADEDIF
 70
    70
  9
$TILEMODE
 70
     1
  9
$MAXACTVP
 70
    16
  9
$PINSBASE
 10
0.0
 20
0.0
 30
0.0
  9
$PLIMCHECK
 70
     0
  9
$PEXTMIN
 10
1.000000E+20
 20
1.000000E+20
 30
1.000000E+20
  9
$PEXTMAX
 10
-1.000000E+20
 20
-1.000000E+20
 30
-1.000000E+20
  9
$PLIMMIN
 10
0.0
 20
0.0
  9
$PLIMMAX
 10
12.0
 20
9.0
  9
$UNITMODE
 70
     0
  9
$VISRETAIN
 70
     0
  9
$PLINEGEN
 70
     0
  9
$PSLTSCALE
 70
     1
  9
$TREEDEPTH
 70
  3020
  9
$PICKSTYLE
 70
     1
  9
$CMLSTYLE
  2
STANDARD
  9
$CMLJUST
 70
     0
  9
$CMLSCALE
 40
1.0
  9
$SAVEIMAGES
 70
     0
  0
ENDSEC
  0
SECTION
  2
CLASSES
  0
ENDSEC
  0
SECTION
  2
TABLES
  0
TABLE
  2
VPORT
  5
8
100
AcDbSymbolTable
 70
     4
  0
VPORT
  5
52F7
100
AcDbSymbolTableRecord
100
AcDbViewportTableRecord
  2
*ACTIVE
 70
     0
 10
0.0
 20
0.0
 11
1.0
 21
1.0
 12
72.988843
 22
79.575552
 13
0.0
 23
0.0
 14
0.108253
 24
0.03125
 15
10.392305
 25
3.0
 16
0.0
 26
0.0
 36
1.0
 17
0.0
 27
0.0
 37
0.0
 40
159.151104
 41
1.474462
 42
50.0
 43
0.0
 44
0.0
 50
0.0
 51
0.0
 71
     0
 72
   100
 73
     1
 74
     1
 75
     0
 76
     1
 77
     1
 78
     1
  0
ENDTAB
  0
TABLE
  2
LTYPE
  5
5
100
AcDbSymbolTable
 70
     1
  0
LTYPE
  5
14
100
AcDbSymbolTableRecord
100
AcDbLinetypeTableRecord
  2
BYBLOCK
 70
     0
  3

 72
    65
 73
     0
 40
0.0
  0
LTYPE
  5
15
100
AcDbSymbolTableRecord
100
AcDbLinetypeTableRecord
  2
BYLAYER
 70
     0
  3

 72
    65
 73
     0
 40
0.0
  0
LTYPE
  5
16
100
AcDbSymbolTableRecord
100
AcDbLinetypeTableRecord
  2
CONTINUOUS
 70
     0
  3
Solid line
 72
    65
 73
     0
 40
0.0
  0
ENDTAB
  0
TABLE
  2
LAYER
  5
2
100
AcDbSymbolTable
 70
     9
  0
LAYER
  5
F
100
AcDbSymbolTableRecord
100
AcDbLayerTableRecord
  2
0
 70
    64
 62
     7
  6
CONTINUOUS
  0
LAYER
  5
163C
100
AcDbSymbolTableRecord
100
AcDbLayerTableRecord
  2
_KTI_CONTROL
 70
    69
 62
     7
  6
CONTINUOUS
  0
LAYER
  5
1646
100
AcDbSymbolTableRecord
100
AcDbLayerTableRecord
  2
STUD
 70
    64
 62
     5
  6
CONTINUOUS
  0
LAYER
  5
1647
100
AcDbSymbolTableRecord
100
AcDbLayerTableRecord
  2
TRACK
 70
    64
 62
     1
  6
CONTINUOUS
  0
LAYER
  5
164B
100
AcDbSymbolTableRecord
100
AcDbLayerTableRecord
  2
STEEL
 70
    64
 62
   142
  6
CONTINUOUS
  0
LAYER
  5
164E
100
AcDbSymbolTableRecord
100
AcDbLayerTableRecord
  2
FASTENER
 70
    64
 62
     7
  6
CONTINUOUS
  0
LAYER
  5
4968
100
AcDbSymbolTableRecord
100
AcDbLayerTableRecord
  2
LINK
 70
    64
 62
     7
  6
CONTINUOUS
  0
LAYER
  5
4D5D
100
AcDbSymbolTableRecord
100
AcDbLayerTableRecord
  2
D-TEXT
 70
    64
 62
    94
  6
CONTINUOUS
  0
LAYER
  5
4D5E
100
AcDbSymbolTableRecord
100
AcDbLayerTableRecord
  2
LAYOUT
 70
    65
 62
    52
  6
CONTINUOUS
  0
ENDTAB
  0
TABLE
  2
STYLE
  5
3
100
AcDbSymbolTable
 70
     4
  0
STYLE
  5
10
100
AcDbSymbolTableRecord
100
AcDbTextStyleTableRecord
  2
STANDARD
 70
     0
 40
0.0
 41
1.0
 50
0.0
 71
     0
 42
12.0
  3
txt
  4

  0
STYLE
  5
3054
100
AcDbSymbolTableRecord
100
AcDbTextStyleTableRecord
  2
ARCH
 70
    64
 40
0.0
 41
1.0
 50
0.0
 71
     0
 42
6.0
  3
F:\r13\com\fonts\Architxt.shx
  4

  0
STYLE
  5
4912
100
AcDbSymbolTableRecord
100
AcDbTextStyleTableRecord
  2
BLOCK
 70
    64
 40
0.0
 41
1.0
 50
0.0
 71
     0
 42
3.0
  3
D:\Customers\Paul Singer\6005\Arialn.ttf
  4

  0
STYLE
  5
4D67
100
AcDbSymbolTableRecord
100
AcDbTextStyleTableRecord
  2
BLD
 70
    64
 40
0.0
 41
1.0
 50
0.0
 71
     0
 42
1.5
  3
F:\r13\com\fonts\monos.ttf
  4

  0
ENDTAB
  0
TABLE
  2
VIEW
  5
6
100
AcDbSymbolTable
 70
     1
  0
VIEW
  5
1669
100
AcDbSymbolTableRecord
100
AcDbViewTableRecord
  2
ALL
 70
     0
 40
136.618298
 10
49.939167
 20
66.357459
 41
109.431915
 11
0.0
 21
0.0
 31
1.0
 12
0.0
 22
0.0
 32
0.0
 42
50.0
 43
0.0
 44
0.0
 50
0.0
 71
     0
  0
ENDTAB
  0
TABLE
  2
UCS
  5
7
100
AcDbSymbolTable
 70
     0
  0
ENDTAB
  0
TABLE
  2
APPID
  5
9
100
AcDbSymbolTable
 70
     4
  0
APPID
  5
11
100
AcDbSymbolTableRecord
100
AcDbRegAppTableRecord
  2
ACAD
 70
     0
  0
APPID
  5
163B
100
AcDbSymbolTableRecord
100
AcDbRegAppTableRecord
  2
_KTI_ARCHT
 70
     0
  0
APPID
  5
4950
100
AcDbSymbolTableRecord
100
AcDbRegAppTableRecord
  2
PE_URL
 70
     0
  0
APPID
  5
4D6A
100
AcDbSymbolTableRecord
100
AcDbRegAppTableRecord
  2
ADE
 70
     0
  0
ENDTAB
  0
TABLE
  2
DIMSTYLE
  5
A
100
AcDbSymbolTable
 70
     2
  0
DIMSTYLE
105
1D
100
AcDbSymbolTableRecord
100
AcDbDimStyleTableRecord
  2
STANDARD
 70
     0
  3

  4

  5

  6

  7

 40
1.0
 41
0.18
 42
0.0625
 43
0.38
 44
0.18
 45
0.0
 46
0.0
 47
0.0
 48
0.0
140
0.18
141
0.09
142
0.0
143
25.4
144
1.0
145
0.0
146
1.0
147
0.09
 71
     0
 72
     0
 73
     1
 74
     1
 75
     0
 76
     0
 77
     0
 78
     0
170
     0
171
     2
172
     0
173
     0
174
     0
175
     0
176
     0
177
     0
178
     0
270
     2
271
     4
272
     4
273
     2
274
     2
340
10
275
     0
280
     0
281
     0
282
     0
283
     1
284
     0
285
     0
286
     0
287
     3
288
     0
  0
DIMSTYLE
105
304D
100
AcDbSymbolTableRecord
100
AcDbDimStyleTableRecord
  2
LEADER
 70
     0
  3

  4

  5
OBLIQUE
  6
_OPEN90
  7
_OPEN90
 40
24.0
 41
0.1875
 42
0.0625
 43
0.375
 44
0.1875
 45
0.0
 46
0.0
 47
0.0
 48
0.0
140
0.125
141
0.1875
142
0.0
143
25.4
144
1.0
145
0.0
146
1.0
147
0.125
 71
     0
 72
     0
 73
     1
 74
     1
 75
     0
 76
     0
 77
     0
 78
     0
170
     0
171
     1
172
     0
173
     1
174
     0
175
     0
176
     0
177
     0
178
     0
270
     4
271
     4
272
     2
273
     2
274
     1
340
3054
275
     0
280
     0
281
     0
282
     0
283
     0
284
     0
285
     0
286
     0
287
     1
288
     1
  0
ENDTAB
  0
TABLE
  2
BLOCK_RECORD
  5
1
100
AcDbSymbolTable
 70
     2
  0
BLOCK_RECORD
  5
1A
100
AcDbSymbolTableRecord
100
AcDbBlockTableRecord
  2
*MODEL_SPACE
  0
BLOCK_RECORD
  5
17
100
AcDbSymbolTableRecord
100
AcDbBlockTableRecord
  2
*PAPER_SPACE
  0
BLOCK_RECORD
  5
3367
100
AcDbSymbolTableRecord
100
AcDbBlockTableRecord
  2
DETAIL_MARK
  0
BLOCK_RECORD
  5
4D46
100
AcDbSymbolTableRecord
100
AcDbBlockTableRecord
  2
DETAIL_TITLE
  0
ENDTAB
  0
ENDSEC
  0
SECTION
  2
BLOCKS
  0
BLOCK
  5
1B
100
AcDbEntity
  8
0
100
AcDbBlockBegin
  2
*MODEL_SPACE
 70
     0
 10
0.0
 20
0.0
 30
0.0
  3
*MODEL_SPACE
  1

  0
ENDBLK
  5
1C
100
AcDbEntity
  8
0
100
AcDbBlockEnd
  0
BLOCK
  5
18
100
AcDbEntity
 67
     1
  8
0
100
AcDbBlockBegin
  2
*PAPER_SPACE
 70
     0
 10
0.0
 20
0.0
 30
0.0
  3
*PAPER_SPACE
  1

  0
ENDBLK
  5
19
100
AcDbEntity
 67
     1
  8
0
100
AcDbBlockEnd
  0
BLOCK
  5
3396
100
AcDbEntity
  8
0
100
AcDbBlockBegin
  2
DETAIL_MARK
 70
    66
 10
0.0
 20
0.0
 30
0.0
  3
DETAIL_MARK
  1

  0
CIRCLE
  5
3397
100
AcDbEntity
  8
0
100
AcDbCircle
 10
0.0
 20
0.0
 30
0.0
 40
4.937896
  0
LINE
  5
3398
100
AcDbEntity
  8
0
100
AcDbLine
 10
-4.937896
 20
0.0
 30
0.0
 11
4.937896
 21
0.0
 31
0.0
  0
ATTDEF
  5
3399
100
AcDbEntity
  8
0
100
AcDbText
 10
-0.655172
 20
0.965517
 30
0.0
 40
2.0
  1
#
  7
ARCH
 72
     1
 11
0.0
 21
0.0
 31
0.0
100
AcDbAttributeDefinition
  3
Enter detail #
  2
DETAIL_#
 70
     0
 74
     1
  0
ATTDEF
  5
339A
100
AcDbEntity
  8
0
100
AcDbText
 10
-2.62069
 20
-2.784483
 30
0.0
 40
2.0
  1
S-5
  7
ARCH
 72
     1
 11
0.0
 21
-3.75
 31
0.0
100
AcDbAttributeDefinition
  3
Enter Detail page #
  2
DETAIL_PAGE
 70
     0
 74
     1
  0
ENDBLK
  5
339B
100
AcDbEntity
  8
0
100
AcDbBlockEnd
  0
BLOCK
  5
4D4F
100
AcDbEntity
  8
0
100
AcDbBlockBegin
  2
DETAIL_TITLE
 70
    66
 10
0.0
 20
0.0
 30
0.0
  3
DETAIL_TITLE
  1

  0
ATTDEF
  5
4D47
100
AcDbEntity
  8
D-TEXT
100
AcDbText
 10
1.163519
 20
0.650143
 30
0.0
 40
0.25
  1
TYP. 
  7
BLOCK
100
AcDbAttributeDefinition
  3
Enter the title of the detail
  2
DETAIL_DISCRIPTION
 70
     0
  0
POLYLINE
  5
4D48
100
AcDbEntity
  8
D-TEXT
100
AcDb2dPolyline
 66
     1
 10
0.0
 20
0.0
 30
0.0
 40
0.05
 41
0.05
  0
VERTEX
  5
4D49
100
AcDbEntity
  8
D-TEXT
100
AcDbVertex
100
AcDb2dVertex
 10
1.038519
 20
0.51926
 30
0.0
  0
VERTEX
  5
4D4A
100
AcDbEntity
  8
D-TEXT
100
AcDbVertex
100
AcDb2dVertex
 10
7.93
 20
0.51926
 30
0.0
  0
SEQEND
  5
4D4B
100
AcDbEntity
  8
D-TEXT
  0
ATTDEF
  5
4D4C
100
AcDbEntity
  8
D-TEXT
100
AcDbText
 10
0.189467
 20
0.39426
 30
0.0
 40
0.25
  1
D-#
  7
BLD
 72
     1
 11
0.51926
 21
0.51926
 31
0.0
100
AcDbAttributeDefinition
  3
Enter the Detail number
  2
DETAIL_NO
 70
     0
 74
     2
  0
ATTDEF
  5
4D4D
100
AcDbEntity
  8
D-TEXT
100
AcDbText
 10
1.163519
 20
0.172049
 30
0.0
 40
0.1875
  1
N. T. Scale 1-1/2" = 1'0"
  7
BLOCK
100
AcDbAttributeDefinition
  3
Type the defanition of scale
  2
SCALE
 70
     0
  0
CIRCLE
  5
4D4E
100
AcDbEntity
  8
D-TEXT
100
AcDbCircle
 10
0.51926
 20
0.51926
 30
0.0
 40
0.51926
  0
ENDBLK
  5
4D50
100
AcDbEntity
  8
0
100
AcDbBlockEnd
  0
ENDSEC
  0
SECTION
  2
ENTITIES
  0
POLYLINE
  5
195C
100
AcDbEntity
  8
STUD
100
AcDb2dPolyline
 66
     1
 10
0.0
 20
0.0
 30
0.0
  0
VERTEX
  5
195D
100
AcDbEntity
  8
STUD
100
AcDbVertex
100
AcDb2dVertex
 10
75.353865
 20
122.056541
 30
0.0
  0
VERTEX
  5
195E
100
AcDbEntity
  8
STUD
100
AcDbVertex
100
AcDb2dVertex
 10
73.159682
 20
123.153633
 30
0.0
  0
SEQEND
  5
195F
100
AcDbEntity
  8
STUD
  0
POLYLINE
  5
1A63
100
AcDbEntity
  8
STUD
100
AcDb2dPolyline
 66
     1
 10
0.0
 20
0.0
 30
0.0
  0
VERTEX
  5
1A64
100
AcDbEntity
  8
STUD
100
AcDbVertex
100
AcDb2dVertex
 10
39.50732
 20
141.791864
 30
0.0
  0
VERTEX
  5
1A65
100
AcDbEntity
  8
STUD
100
AcDbVertex
100
AcDb2dVertex
 10
39.50732
 20
141.306356
 30
0.0
  0
SEQEND
  5
1A66
100
AcDbEntity
  8
STUD
 62
   174
  0
POLYLINE
  5
1AEE
100
AcDbEntity
  8
TRACK
100
AcDb2dPolyline
 66
     1
 10
0.0
 20
0.0
 30
0.0
  0
VERTEX
  5
1AEF
100
AcDbEntity
  8
TRACK
100
AcDbVertex
100
AcDb2dVertex
 10
86.861001
 20
117.563396
 30
0.0
  0
VERTEX
  5
1AF0
100
AcDbEntity
  8
TRACK
100
AcDbVertex
100
AcDb2dVertex
 10
86.756223
 20
117.563396
 30
0.0
  0
SEQEND
  5
1AF1
100
AcDbEntity
  8
TRACK
  0
POLYLINE
  5
1AF2
100
AcDbEntity
  8
TRACK
100
AcDb2dPolyline
 66
     1
 10
0.0
 20
0.0
 30
0.0
  0
VERTEX
  5
1AF3
100
AcDbEntity
  8
TRACK
100
AcDbVertex
100
AcDb2dVertex
 10
86.933956
 20
117.563396
 30
0.0
  0
VERTEX
  5
1AF4
100
AcDbEntity
  8
TRACK
100
AcDbVertex
100
AcDb2dVertex
 10
86.756223
 20
117.563396
 30
0.0
  0
SEQEND
  5
1AF5
100
AcDbEntity
  8
TRACK
  0
POLYLINE
  5
1D7A
100
AcDbEntity
  8
STUD
100
AcDb2dPolyline
 66
     1
 10
0.0
 20
0.0
 30
0.0
  0
VERTEX
  5
1D7B
100
AcDbEntity
  8
STUD
100
AcDbVertex
100
AcDb2dVertex
 10
41.606683
 20
135.939567
 30
0.0
  0
VERTEX
  5
1D7C
100
AcDbEntity
  8
STUD
100
AcDbVertex
100
AcDb2dVertex
 10
40.931073
 20
135.54214
 30
0.0
  0
SEQEND
  5
1D7D
100
AcDbEntity
  8
STUD
  0
POLYLINE
  5
1E0D
100
AcDbEntity
  8
STUD
100
AcDb2dPolyline
 66
     1
 10
0.0
 20
0.0
 30
0.0
  0
VERTEX
  5
1E0E
100
AcDbEntity
  8
STUD
100
AcDbVertex
100
AcDb2dVertex
 10
44.222348
 20
117.563396
 30
0.0
  0
VERTEX
  5
1E0F
100
AcDbEntity
  8
STUD
100
AcDbVertex
100
AcDb2dVertex
 10
44.222348
 20
116.910072
 30
0.0
  0
VERTEX
  5
1E10
100
AcDbEntity
  8
STUD
100
AcDbVertex
100
AcDb2dVertex
 10
44.222348
 20
117.563396
 30
0.0
  0
SEQEND
  5
1E11
100
AcDbEntity
  8
STUD
  0
POLYLINE
  5
1E25
100
AcDbEntity
  8
STUD
100
AcDb2dPolyline
 66
     1
 10
0.0
 20
0.0
 30
0.0
  0
VERTEX
  5
1E26
100
AcDbEntity
  8
STUD
100
AcDbVertex
100
AcDb2dVertex
 10
44.222348
 20
116.893059
 30
0.0
  0
VERTEX
  5
1E27
100
AcDbEntity
  8
STUD
100
AcDbVertex
100
AcDb2dVertex
 10
44.222348
 20
132.583691
 30
0.0
  0
SEQEND
  5
1E28
100
AcDbEntity
  8
STUD
  0
POLYLINE
  5
1E8A
100
AcDbEntity
  8
STUD
100
AcDb2dPolyline
 66
     1
 10
0.0
 20
0.0
 30
0.0
  0
VERTEX
  5
1E8B
100
AcDbEntity
  8
STUD
100
AcDbVertex
100
AcDb2dVertex
 10
40.931073
 20
59.561339
 30
0.0
  0
VERTEX
  5
1E8C
100
AcDbEntity
  8
STUD
100
AcDbVertex
100
AcDb2dVertex
 10
44.222348
 20
61.206977
 30
0.0
  0
SEQEND
  5
1E8D
100
AcDbEntity
  8
STUD
  0
POLYLINE
  5
22E5
100
AcDbEntity
  8
STUD
100
AcDb2dPolyline
 66
     1
 10
0.0
 20
0.0
 30
0.0
  0
VERTEX
  5
22E6
100
AcDbEntity
  8
STUD
100
AcDbVertex
100
AcDb2dVertex
 10
26.021721
 20
68.442851
 30
0.0
  0
VERTEX
  5
22E7
100
AcDbEntity
  8
STUD
100
AcDbVertex
100
AcDb2dVertex
 10
27.889242
 20
69.318059
 30
0.0
  0
SEQEND
  5
22E8
100
AcDbEntity
  8
STUD
 62
   174
  0
POLYLINE
  5
2706
100
AcDbEntity
  8
STUD
100
AcDb2dPolyline
 66
     1
 10
0.0
 20
0.0
 30
0.0
  0
VERTEX
  5
2707
100
AcDbEntity
  8
STUD
100
AcDbVertex
100
AcDb2dVertex
 10
101.554633
 20
30.624005
 30
0.0
  0
VERTEX
  5
2708
100
AcDbEntity
  8
STUD
100
AcDbVertex
100
AcDb2dVertex
 10
103.415991
 20
31.610155
 30
0.0
  0
SEQEND
  5
2709
100
AcDbEntity
  8
STUD
 62
   174
  0
POLYLINE
  5
270A
100
AcDbEntity
  8
TRACK
100
AcDb2dPolyline
 66
     1
 10
0.0
 20
0.0
 30
0.0
  0
VERTEX
  5
270B
100
AcDbEntity
  8
TRACK
100
AcDbVertex
100
AcDb2dVertex
 10
44.222348
 20
60.985093
 30
0.0
  0
VERTEX
  5
270C
100
AcDbEntity
  8
TRACK
100
AcDbVertex
100
AcDb2dVertex
 10
44.222348
 20
62.63073
 30
0.0
  0
SEQEND
  5
270D
100
AcDbEntity
  8
TRACK
  0
POLYLINE
  5
270E
100
AcDbEntity
  8
TRACK
100
AcDb2dPolyline
 66
     1
 10
0.0
 20
0.0
 30
0.0
  0
VERTEX
  5
270F
100
AcDbEntity
  8
TRACK
100
AcDbVertex
100
AcDb2dVertex
 10
23.063271
 20
73.226336
 30
0.0
  0
VERTEX
  5
2710
100
AcDbEntity
  8
TRACK
100
AcDbVertex
100
AcDb2dVertex
 10
22.077122
 20
73.706425
 30
0.0
  0
SEQEND
  5
2711
100
AcDbEntity
  8
TRACK
  0
POLYLINE
  5
271E
100
AcDbEntity
  8
TRACK
100
AcDb2dPolyline
 66
     1
 10
0.0
 20
0.0
 30
0.0
  0
VERTEX
  5
271F
100
AcDbEntity
  8
TRACK
100
AcDbVertex
100
AcDb2dVertex
 10
22.077122
 20
72.17173
 30
0.0
  0
VERTEX
  5
2720
100
AcDbEntity
  8
TRACK
100
AcDbVertex
100
AcDb2dVertex
 10
23.063271
 20
71.623184
 30
0.0
  0
SEQEND
  5
2721
100
AcDbEntity
  8
TRACK
  0
POLYLINE
  5
2722
100
AcDbEntity
  8
TRACK
100
AcDb2dPolyline
 66
     1
 10
0.0
 20
0.0
 30
0.0
  0
VERTEX
  5
2723
100
AcDbEntity
  8
TRACK
100
AcDbVertex
100
AcDb2dVertex
 10
22.077122
 20
73.706425
 30
0.0
  0
VERTEX
  5
2724
100
AcDbEntity
  8
TRACK
100
AcDbVertex
100
AcDb2dVertex
 10
22.077122
 20
72.17173
 30
0.0
  0
VERTEX
  5
2725
100
AcDbEntity
  8
TRACK
100
AcDbVertex
100
AcDb2dVertex
 10
22.077122
 20
72.060788
 30
0.0
  0
SEQEND
  5
2726
100
AcDbEntity
  8
TRACK
  0
POLYLINE
  5
2743
100
AcDbEntity
  8
TRACK
100
AcDb2dPolyline
 66
     1
 10
0.0
 20
0.0
 30
0.0
  0
VERTEX
  5
2744
100
AcDbEntity
  8
TRACK
100
AcDbVertex
100
AcDb2dVertex
 10
37.861682
 20
64.165426
 30
0.0
  0
VERTEX
  5
2745
100
AcDbEntity
  8
TRACK
100
AcDbVertex
100
AcDb2dVertex
 10
27.77411
 20
69.264102
 30
0.0
  0
SEQEND
  5
2746
100
AcDbEntity
  8
TRACK
  0
POLYLINE
  5
2747
100
AcDbEntity
  8
TRACK
100
AcDb2dPolyline
 66
     1
 10
0.0
 20
0.0
 30
0.0
  0
VERTEX
  5
2748
100
AcDbEntity
  8
TRACK
100
AcDbVertex
100
AcDb2dVertex
 10
44.222348
 20
60.985093
 30
0.0
  0
VERTEX
  5
2749
100
AcDbEntity
  8
TRACK
100
AcDbVertex
100
AcDb2dVertex
 10
44.000465
 20
61.096035
 30
0.0
  0
VERTEX
  5
274A
100
AcDbEntity
  8
TRACK
100
AcDbVertex
100
AcDb2dVertex
 10
44.222348
 20
60.985093
 30
0.0
  0
SEQEND
  5
274B
100
AcDbEntity
  8
TRACK
  0
POLYLINE
  5
2750
100
AcDbEntity
  8
TRACK
100
AcDb2dPolyline
 66
     1
 10
0.0
 20
0.0
 30
0.0
  0
VERTEX
  5
2751
100
AcDbEntity
  8
TRACK
100
AcDbVertex
100
AcDb2dVertex
 10
22.077122
 20
72.060788
 30
0.0
  0
VERTEX
  5
2752
100
AcDbEntity
  8
TRACK
100
AcDbVertex
100
AcDb2dVertex
 10
23.063271
 20
71.512242
 30
0.0
  0
SEQEND
  5
2753
100
AcDbEntity
  8
TRACK
  0
POLYLINE
  5
2754
100
AcDbEntity
  8
TRACK
100
AcDb2dPolyline
 66
     1
 10
0.0
 20
0.0
 30
0.0
  0
VERTEX
  5
2755
100
AcDbEntity
  8
TRACK
100
AcDbVertex
100
AcDb2dVertex
 10
40.931073
 20
59.345619
 30
0.0
  0
VERTEX
  5
2756
100
AcDbEntity
  8
TRACK
100
AcDbVertex
100
AcDb2dVertex
 10
44.222348
 20
60.985093
 30
0.0
  0
SEQEND
  5
2757
100
AcDbEntity
  8
TRACK
  0
POLYLINE
  5
2758
100
AcDbEntity
  8
TRACK
100
AcDb2dPolyline
 66
     1
 10
0.0
 20
0.0
 30
0.0
  0
VERTEX
  5
2759
100
AcDbEntity
  8
TRACK
100
AcDbVertex
100
AcDb2dVertex
 10
22.077122
 20
72.060788
 30
0.0
  0
VERTEX
  5
275A
100
AcDbEntity
  8
TRACK
100
AcDbVertex
100
AcDb2dVertex
 10
20.320542
 20
71.290358
 30
0.0
  0
SEQEND
  5
275B
100
AcDbEntity
  8
TRACK
  0
POLYLINE
  5
275C
100
AcDbEntity
  8
TRACK
100
AcDb2dPolyline
 66
     1
 10
0.0
 20
0.0
 30
0.0
  0
VERTEX
  5
275D
100
AcDbEntity
  8
TRACK
100
AcDbVertex
100
AcDb2dVertex
 10
40.931073
 20
59.345619
 30
0.0
  0
VERTEX
  5
275E
100
AcDbEntity
  8
TRACK
100
AcDbVertex
100
AcDb2dVertex
 10
40.931073
 20
60.985093
 30
0.0
  0
SEQEND
  5
275F
100
AcDbEntity
  8
TRACK
  0
POLYLINE
  5
2768
100
AcDbEntity
  8
TRACK
100
AcDb2dPolyline
 66
     1
 10
0.0
 20
0.0
 30
0.0
  0
VERTEX
  5
2769
100
AcDbEntity
  8
TRACK
100
AcDbVertex
100
AcDb2dVertex
 10
40.820132
 20
60.985093
 30
0.0
  0
VERTEX
  5
276A
100
AcDbEntity
  8
TRACK
100
AcDbVertex
100
AcDb2dVertex
 10
40.931073
 20
60.985093
 30
0.0
  0
SEQEND
  5
276B
100
AcDbEntity
  8
TRACK
  0
POLYLINE
  5
276C
100
AcDbEntity
  8
TRACK
100
AcDb2dPolyline
 66
     1
 10
0.0
 20
0.0
 30
0.0
  0
VERTEX
  5
276D
100
AcDbEntity
  8
TRACK
100
AcDbVertex
100
AcDb2dVertex
 10
18.681068
 20
72.060788
 30
0.0
  0
VERTEX
  5
276E
100
AcDbEntity
  8
TRACK
100
AcDbVertex
100
AcDb2dVertex
 10
40.820132
 20
60.985093
 30
0.0
  0
SEQEND
  5
276F
100
AcDbEntity
  8
TRACK
  0
POLYLINE
  5
2770
100
AcDbEntity
  8
TRACK
100
AcDb2dPolyline
 66
     1
 10
0.0
 20
0.0
 30
0.0
  0
VERTEX
  5
2771
100
AcDbEntity
  8
TRACK
100
AcDbVertex
100
AcDb2dVertex
 10
40.820132
 20
59.345619
 30
0.0
  0
VERTEX
  5
2772
100
AcDbEntity
  8
TRACK
100
AcDbVertex
100
AcDb2dVertex
 10
40.820132
 20
60.985093
 30
0.0
  0
SEQEND
  5
2773
100
AcDbEntity
  8
TRACK
  0
POLYLINE
  5
2778
100
AcDbEntity
  8
TRACK
100
AcDb2dPolyline
 66
     1
 10
0.0
 20
0.0
 30
0.0
  0
VERTEX
  5
2779
100
AcDbEntity
  8
TRACK
100
AcDbVertex
100
AcDb2dVertex
 10
18.681068
 20
72.060788
 30
0.0
  0
VERTEX
  5
277A
100
AcDbEntity
  8
TRACK
100
AcDbVertex
100
AcDb2dVertex
 10
18.681068
 20
70.41515
 30
0.0
  0
SEQEND
  5
277B
100
AcDbEntity
  8
TRACK
  0
POLYLINE
  5
278A
100
AcDbEntity
  8
TRACK
100
AcDb2dPolyline
 66
     1
 10
0.0
 20
0.0
 30
0.0
  0
VERTEX
  5
278B
100
AcDbEntity
  8
TRACK
100
AcDbVertex
100
AcDb2dVertex
 10
18.681068
 20
70.41515
 30
0.0
  0
VERTEX
  5
278C
100
AcDbEntity
  8
TRACK
100
AcDbVertex
100
AcDb2dVertex
 10
40.931073
 20
59.234677
 30
0.0
  0
SEQEND
  5
278D
100
AcDbEntity
  8
TRACK
  0
POLYLINE
  5
2792
100
AcDbEntity
  8
TRACK
100
AcDb2dPolyline
 66
     1
 10
0.0
 20
0.0
 30
0.0
  0
VERTEX
  5
2793
100
AcDbEntity
  8
TRACK
100
AcDbVertex
100
AcDb2dVertex
 10
18.681068
 20
70.478536
 30
0.0
  0
VERTEX
  5
2794
100
AcDbEntity
  8
TRACK
100
AcDbVertex
100
AcDb2dVertex
 10
40.820132
 20
59.345619
 30
0.0
  0
SEQEND
  5
2795
100
AcDbEntity
  8
TRACK
  0
POLYLINE
  5
2796
100
AcDbEntity
  8
TRACK
100
AcDb2dPolyline
 66
     1
 10
0.0
 20
0.0
 30
0.0
  0
VERTEX
  5
2797
100
AcDbEntity
  8
TRACK
100
AcDbVertex
100
AcDb2dVertex
 10
40.931073
 20
59.234677
 30
0.0
  0
VERTEX
  5
2798
100
AcDbEntity
  8
TRACK
100
AcDbVertex
100
AcDb2dVertex
 10
44.327127
 20
60.985093
 30
0.0
  0
SEQEND
  5
2799
100
AcDbEntity
  8
TRACK
  0
POLYLINE
  5
279E
100
AcDbEntity
  8
TRACK
100
AcDb2dPolyline
 66
     1
 10
0.0
 20
0.0
 30
0.0
  0
VERTEX
  5
279F
100
AcDbEntity
  8
TRACK
100
AcDbVertex
100
AcDb2dVertex
 10
44.327127
 20
60.985093
 30
0.0
  0
VERTEX
  5
27A0
100
AcDbEntity
  8
TRACK
100
AcDbVertex
100
AcDb2dVertex
 10
44.222348
 20
60.985093
 30
0.0
  0
SEQEND
  5
27A1
100
AcDbEntity
  8
TRACK
  0
POLYLINE
  5
27A2
100
AcDbEntity
  8
TRACK
100
AcDb2dPolyline
 66
     1
 10
0.0
 20
0.0
 30
0.0
  0
VERTEX
  5
27A3
100
AcDbEntity
  8
TRACK
100
AcDbVertex
100
AcDb2dVertex
 10
44.327127
 20
60.985093
 30
0.0
  0
VERTEX
  5
27A4
100
AcDbEntity
  8
TRACK
100
AcDbVertex
100
AcDb2dVertex
 10
44.222348
 20
60.985093
 30
0.0
  0
VERTEX
  5
27A5
100
AcDbEntity
  8
TRACK
100
AcDbVertex
100
AcDb2dVertex
 10
44.327127
 20
60.985093
 30
0.0
  0
SEQEND
  5
27A6
100
AcDbEntity
  8
TRACK
  0
POLYLINE
  5
27A7
100
AcDbEntity
  8
TRACK
100
AcDb2dPolyline
 66
     1
 10
0.0
 20
0.0
 30
0.0
  0
VERTEX
  5
27A8
100
AcDbEntity
  8
TRACK
100
AcDbVertex
100
AcDb2dVertex
 10
44.222348
 20
60.985093
 30
0.0
  0
VERTEX
  5
27A9
100
AcDbEntity
  8
TRACK
100
AcDbVertex
100
AcDb2dVertex
 10
44.327127
 20
60.985093
 30
0.0
  0
VERTEX
  5
27AA
100
AcDbEntity
  8
TRACK
100
AcDbVertex
100
AcDb2dVertex
 10
44.222348
 20
60.985093
 30
0.0
  0
VERTEX
  5
27AB
100
AcDbEntity
  8
TRACK
100
AcDbVertex
100
AcDb2dVertex
 10
44.327127
 20
60.985093
 30
0.0
  0
VERTEX
  5
27AC
100
AcDbEntity
  8
TRACK
100
AcDbVertex
100
AcDb2dVertex
 10
44.327127
 20
62.63073
 30
0.0
  0
SEQEND
  5
27AD
100
AcDbEntity
  8
TRACK
  0
POLYLINE
  5
27B2
100
AcDbEntity
  8
TRACK
100
AcDb2dPolyline
 66
     1
 10
0.0
 20
0.0
 30
0.0
  0
VERTEX
  5
27B3
100
AcDbEntity
  8
TRACK
100
AcDbVertex
100
AcDb2dVertex
 10
37.861682
 20
65.811064
 30
0.0
  0
VERTEX
  5
27B4
100
AcDbEntity
  8
TRACK
100
AcDbVertex
100
AcDb2dVertex
 10
27.889242
 20
70.852754
 30
0.0
  0
SEQEND
  5
27B5
100
AcDbEntity
  8
TRACK
  0
POLYLINE
  5
27B6
100
AcDbEntity
  8
TRACK
100
AcDb2dPolyline
 66
     1
 10
0.0
 20
0.0
 30
0.0
  0
VERTEX
  5
27B7
100
AcDbEntity
  8
TRACK
100
AcDbVertex
100
AcDb2dVertex
 10
44.327127
 20
62.63073
 30
0.0
  0
VERTEX
  5
27B8
100
AcDbEntity
  8
TRACK
100
AcDbVertex
100
AcDb2dVertex
 10
44.222348
 20
62.691798
 30
0.0
  0
SEQEND
  5
27B9
100
AcDbEntity
  8
TRACK
  0
POLYLINE
  5
27BA
100
AcDbEntity
  8
TRACK
100
AcDb2dPolyline
 66
     1
 10
0.0
 20
0.0
 30
0.0
  0
VERTEX
  5
27BB
100
AcDbEntity
  8
TRACK
100
AcDbVertex
100
AcDb2dVertex
 10
44.222348
 20
62.63073
 30
0.0
  0
VERTEX
  5
27BC
100
AcDbEntity
  8
TRACK
100
AcDbVertex
100
AcDb2dVertex
 10
44.327127
 20
62.63073
 30
0.0
  0
SEQEND
  5
27BD
100
AcDbEntity
  8
TRACK
  0
POLYLINE
  5
27C2
100
AcDbEntity
  8
TRACK
100
AcDb2dPolyline
 66
     1
 10
0.0
 20
0.0
 30
0.0
  0
VERTEX
  5
27C3
100
AcDbEntity
  8
TRACK
100
AcDbVertex
100
AcDb2dVertex
 10
110.867586
 20
27.770334
 30
0.0
  0
VERTEX
  5
27C4
100
AcDbEntity
  8
TRACK
100
AcDbVertex
100
AcDb2dVertex
 10
110.867586
 20
29.30503
 30
0.0
  0
SEQEND
  5
27C5
100
AcDbEntity
  8
TRACK
  0
POLYLINE
  5
27C6
100
AcDbEntity
  8
TRACK
100
AcDb2dPolyline
 66
     1
 10
0.0
 20
0.0
 30
0.0
  0
VERTEX
  5
27C7
100
AcDbEntity
  8
TRACK
100
AcDbVertex
100
AcDb2dVertex
 10
98.59002
 20
35.443813
 30
0.0
  0
VERTEX
  5
27C8
100
AcDbEntity
  8
TRACK
100
AcDbVertex
100
AcDb2dVertex
 10
91.686972
 20
38.813079
 30
0.0
  0
SEQEND
  5
27C9
100
AcDbEntity
  8
TRACK
  0
POLYLINE
  5
27CA
100
AcDbEntity
  8
TRACK
100
AcDb2dPolyline
 66
     1
 10
0.0
 20
0.0
 30
0.0
  0
VERTEX
  5
27CB
100
AcDbEntity
  8
TRACK
100
AcDbVertex
100
AcDb2dVertex
 10
110.78003
 20
29.262603
 30
0.0
  0
VERTEX
  5
27CC
100
AcDbEntity
  8
TRACK
100
AcDbVertex
100
AcDb2dVertex
 10
103.415991
 20
33.033909
 30
0.0
  0
SEQEND
  5
27CD
100
AcDbEntity
  8
TRACK
  0
POLYLINE
  5
27CE
100
AcDbEntity
  8
TRACK
100
AcDb2dPolyline
 66
     1
 10
0.0
 20
0.0
 30
0.0
  0
VERTEX
  5
27CF
100
AcDbEntity
  8
TRACK
100
AcDbVertex
100
AcDb2dVertex
 10
110.867586
 20
27.659393
 30
0.0
  0
VERTEX
  5
27D0
100
AcDbEntity
  8
TRACK
100
AcDbVertex
100
AcDb2dVertex
 10
110.867586
 20
27.770334
 30
0.0
  0
SEQEND
  5
27D1
100
AcDbEntity
  8
TRACK
  0
POLYLINE
  5
280C
100
AcDbEntity
  8
TRACK
100
AcDb2dPolyline
 66
     1
 10
0.0
 20
0.0
 30
0.0
  0
VERTEX
  5
280D
100
AcDbEntity
  8
TRACK
100
AcDbVertex
100
AcDb2dVertex
 10
98.59002
 20
33.798175
 30
0.0
  0
VERTEX
  5
280E
100
AcDbEntity
  8
TRACK
100
AcDbVertex
100
AcDb2dVertex
 10
91.465088
 20
37.416112
 30
0.0
  0
SEQEND
  5
280F
100
AcDbEntity
  8
TRACK
  0
POLYLINE
  5
2814
100
AcDbEntity
  8
TRACK
100
AcDb2dPolyline
 66
     1
 10
0.0
 20
0.0
 30
0.0
  0
VERTEX
  5
2815
100
AcDbEntity
  8
TRACK
100
AcDbVertex
100
AcDb2dVertex
 10
107.471532
 20
26.019919
 30
0.0
  0
VERTEX
  5
2816
100
AcDbEntity
  8
TRACK
100
AcDbVertex
100
AcDb2dVertex
 10
110.867586
 20
27.659393
 30
0.0
  0
SEQEND
  5
2817
100
AcDbEntity
  8
TRACK
  0
POLYLINE
  5
2818
100
AcDbEntity
  8
TRACK
100
AcDb2dPolyline
 66
     1
 10
0.0
 20
0.0
 30
0.0
  0
VERTEX
  5
2819
100
AcDbEntity
  8
TRACK
100
AcDbVertex
100
AcDb2dVertex
 10
107.471532
 20
26.019919
 30
0.0
  0
VERTEX
  5
281A
100
AcDbEntity
  8
TRACK
100
AcDbVertex
100
AcDb2dVertex
 10
107.471532
 20
27.659393
 30
0.0
  0
SEQEND
  5
281B
100
AcDbEntity
  8
TRACK
  0
POLYLINE
  5
2824
100
AcDbEntity
  8
TRACK
100
AcDb2dPolyline
 66
     1
 10
0.0
 20
0.0
 30
0.0
  0
VERTEX
  5
2825
100
AcDbEntity
  8
TRACK
100
AcDbVertex
100
AcDb2dVertex
 10
85.326305
 20
38.735088
 30
0.0
  0
VERTEX
  5
2826
100
AcDbEntity
  8
TRACK
100
AcDbVertex
100
AcDb2dVertex
 10
107.548957
 20
27.696911
 30
0.0
  0
SEQEND
  5
2827
100
AcDbEntity
  8
TRACK
  0
POLYLINE
  5
2828
100
AcDbEntity
  8
TRACK
100
AcDb2dPolyline
 66
     1
 10
0.0
 20
0.0
 30
0.0
  0
VERTEX
  5
2829
100
AcDbEntity
  8
TRACK
100
AcDbVertex
100
AcDb2dVertex
 10
85.326305
 20
38.735088
 30
0.0
  0
VERTEX
  5
282A
100
AcDbEntity
  8
TRACK
100
AcDbVertex
100
AcDb2dVertex
 10
85.221527
 20
38.735088
 30
0.0
  0
SEQEND
  5
282B
100
AcDbEntity
  8
TRACK
  0
POLYLINE
  5
282C
100
AcDbEntity
  8
TRACK
100
AcDb2dPolyline
 66
     1
 10
0.0
 20
0.0
 30
0.0
  0
VERTEX
  5
282D
100
AcDbEntity
  8
TRACK
100
AcDbVertex
100
AcDb2dVertex
 10
107.471532
 20
26.019919
 30
0.0
  0
VERTEX
  5
282E
100
AcDbEntity
  8
TRACK
100
AcDbVertex
100
AcDb2dVertex
 10
107.471532
 20
27.659393
 30
0.0
  0
SEQEND
  5
282F
100
AcDbEntity
  8
TRACK
  0
POLYLINE
  5
284E
100
AcDbEntity
  8
TRACK
100
AcDb2dPolyline
 66
     1
 10
0.0
 20
0.0
 30
0.0
  0
VERTEX
  5
284F
100
AcDbEntity
  8
TRACK
100
AcDbVertex
100
AcDb2dVertex
 10
85.221527
 20
37.08945
 30
0.0
  0
VERTEX
  5
2850
100
AcDbEntity
  8
TRACK
100
AcDbVertex
100
AcDb2dVertex
 10
107.471532
 20
26.019919
 30
0.0
  0
VERTEX
  5
2851
100
AcDbEntity
  8
TRACK
100
AcDbVertex
100
AcDb2dVertex
 10
110.867586
 20
27.659393
 30
0.0
  0
VERTEX
  5
2852
100
AcDbEntity
  8
TRACK
100
AcDbVertex
100
AcDb2dVertex
 10
110.867586
 20
27.770334
 30
0.0
  0
VERTEX
  5
2853
100
AcDbEntity
  8
TRACK
100
AcDbVertex
100
AcDb2dVertex
 10
110.867586
 20
29.30503
 30
0.0
  0
SEQEND
  5
2854
100
AcDbEntity
  8
TRACK
  0
POLYLINE
  5
2855
100
AcDbEntity
  8
TRACK
100
AcDb2dPolyline
 66
     1
 10
0.0
 20
0.0
 30
0.0
  0
VERTEX
  5
2856
100
AcDbEntity
  8
TRACK
100
AcDbVertex
100
AcDb2dVertex
 10
98.59002
 20
35.554755
 30
0.0
  0
VERTEX
  5
2857
100
AcDbEntity
  8
TRACK
100
AcDbVertex
100
AcDb2dVertex
 10
91.686972
 20
38.950808
 30
0.0
  0
SEQEND
  5
2858
100
AcDbEntity
  8
TRACK
  0
POLYLINE
  5
2859
100
AcDbEntity
  8
TRACK
100
AcDb2dPolyline
 66
     1
 10
0.0
 20
0.0
 30
0.0
  0
VERTEX
  5
285A
100
AcDbEntity
  8
TRACK
100
AcDbVertex
100
AcDb2dVertex
 10
110.867586
 20
29.30503
 30
0.0
  0
VERTEX
  5
285B
100
AcDbEntity
  8
TRACK
100
AcDbVertex
100
AcDb2dVertex
 10
103.415991
 20
33.144851
 30
0.0
  0
SEQEND
  5
285C
100
AcDbEntity
  8
TRACK
  0
POLYLINE
  5
2893
100
AcDbEntity
  8
STUD
100
AcDb2dPolyline
 66
     1
 10
0.0
 20
0.0
 30
0.0
  0
VERTEX
  5
2894
100
AcDbEntity
  8
STUD
100
AcDbVertex
100
AcDb2dVertex
 10
44.222348
 20
117.563396
 30
0.0
  0
VERTEX
  5
2895
100
AcDbEntity
  8
STUD
100
AcDbVertex
100
AcDb2dVertex
 10
45.097556
 20
117.125792
 30
0.0
  0
SEQEND
  5
2896
100
AcDbEntity
  8
STUD
  0
POLYLINE
  5
2897
100
AcDbEntity
  8
STUD
100
AcDb2dPolyline
 66
     1
 10
0.0
 20
0.0
 30
0.0
  0
VERTEX
  5
2898
100
AcDbEntity
  8
STUD
100
AcDbVertex
100
AcDb2dVertex
 10
41.368677
 20
135.366224
 30
0.0
  0
VERTEX
  5
2899
100
AcDbEntity
  8
STUD
100
AcDbVertex
100
AcDb2dVertex
 10
40.931073
 20
135.54214
 30
0.0
  0
SEQEND
  5
289A
100
AcDbEntity
  8
STUD
  0
POLYLINE
  5
289B
100
AcDbEntity
  8
STUD
100
AcDb2dPolyline
 66
     1
 10
0.0
 20
0.0
 30
0.0
  0
VERTEX
  5
289C
100
AcDbEntity
  8
STUD
100
AcDbVertex
100
AcDb2dVertex
 10
42.792431
 20
116.412201
 30
0.0
  0
VERTEX
  5
289D
100
AcDbEntity
  8
STUD
100
AcDbVertex
100
AcDb2dVertex
 10
42.792431
 20
133.29203
 30
0.0
  0
SEQEND
  5
289E
100
AcDbEntity
  8
STUD
  0
POLYLINE
  5
28A7
100
AcDbEntity
  8
STUD
100
AcDb2dPolyline
 66
     1
 10
0.0
 20
0.0
 30
0.0
  0
VERTEX
  5
28A8
100
AcDbEntity
  8
STUD
100
AcDbVertex
100
AcDb2dVertex
 10
42.354827
 20
116.63153
 30
0.0
  0
VERTEX
  5
28A9
100
AcDbEntity
  8
STUD
100
AcDbVertex
100
AcDb2dVertex
 10
42.354827
 20
133.511919
 30
0.0
  0
SEQEND
  5
28AA
100
AcDbEntity
  8
STUD
  0
POLYLINE
  5
28B9
100
AcDbEntity
  8
STUD
100
AcDb2dPolyline
 66
     1
 10
0.0
 20
0.0
 30
0.0
  0
VERTEX
  5
28BA
100
AcDbEntity
  8
STUD
100
AcDbVertex
100
AcDb2dVertex
 10
40.820132
 20
115.917759
 30
0.0
  0
VERTEX
  5
28BB
100
AcDbEntity
  8
STUD
100
AcDbVertex
100
AcDb2dVertex
 10
41.368677
 20
115.702038
 30
0.0
  0
SEQEND
  5
28BC
100
AcDbEntity
  8
STUD
  0
POLYLINE
  5
28BD
100
AcDbEntity
  8
STUD
100
AcDb2dPolyline
 66
     1
 10
0.0
 20
0.0
 30
0.0
  0
VERTEX
  5
28BE
100
AcDbEntity
  8
STUD
100
AcDbVertex
100
AcDb2dVertex
 10
42.250049
 20
116.688188
 30
0.0
  0
VERTEX
  5
28BF
100
AcDbEntity
  8
STUD
100
AcDbVertex
100
AcDb2dVertex
 10
42.250049
 20
133.564569
 30
0.0
  0
SEQEND
  5
28C0
100
AcDbEntity
  8
STUD
  0
POLYLINE
  5
28C1
100
AcDbEntity
  8
STUD
100
AcDb2dPolyline
 66
     1
 10
0.0
 20
0.0
 30
0.0
  0
VERTEX
  5
28C2
100
AcDbEntity
  8
STUD
100
AcDbVertex
100
AcDb2dVertex
 10
41.368677
 20
135.32642
 30
0.0
  0
VERTEX
  5
28C3
100
AcDbEntity
  8
STUD
100
AcDbVertex
100
AcDb2dVertex
 10
40.820132
 20
135.54214
 30
0.0
  0
SEQEND
  5
28C4
100
AcDbEntity
  8
STUD
  0
POLYLINE
  5
28CB
100
AcDbEntity
  8
STUD
100
AcDb2dPolyline
 66
     1
 10
0.0
 20
0.0
 30
0.0
  0
VERTEX
  5
28CC
100
AcDbEntity
  8
STUD
100
AcDbVertex
100
AcDb2dVertex
 10
40.820132
 20
115.917759
 30
0.0
  0
VERTEX
  5
28CD
100
AcDbEntity
  8
STUD
100
AcDbVertex
100
AcDb2dVertex
 10
40.820132
 20
135.54214
 30
0.0
  0
VERTEX
  5
28CE
100
AcDbEntity
  8
STUD
100
AcDbVertex
100
AcDb2dVertex
 10
40.820132
 20
115.917759
 30
0.0
  0
SEQEND
  5
28CF
100
AcDbEntity
  8
STUD
  0
POLYLINE
  5
28D8
100
AcDbEntity
  8
STUD
100
AcDb2dPolyline
 66
     1
 10
0.0
 20
0.0
 30
0.0
  0
VERTEX
  5
28D9
100
AcDbEntity
  8
STUD
100
AcDbVertex
100
AcDb2dVertex
 10
45.097556
 20
116.577246
 30
0.0
  0
VERTEX
  5
28DA
100
AcDbEntity
  8
STUD
100
AcDbVertex
100
AcDb2dVertex
 10
45.646102
 20
116.910072
 30
0.0
  0
VERTEX
  5
28DB
100
AcDbEntity
  8
STUD
100
AcDbVertex
100
AcDb2dVertex
 10
45.646102
 20
131.858104
 30
0.0
  0
SEQEND
  5
28DC
100
AcDbEntity
  8
STUD
  0
POLYLINE
  5
28DD
100
AcDbEntity
  8
STUD
100
AcDb2dPolyline
 66
     1
 10
0.0
 20
0.0
 30
0.0
  0
VERTEX
  5
28DE
100
AcDbEntity
  8
STUD
100
AcDbVertex
100
AcDb2dVertex
 10
45.097556
 20
116.688188
 30
0.0
  0
VERTEX
  5
28DF
100
AcDbEntity
  8
STUD
100
AcDbVertex
100
AcDb2dVertex
 10
45.097556
 20
116.577246
 30
0.0
  0
VERTEX
  5
28E0
100
AcDbEntity
  8
STUD
100
AcDbVertex
100
AcDb2dVertex
 10
45.097556
 20
132.13374
 30
0.0
  0
SEQEND
  5
28E1
100
AcDbEntity
  8
STUD
  0
POLYLINE
  5
2910
100
AcDbEntity
  8
STUD
100
AcDb2dPolyline
 66
     1
 10
0.0
 20
0.0
 30
0.0
  0
VERTEX
  5
2911
100
AcDbEntity
  8
STUD
100
AcDbVertex
100
AcDb2dVertex
 10
84.888701
 20
93.940486
 30
0.0
  0
VERTEX
  5
2912
100
AcDbEntity
  8
STUD
100
AcDbVertex
100
AcDb2dVertex
 10
85.221527
 20
93.778695
 30
0.0
  0
VERTEX
  5
2913
100
AcDbEntity
  8
STUD
100
AcDbVertex
100
AcDb2dVertex
 10
85.221527
 20
113.292135
 30
0.0
  0
VERTEX
  5
2914
100
AcDbEntity
  8
STUD
100
AcDbVertex
100
AcDb2dVertex
 10
84.893122
 20
113.451776
 30
0.0
  0
SEQEND
  5
2915
100
AcDbEntity
  8
STUD
  0
POLYLINE
  5
29E8
100
AcDbEntity
  8
STUD
100
AcDb2dPolyline
 66
     1
 10
0.0
 20
0.0
 30
0.0
  0
VERTEX
  5
29E9
100
AcDbEntity
  8
STUD
100
AcDbVertex
100
AcDb2dVertex
 10
71.951648
 20
101.778836
 30
0.0
  0
VERTEX
  5
29EA
100
AcDbEntity
  8
STUD
100
AcDbVertex
100
AcDb2dVertex
 10
73.81917
 20
102.764986
 30
0.0
  0
SEQEND
  5
29EB
100
AcDbEntity
  8
STUD
  0
POLYLINE
  5
2AA5
100
AcDbEntity
  8
STUD
100
AcDb2dPolyline
 66
     1
 10
0.0
 20
0.0
 30
0.0
  0
VERTEX
  5
2AA6
100
AcDbEntity
  8
STUD
100
AcDbVertex
100
AcDb2dVertex
 10
59.020759
 20
110.111802
 30
0.0
  0
VERTEX
  5
2AA7
100
AcDbEntity
  8
STUD
100
AcDbVertex
100
AcDb2dVertex
 10
59.020759
 20
125.132096
 30
0.0
  0
VERTEX
  5
2AA8
100
AcDbEntity
  8
STUD
100
AcDbVertex
100
AcDb2dVertex
 10
59.020759
 20
110.111802
 30
0.0
  0
VERTEX
  5
2AA9
100
AcDbEntity
  8
STUD
100
AcDbVertex
100
AcDb2dVertex
 10
59.020759
 20
125.132096
 30
0.0
  0
SEQEND
  5
2AAA
100
AcDbEntity
  8
STUD
  0
POLYLINE
  5
2ACF
100
AcDbEntity
  8
STUD
100
AcDb2dPolyline
 66
     1
 10
0.0
 20
0.0
 30
0.0
  0
VERTEX
  5
2AD0
100
AcDbEntity
  8
STUD
100
AcDbVertex
100
AcDb2dVertex
 10
57.153238
 20
109.23043
 30
0.0
  0
VERTEX
  5
2AD1
100
AcDbEntity
  8
STUD
100
AcDbVertex
100
AcDb2dVertex
 10
59.020759
 20
110.111802
 30
0.0
  0
SEQEND
  5
2AD2
100
AcDbEntity
  8
STUD
  0
POLYLINE
  5
2AE3
100
AcDbEntity
  8
STUD
100
AcDb2dPolyline
 66
     1
 10
0.0
 20
0.0
 30
0.0
  0
VERTEX
  5
2AE4
100
AcDbEntity
  8
STUD
100
AcDbVertex
100
AcDb2dVertex
 10
55.729484
 20
109.889918
 30
0.0
  0
VERTEX
  5
2AE5
100
AcDbEntity
  8
STUD
100
AcDbVertex
100
AcDb2dVertex
 10
55.729484
 20
126.77157
 30
0.0
  0
VERTEX
  5
2AE6
100
AcDbEntity
  8
STUD
100
AcDbVertex
100
AcDb2dVertex
 10
55.729484
 20
109.889918
 30
0.0
  0
VERTEX
  5
2AE7
100
AcDbEntity
  8
STUD
100
AcDbVertex
100
AcDb2dVertex
 10
55.729484
 20
126.77157
 30
0.0
  0
SEQEND
  5
2AE8
100
AcDbEntity
  8
STUD
  0
POLYLINE
  5
2AED
100
AcDbEntity
  8
STUD
100
AcDb2dPolyline
 66
     1
 10
0.0
 20
0.0
 30
0.0
  0
VERTEX
  5
2AEE
100
AcDbEntity
  8
STUD
100
AcDbVertex
100
AcDb2dVertex
 10
55.618542
 20
109.889918
 30
0.0
  0
VERTEX
  5
2AEF
100
AcDbEntity
  8
STUD
100
AcDbVertex
100
AcDb2dVertex
 10
55.618542
 20
126.77157
 30
0.0
  0
SEQEND
  5
2AF0
100
AcDbEntity
  8
STUD
  0
POLYLINE
  5
2AF6
100
AcDbEntity
  8
STUD
100
AcDb2dPolyline
 66
     1
 10
0.0
 20
0.0
 30
0.0
  0
VERTEX
  5
2AF7
100
AcDbEntity
  8
STUD
100
AcDbVertex
100
AcDb2dVertex
 10
54.30573
 20
110.660347
 30
0.0
  0
VERTEX
  5
2AF8
100
AcDbEntity
  8
STUD
100
AcDbVertex
100
AcDb2dVertex
 10
54.30573
 20
127.542
 30
0.0
  0
SEQEND
  5
2AF9
100
AcDbEntity
  8
STUD
  0
POLYLINE
  5
2AFE
100
AcDbEntity
  8
STUD
100
AcDb2dPolyline
 66
     1
 10
0.0
 20
0.0
 30
0.0
  0
VERTEX
  5
2AFF
100
AcDbEntity
  8
STUD
100
AcDbVertex
100
AcDb2dVertex
 10
54.194788
 20
127.542
 30
0.0
  0
VERTEX
  5
2B00
100
AcDbEntity
  8
STUD
100
AcDbVertex
100
AcDb2dVertex
 10
54.194788
 20
110.660347
 30
0.0
  0
SEQEND
  5
2B01
100
AcDbEntity
  8
STUD
  0
POLYLINE
  5
2B02
100
AcDbEntity
  8
STUD
100
AcDb2dPolyline
 66
     1
 10
0.0
 20
0.0
 30
0.0
  0
VERTEX
  5
2B03
100
AcDbEntity
  8
STUD
100
AcDbVertex
100
AcDb2dVertex
 10
59.020759
 20
110.111802
 30
0.0
  0
VERTEX
  5
2B04
100
AcDbEntity
  8
STUD
100
AcDbVertex
100
AcDb2dVertex
 10
59.020759
 20
110.222743
 30
0.0
  0
SEQEND
  5
2B05
100
AcDbEntity
  8
STUD
  0
POLYLINE
  5
2B06
100
AcDbEntity
  8
TRACK
100
AcDb2dPolyline
 66
     1
 10
0.0
 20
0.0
 30
0.0
  0
VERTEX
  5
2B07
100
AcDbEntity
  8
TRACK
100
AcDbVertex
100
AcDb2dVertex
 10
54.194788
 20
114.056401
 30
0.0
  0
VERTEX
  5
2B08
100
AcDbEntity
  8
TRACK
100
AcDbVertex
100
AcDb2dVertex
 10
45.646102
 20
118.333826
 30
0.0
  0
SEQEND
  5
2B09
100
AcDbEntity
  8
TRACK
  0
POLYLINE
  5
2B0A
100
AcDbEntity
  8
TRACK
100
AcDb2dPolyline
 66
     1
 10
0.0
 20
0.0
 30
0.0
  0
VERTEX
  5
2B0B
100
AcDbEntity
  8
TRACK
100
AcDbVertex
100
AcDb2dVertex
 10
68.993199
 20
106.604806
 30
0.0
  0
VERTEX
  5
2B0C
100
AcDbEntity
  8
TRACK
100
AcDbVertex
100
AcDb2dVertex
 10
59.020759
 20
111.646497
 30
0.0
  0
SEQEND
  5
2B0D
100
AcDbEntity
  8
TRACK
  0
POLYLINE
  5
2B0E
100
AcDbEntity
  8
TRACK
100
AcDb2dPolyline
 66
     1
 10
0.0
 20
0.0
 30
0.0
  0
VERTEX
  5
2B0F
100
AcDbEntity
  8
TRACK
100
AcDbVertex
100
AcDb2dVertex
 10
83.79161
 20
99.368912
 30
0.0
  0
VERTEX
  5
2B10
100
AcDbEntity
  8
TRACK
100
AcDbVertex
100
AcDb2dVertex
 10
73.81917
 20
104.299681
 30
0.0
  0
SEQEND
  5
2B11
100
AcDbEntity
  8
TRACK
  0
POLYLINE
  5
2B24
100
AcDbEntity
  8
TRACK
100
AcDb2dPolyline
 66
     1
 10
0.0
 20
0.0
 30
0.0
  0
VERTEX
  5
2B25
100
AcDbEntity
  8
TRACK
100
AcDbVertex
100
AcDb2dVertex
 10
41.368677
 20
115.375376
 30
0.0
  0
VERTEX
  5
2B26
100
AcDbEntity
  8
TRACK
100
AcDbVertex
100
AcDb2dVertex
 10
84.77776
 20
93.667753
 30
0.0
  0
VERTEX
  5
2B27
100
AcDbEntity
  8
TRACK
100
AcDbVertex
100
AcDb2dVertex
 10
41.368677
 20
115.480155
 30
0.0
  0
SEQEND
  5
2B28
100
AcDbEntity
  8
TRACK
  0
POLYLINE
  5
2B35
100
AcDbEntity
  8
TRACK
100
AcDb2dPolyline
 66
     1
 10
0.0
 20
0.0
 30
0.0
  0
VERTEX
  5
2B36
100
AcDbEntity
  8
TRACK
100
AcDbVertex
100
AcDb2dVertex
 10
41.368677
 20
117.01485
 30
0.0
  0
VERTEX
  5
2B37
100
AcDbEntity
  8
TRACK
100
AcDbVertex
100
AcDb2dVertex
 10
41.368677
 20
115.375376
 30
0.0
  0
SEQEND
  5
2B38
100
AcDbEntity
  8
TRACK
  0
POLYLINE
  5
2B39
100
AcDbEntity
  8
TRACK
100
AcDb2dPolyline
 66
     1
 10
0.0
 20
0.0
 30
0.0
  0
VERTEX
  5
2B3A
100
AcDbEntity
  8
TRACK
100
AcDbVertex
100
AcDb2dVertex
 10
84.77776
 20
95.313391
 30
0.0
  0
VERTEX
  5
2B3B
100
AcDbEntity
  8
TRACK
100
AcDbVertex
100
AcDb2dVertex
 10
41.368677
 20
117.01485
 30
0.0
  0
SEQEND
  5
2B3C
100
AcDbEntity
  8
TRACK
  0
POLYLINE
  5
2B3D
100
AcDbEntity
  8
TRACK
100
AcDb2dPolyline
 66
     1
 10
0.0
 20
0.0
 30
0.0
  0
VERTEX
  5
2B3E
100
AcDbEntity
  8
TRACK
100
AcDbVertex
100
AcDb2dVertex
 10
84.77776
 20
93.667753
 30
0.0
  0
VERTEX
  5
2B3F
100
AcDbEntity
  8
TRACK
100
AcDbVertex
100
AcDb2dVertex
 10
84.77776
 20
95.313391
 30
0.0
  0
SEQEND
  5
2B40
100
AcDbEntity
  8
TRACK
  0
POLYLINE
  5
2B41
100
AcDbEntity
  8
TRACK
100
AcDb2dPolyline
 66
     1
 10
0.0
 20
0.0
 30
0.0
  0
VERTEX
  5
2B42
100
AcDbEntity
  8
TRACK
100
AcDbVertex
100
AcDb2dVertex
 10
84.888701
 20
95.313391
 30
0.0
  0
VERTEX
  5
2B43
100
AcDbEntity
  8
TRACK
100
AcDbVertex
100
AcDb2dVertex
 10
41.472652
 20
117.07368
 30
0.0
  0
SEQEND
  5
2B44
100
AcDbEntity
  8
TRACK
  0
POLYLINE
  5
2B45
100
AcDbEntity
  8
TRACK
100
AcDb2dPolyline
 66
     1
 10
0.0
 20
0.0
 30
0.0
  0
VERTEX
  5
2B46
100
AcDbEntity
  8
TRACK
100
AcDbVertex
100
AcDb2dVertex
 10
84.77776
 20
95.313391
 30
0.0
  0
VERTEX
  5
2B47
100
AcDbEntity
  8
TRACK
100
AcDbVertex
100
AcDb2dVertex
 10
84.888701
 20
95.313391
 30
0.0
  0
SEQEND
  5
2B48
100
AcDbEntity
  8
TRACK
  0
POLYLINE
  5
2B4D
100
AcDbEntity
  8
TRACK
100
AcDb2dPolyline
 66
     1
 10
0.0
 20
0.0
 30
0.0
  0
VERTEX
  5
2B4E
100
AcDbEntity
  8
TRACK
100
AcDbVertex
100
AcDb2dVertex
 10
84.888701
 20
93.692965
 30
0.0
  0
VERTEX
  5
2B4F
100
AcDbEntity
  8
TRACK
100
AcDbVertex
100
AcDb2dVertex
 10
84.888701
 20
95.313391
 30
0.0
  0
SEQEND
  5
2B50
100
AcDbEntity
  8
TRACK
  0
POLYLINE
  5
2B66
100
AcDbEntity
  8
TRACK
100
AcDb2dPolyline
 66
     1
 10
0.0
 20
0.0
 30
0.0
  0
VERTEX
  5
2B67
100
AcDbEntity
  8
TRACK
100
AcDbVertex
100
AcDb2dVertex
 10
84.77776
 20
93.667753
 30
0.0
  0
VERTEX
  5
2B68
100
AcDbEntity
  8
TRACK
100
AcDbVertex
100
AcDb2dVertex
 10
84.888701
 20
93.667753
 30
0.0
  0
SEQEND
  5
2B69
100
AcDbEntity
  8
TRACK
  0
POLYLINE
  5
2B72
100
AcDbEntity
  8
TRACK
100
AcDb2dPolyline
 66
     1
 10
0.0
 20
0.0
 30
0.0
  0
VERTEX
  5
2B73
100
AcDbEntity
  8
TRACK
100
AcDbVertex
100
AcDb2dVertex
 10
68.993199
 20
104.959169
 30
0.0
  0
VERTEX
  5
2B74
100
AcDbEntity
  8
TRACK
100
AcDbVertex
100
AcDb2dVertex
 10
58.798875
 20
110.00086
 30
0.0
  0
SEQEND
  5
2B75
100
AcDbEntity
  8
TRACK
  0
POLYLINE
  5
2B76
100
AcDbEntity
  8
TRACK
100
AcDb2dPolyline
 66
     1
 10
0.0
 20
0.0
 30
0.0
  0
VERTEX
  5
2B77
100
AcDbEntity
  8
TRACK
100
AcDbVertex
100
AcDb2dVertex
 10
83.79161
 20
97.501411
 30
0.0
  0
VERTEX
  5
2B78
100
AcDbEntity
  8
TRACK
100
AcDbVertex
100
AcDb2dVertex
 10
73.597286
 20
102.654044
 30
0.0
  0
SEQEND
  5
2B79
100
AcDbEntity
  8
TRACK
  0
POLYLINE
  5
2B7A
100
AcDbEntity
  8
TRACK
100
AcDb2dPolyline
 66
     1
 10
0.0
 20
0.0
 30
0.0
  0
VERTEX
  5
2B7B
100
AcDbEntity
  8
TRACK
100
AcDbVertex
100
AcDb2dVertex
 10
84.888701
 20
93.667753
 30
0.0
  0
VERTEX
  5
2B7C
100
AcDbEntity
  8
TRACK
100
AcDbVertex
100
AcDb2dVertex
 10
85.165275
 20
93.80604
 30
0.0
  0
SEQEND
  5
2B7D
100
AcDbEntity
  8
TRACK
  0
POLYLINE
  5
2B7E
100
AcDbEntity
  8
TRACK
100
AcDb2dPolyline
 66
     1
 10
0.0
 20
0.0
 30
0.0
  0
VERTEX
  5
2B7F
100
AcDbEntity
  8
TRACK
100
AcDbVertex
100
AcDb2dVertex
 10
44.722553
 20
117.159085
 30
0.0
  0
VERTEX
  5
2B80
100
AcDbEntity
  8
TRACK
100
AcDbVertex
100
AcDb2dVertex
 10
43.063111
 20
116.276536
 30
0.0
  0
SEQEND
  5
2B81
100
AcDbEntity
  8
TRACK
  0
POLYLINE
  5
2B8A
100
AcDbEntity
  8
TRACK
100
AcDb2dPolyline
 66
     1
 10
0.0
 20
0.0
 30
0.0
  0
VERTEX
  5
2B8B
100
AcDbEntity
  8
TRACK
100
AcDbVertex
100
AcDb2dVertex
 10
68.993199
 20
104.959169
 30
0.0
  0
VERTEX
  5
2B8C
100
AcDbEntity
  8
TRACK
100
AcDbVertex
100
AcDb2dVertex
 10
58.798875
 20
110.111802
 30
0.0
  0
SEQEND
  5
2B8D
100
AcDbEntity
  8
TRACK
  0
POLYLINE
  5
2B8E
100
AcDbEntity
  8
TRACK
100
AcDb2dPolyline
 66
     1
 10
0.0
 20
0.0
 30
0.0
  0
VERTEX
  5
2B8F
100
AcDbEntity
  8
TRACK
100
AcDbVertex
100
AcDb2dVertex
 10
83.79161
 20
97.612353
 30
0.0
  0
VERTEX
  5
2B90
100
AcDbEntity
  8
TRACK
100
AcDbVertex
100
AcDb2dVertex
 10
73.597286
 20
102.654044
 30
0.0
  0
SEQEND
  5
2B91
100
AcDbEntity
  8
TRACK
  0
POLYLINE
  5
2B9A
100
AcDbEntity
  8
TRACK
100
AcDb2dPolyline
 66
     1
 10
0.0
 20
0.0
 30
0.0
  0
VERTEX
  5
2B9B
100
AcDbEntity
  8
TRACK
100
AcDbVertex
100
AcDb2dVertex
 10
68.993199
 20
104.959169
 30
0.0
  0
VERTEX
  5
2B9C
100
AcDbEntity
  8
TRACK
100
AcDbVertex
100
AcDb2dVertex
 10
58.798875
 20
110.111802
 30
0.0
  0
SEQEND
  5
2B9D
100
AcDbEntity
  8
TRACK
  0
POLYLINE
  5
2B9E
100
AcDbEntity
  8
TRACK
100
AcDb2dPolyline
 66
     1
 10
0.0
 20
0.0
 30
0.0
  0
VERTEX
  5
2B9F
100
AcDbEntity
  8
TRACK
100
AcDbVertex
100
AcDb2dVertex
 10
83.79161
 20
97.612353
 30
0.0
  0
VERTEX
  5
2BA0
100
AcDbEntity
  8
TRACK
100
AcDbVertex
100
AcDb2dVertex
 10
73.597286
 20
102.654044
 30
0.0
  0
VERTEX
  5
2BA1
100
AcDbEntity
  8
TRACK
100
AcDbVertex
100
AcDb2dVertex
 10
83.79161
 20
97.612353
 30
0.0
  0
SEQEND
  5
2BA2
100
AcDbEntity
  8
TRACK
  0
POLYLINE
  5
2BA3
100
AcDbEntity
  8
TRACK
100
AcDb2dPolyline
 66
     1
 10
0.0
 20
0.0
 30
0.0
  0
VERTEX
  5
2BA4
100
AcDbEntity
  8
TRACK
100
AcDbVertex
100
AcDb2dVertex
 10
58.798875
 20
110.111802
 30
0.0
  0
VERTEX
  5
2BA5
100
AcDbEntity
  8
TRACK
100
AcDbVertex
100
AcDb2dVertex
 10
68.993199
 20
104.959169
 30
0.0
  0
SEQEND
  5
2BA6
100
AcDbEntity
  8
TRACK
  0
POLYLINE
  5
2BB4
100
AcDbEntity
  8
TRACK
100
AcDb2dPolyline
 66
     1
 10
0.0
 20
0.0
 30
0.0
  0
VERTEX
  5
2BB5
100
AcDbEntity
  8
TRACK
100
AcDbVertex
100
AcDb2dVertex
 10
68.993199
 20
104.959169
 30
0.0
  0
VERTEX
  5
2BB6
100
AcDbEntity
  8
TRACK
100
AcDbVertex
100
AcDb2dVertex
 10
58.798875
 20
110.00086
 30
0.0
  0
SEQEND
  5
2BB7
100
AcDbEntity
  8
TRACK
  0
POLYLINE
  5
2BB8
100
AcDbEntity
  8
TRACK
100
AcDb2dPolyline
 66
     1
 10
0.0
 20
0.0
 30
0.0
  0
VERTEX
  5
2BB9
100
AcDbEntity
  8
TRACK
100
AcDbVertex
100
AcDb2dVertex
 10
83.79161
 20
97.612353
 30
0.0
  0
VERTEX
  5
2BBA
100
AcDbEntity
  8
TRACK
100
AcDbVertex
100
AcDb2dVertex
 10
73.597286
 20
102.654044
 30
0.0
  0
SEQEND
  5
2BBB
100
AcDbEntity
  8
TRACK
  0
POLYLINE
  5
2BC8
100
AcDbEntity
  8
TRACK
100
AcDb2dPolyline
 66
     1
 10
0.0
 20
0.0
 30
0.0
  0
VERTEX
  5
2BC9
100
AcDbEntity
  8
TRACK
100
AcDbVertex
100
AcDb2dVertex
 10
68.993199
 20
104.959169
 30
0.0
  0
VERTEX
  5
2BCA
100
AcDbEntity
  8
TRACK
100
AcDbVertex
100
AcDb2dVertex
 10
58.798875
 20
110.00086
 30
0.0
  0
SEQEND
  5
2BCB
100
AcDbEntity
  8
TRACK
  0
POLYLINE
  5
2BCC
100
AcDbEntity
  8
TRACK
100
AcDb2dPolyline
 66
     1
 10
0.0
 20
0.0
 30
0.0
  0
VERTEX
  5
2BCD
100
AcDbEntity
  8
TRACK
100
AcDbVertex
100
AcDb2dVertex
 10
83.79161
 20
97.501411
 30
0.0
  0
VERTEX
  5
2BCE
100
AcDbEntity
  8
TRACK
100
AcDbVertex
100
AcDb2dVertex
 10
73.597286
 20
102.654044
 30
0.0
  0
SEQEND
  5
2BCF
100
AcDbEntity
  8
TRACK
  0
POLYLINE
  5
2BD0
100
AcDbEntity
  8
TRACK
100
AcDb2dPolyline
 66
     1
 10
0.0
 20
0.0
 30
0.0
  0
VERTEX
  5
2BD1
100
AcDbEntity
  8
TRACK
100
AcDbVertex
100
AcDb2dVertex
 10
44.722553
 20
117.321966
 30
0.0
  0
VERTEX
  5
2BD2
100
AcDbEntity
  8
TRACK
100
AcDbVertex
100
AcDb2dVertex
 10
44.722553
 20
117.159085
 30
0.0
  0
SEQEND
  5
2BD3
100
AcDbEntity
  8
TRACK
  0
POLYLINE
  5
2BD4
100
AcDbEntity
  8
TRACK
100
AcDb2dPolyline
 66
     1
 10
0.0
 20
0.0
 30
0.0
  0
VERTEX
  5
2BD5
100
AcDbEntity
  8
TRACK
100
AcDbVertex
100
AcDb2dVertex
 10
54.194788
 20
113.945459
 30
0.0
  0
VERTEX
  5
2BD6
100
AcDbEntity
  8
TRACK
100
AcDbVertex
100
AcDb2dVertex
 10
45.646102
 20
118.222884
 30
0.0
  0
SEQEND
  5
2BD7
100
AcDbEntity
  8
TRACK
  0
POLYLINE
  5
2BD8
100
AcDbEntity
  8
TRACK
100
AcDb2dPolyline
 66
     1
 10
0.0
 20
0.0
 30
0.0
  0
VERTEX
  5
2BD9
100
AcDbEntity
  8
TRACK
100
AcDbVertex
100
AcDb2dVertex
 10
68.993199
 20
106.604806
 30
0.0
  0
VERTEX
  5
2BDA
100
AcDbEntity
  8
TRACK
100
AcDbVertex
100
AcDb2dVertex
 10
59.020759
 20
111.646497
 30
0.0
  0
SEQEND
  5
2BDB
100
AcDbEntity
  8
TRACK
  0
POLYLINE
  5
2BDC
100
AcDbEntity
  8
TRACK
100
AcDb2dPolyline
 66
     1
 10
0.0
 20
0.0
 30
0.0
  0
VERTEX
  5
2BDD
100
AcDbEntity
  8
TRACK
100
AcDbVertex
100
AcDb2dVertex
 10
83.79161
 20
99.25799
 30
0.0
  0
VERTEX
  5
2BDE
100
AcDbEntity
  8
TRACK
100
AcDbVertex
100
AcDb2dVertex
 10
73.81917
 20
104.188739
 30
0.0
  0
SEQEND
  5
2BDF
100
AcDbEntity
  8
TRACK
  0
POLYLINE
  5
2BE0
100
AcDbEntity
  8
TRACK
100
AcDb2dPolyline
 66
     1
 10
0.0
 20
0.0
 30
0.0
  0
VERTEX
  5
2BE1
100
AcDbEntity
  8
TRACK
100
AcDbVertex
100
AcDb2dVertex
 10
41.368677
 20
135.653082
 30
0.0
  0
VERTEX
  5
2BE2
100
AcDbEntity
  8
TRACK
100
AcDbVertex
100
AcDb2dVertex
 10
41.368677
 20
134.007444
 30
0.0
  0
VERTEX
  5
2BE3
100
AcDbEntity
  8
TRACK
100
AcDbVertex
100
AcDb2dVertex
 10
84.77776
 20
112.195043
 30
0.0
  0
SEQEND
  5
2BE4
100
AcDbEntity
  8
TRACK
  0
POLYLINE
  5
2BE9
100
AcDbEntity
  8
TRACK
100
AcDb2dPolyline
 66
     1
 10
0.0
 20
0.0
 30
0.0
  0
VERTEX
  5
2BEA
100
AcDbEntity
  8
TRACK
100
AcDbVertex
100
AcDb2dVertex
 10
84.77776
 20
112.195043
 30
0.0
  0
VERTEX
  5
2BEB
100
AcDbEntity
  8
TRACK
100
AcDbVertex
100
AcDb2dVertex
 10
84.77776
 20
113.834517
 30
0.0
  0
SEQEND
  5
2BEC
100
AcDbEntity
  8
TRACK
  0
POLYLINE
  5
2C08
100
AcDbEntity
  8
TRACK
100
AcDb2dPolyline
 66
     1
 10
0.0
 20
0.0
 30
0.0
  0
VERTEX
  5
2C09
100
AcDbEntity
  8
TRACK
100
AcDbVertex
100
AcDb2dVertex
 10
84.77776
 20
113.834517
 30
0.0
  0
VERTEX
  5
2C0A
100
AcDbEntity
  8
TRACK
100
AcDbVertex
100
AcDb2dVertex
 10
41.368677
 20
135.653082
 30
0.0
  0
SEQEND
  5
2C0B
100
AcDbEntity
  8
TRACK
  0
POLYLINE
  5
2C0C
100
AcDbEntity
  8
TRACK
100
AcDb2dPolyline
 66
     1
 10
0.0
 20
0.0
 30
0.0
  0
VERTEX
  5
2C0D
100
AcDbEntity
  8
TRACK
100
AcDbVertex
100
AcDb2dVertex
 10
41.70337
 20
135.891223
 30
0.0
  0
VERTEX
  5
2C0E
100
AcDbEntity
  8
TRACK
100
AcDbVertex
100
AcDb2dVertex
 10
41.368677
 20
135.653082
 30
0.0
  0
SEQEND
  5
2C0F
100
AcDbEntity
  8
TRACK
  0
POLYLINE
  5
2C1A
100
AcDbEntity
  8
TRACK
100
AcDb2dPolyline
 66
     1
 10
0.0
 20
0.0
 30
0.0
  0
VERTEX
  5
2C1B
100
AcDbEntity
  8
TRACK
100
AcDbVertex
100
AcDb2dVertex
 10
84.888701
 20
112.299822
 30
0.0
  0
VERTEX
  5
2C1C
100
AcDbEntity
  8
TRACK
100
AcDbVertex
100
AcDb2dVertex
 10
84.894852
 20
113.902756
 30
0.0
  0
SEQEND
  5
2C1D
100
AcDbEntity
  8
TRACK
  0
POLYLINE
  5
2C22
100
AcDbEntity
  8
TRACK
100
AcDb2dPolyline
 66
     1
 10
0.0
 20
0.0
 30
0.0
  0
VERTEX
  5
2C23
100
AcDbEntity
  8
TRACK
100
AcDbVertex
100
AcDb2dVertex
 10
84.77776
 20
112.195043
 30
0.0
  0
VERTEX
  5
2C24
100
AcDbEntity
  8
TRACK
100
AcDbVertex
100
AcDb2dVertex
 10
84.888701
 20
112.299822
 30
0.0
  0
SEQEND
  5
2C25
100
AcDbEntity
  8
TRACK
  0
POLYLINE
  5
2C26
100
AcDbEntity
  8
TRACK
100
AcDb2dPolyline
 66
     1
 10
0.0
 20
0.0
 30
0.0
  0
VERTEX
  5
2C27
100
AcDbEntity
  8
TRACK
100
AcDbVertex
100
AcDb2dVertex
 10
107.471532
 20
107.806676
 30
0.0
  0
VERTEX
  5
2C28
100
AcDbEntity
  8
TRACK
100
AcDbVertex
100
AcDb2dVertex
 10
107.471532
 20
109.452314
 30
0.0
  0
VERTEX
  5
2C29
100
AcDbEntity
  8
TRACK
100
AcDbVertex
100
AcDb2dVertex
 10
110.867586
 20
111.097951
 30
0.0
  0
SEQEND
  5
2C2A
100
AcDbEntity
  8
TRACK
  0
POLYLINE
  5
2C2F
100
AcDbEntity
  8
TRACK
100
AcDb2dPolyline
 66
     1
 10
0.0
 20
0.0
 30
0.0
  0
VERTEX
  5
2C30
100
AcDbEntity
  8
TRACK
100
AcDbVertex
100
AcDb2dVertex
 10
109.228111
 20
110.327522
 30
0.0
  0
VERTEX
  5
2C31
100
AcDbEntity
  8
TRACK
100
AcDbVertex
100
AcDb2dVertex
 10
110.867586
 20
109.452314
 30
0.0
  0
VERTEX
  5
2C32
100
AcDbEntity
  8
TRACK
100
AcDbVertex
100
AcDb2dVertex
 10
110.867586
 20
109.563256
 30
0.0
  0
SEQEND
  5
2C33
100
AcDbEntity
  8
TRACK
  0
POLYLINE
  5
2C34
100
AcDbEntity
  8
TRACK
100
AcDb2dPolyline
 66
     1
 10
0.0
 20
0.0
 30
0.0
  0
VERTEX
  5
2C35
100
AcDbEntity
  8
TRACK
100
AcDbVertex
100
AcDb2dVertex
 10
110.867586
 20
109.452314
 30
0.0
  0
VERTEX
  5
2C36
100
AcDbEntity
  8
TRACK
100
AcDbVertex
100
AcDb2dVertex
 10
110.867586
 20
111.097951
 30
0.0
  0
VERTEX
  5
2C37
100
AcDbEntity
  8
TRACK
100
AcDbVertex
100
AcDb2dVertex
 10
110.867586
 20
111.208893
 30
0.0
  0
SEQEND
  5
2C38
100
AcDbEntity
  8
TRACK
  0
POLYLINE
  5
2C3D
100
AcDbEntity
  8
TRACK
100
AcDb2dPolyline
 66
     1
 10
0.0
 20
0.0
 30
0.0
  0
VERTEX
  5
2C3E
100
AcDbEntity
  8
TRACK
100
AcDbVertex
100
AcDb2dVertex
 10
22.077122
 20
155.604125
 30
0.0
  0
VERTEX
  5
2C3F
100
AcDbEntity
  8
TRACK
100
AcDbVertex
100
AcDb2dVertex
 10
110.867586
 20
111.208893
 30
0.0
  0
VERTEX
  5
2C40
100
AcDbEntity
  8
TRACK
100
AcDbVertex
100
AcDb2dVertex
 10
22.077122
 20
155.604125
 30
0.0
  0
VERTEX
  5
2C41
100
AcDbEntity
  8
TRACK
100
AcDbVertex
100
AcDb2dVertex
 10
110.867586
 20
111.208893
 30
0.0
  0
VERTEX
  5
2C42
100
AcDbEntity
  8
TRACK
100
AcDbVertex
100
AcDb2dVertex
 10
22.077122
 20
155.604125
 30
0.0
  0
VERTEX
  5
2C43
100
AcDbEntity
  8
TRACK
100
AcDbVertex
100
AcDb2dVertex
 10
110.867586
 20
111.208893
 30
0.0
  0
SEQEND
  5
2C44
100
AcDbEntity
  8
TRACK
  0
POLYLINE
  5
2C45
100
AcDbEntity
  8
TRACK
100
AcDb2dPolyline
 66
     1
 10
0.0
 20
0.0
 30
0.0
  0
VERTEX
  5
2C46
100
AcDbEntity
  8
TRACK
100
AcDbVertex
100
AcDb2dVertex
 10
107.471532
 20
109.563256
 30
0.0
  0
VERTEX
  5
2C47
100
AcDbEntity
  8
TRACK
100
AcDbVertex
100
AcDb2dVertex
 10
110.867586
 20
111.208893
 30
0.0
  0
SEQEND
  5
2C48
100
AcDbEntity
  8
TRACK
  0
POLYLINE
  5
2C49
100
AcDbEntity
  8
TRACK
100
AcDb2dPolyline
 66
     1
 10
0.0
 20
0.0
 30
0.0
  0
VERTEX
  5
2C4A
100
AcDbEntity
  8
TRACK
100
AcDbVertex
100
AcDb2dVertex
 10
18.681068
 20
153.958488
 30
0.0
  0
VERTEX
  5
2C4B
100
AcDbEntity
  8
TRACK
100
AcDbVertex
100
AcDb2dVertex
 10
107.471532
 20
109.563256
 30
0.0
  0
SEQEND
  5
2C4C
100
AcDbEntity
  8
TRACK
  0
POLYLINE
  5
2C4D
100
AcDbEntity
  8
TRACK
100
AcDb2dPolyline
 66
     1
 10
0.0
 20
0.0
 30
0.0
  0
VERTEX
  5
2C4E
100
AcDbEntity
  8
TRACK
100
AcDbVertex
100
AcDb2dVertex
 10
22.077122
 20
155.604125
 30
0.0
  0
VERTEX
  5
2C4F
100
AcDbEntity
  8
TRACK
100
AcDbVertex
100
AcDb2dVertex
 10
18.681068
 20
153.958488
 30
0.0
  0
SEQEND
  5
2C50
100
AcDbEntity
  8
TRACK
  0
POLYLINE
  5
2C51
100
AcDbEntity
  8
TRACK
100
AcDb2dPolyline
 66
     1
 10
0.0
 20
0.0
 30
0.0
  0
VERTEX
  5
2C52
100
AcDbEntity
  8
TRACK
100
AcDbVertex
100
AcDb2dVertex
 10
107.471532
 20
109.452314
 30
0.0
  0
VERTEX
  5
2C53
100
AcDbEntity
  8
TRACK
100
AcDbVertex
100
AcDb2dVertex
 10
107.471532
 20
109.563256
 30
0.0
  0
SEQEND
  5
2C54
100
AcDbEntity
  8
TRACK
  0
POLYLINE
  5
2C55
100
AcDbEntity
  8
TRACK
100
AcDb2dPolyline
 66
     1
 10
0.0
 20
0.0
 30
0.0
  0
VERTEX
  5
2C56
100
AcDbEntity
  8
TRACK
100
AcDbVertex
100
AcDb2dVertex
 10
18.681068
 20
153.958488
 30
0.0
  0
VERTEX
  5
2C57
100
AcDbEntity
  8
TRACK
100
AcDbVertex
100
AcDb2dVertex
 10
18.681068
 20
153.853709
 30
0.0
  0
SEQEND
  5
2C58
100
AcDbEntity
  8
TRACK
  0
POLYLINE
  5
2C69
100
AcDbEntity
  8
TRACK
100
AcDb2dPolyline
 66
     1
 10
0.0
 20
0.0
 30
0.0
  0
VERTEX
  5
2C6A
100
AcDbEntity
  8
TRACK
100
AcDbVertex
100
AcDb2dVertex
 10
107.471532
 20
107.806676
 30
0.0
  0
VERTEX
  5
2C6B
100
AcDbEntity
  8
TRACK
100
AcDbVertex
100
AcDb2dVertex
 10
107.471532
 20
109.452314
 30
0.0
  0
VERTEX
  5
2C6C
100
AcDbEntity
  8
TRACK
100
AcDbVertex
100
AcDb2dVertex
 10
18.681068
 20
153.853709
 30
0.0
  0
SEQEND
  5
2C6D
100
AcDbEntity
  8
TRACK
  0
POLYLINE
  5
2C72
100
AcDbEntity
  8
TRACK
100
AcDb2dPolyline
 66
     1
 10
0.0
 20
0.0
 30
0.0
  0
VERTEX
  5
2C73
100
AcDbEntity
  8
TRACK
100
AcDbVertex
100
AcDb2dVertex
 10
18.681068
 20
153.853709
 30
0.0
  0
VERTEX
  5
2C74
100
AcDbEntity
  8
TRACK
100
AcDbVertex
100
AcDb2dVertex
 10
18.681068
 20
152.208072
 30
0.0
  0
SEQEND
  5
2C75
100
AcDbEntity
  8
TRACK
  0
POLYLINE
  5
2C76
100
AcDbEntity
  8
TRACK
100
AcDb2dPolyline
 66
     1
 10
0.0
 20
0.0
 30
0.0
  0
VERTEX
  5
2C77
100
AcDbEntity
  8
TRACK
100
AcDbVertex
100
AcDb2dVertex
 10
22.077122
 20
155.493183
 30
0.0
  0
VERTEX
  5
2C78
100
AcDbEntity
  8
TRACK
100
AcDbVertex
100
AcDb2dVertex
 10
22.077122
 20
155.604125
 30
0.0
  0
SEQEND
  5
2C79
100
AcDbEntity
  8
TRACK
  0
POLYLINE
  5
2C7A
100
AcDbEntity
  8
TRACK
100
AcDb2dPolyline
 66
     1
 10
0.0
 20
0.0
 30
0.0
  0
VERTEX
  5
2C7B
100
AcDbEntity
  8
TRACK
100
AcDbVertex
100
AcDb2dVertex
 10
18.681068
 20
153.958488
 30
0.0
  0
VERTEX
  5
2C7C
100
AcDbEntity
  8
TRACK
100
AcDbVertex
100
AcDb2dVertex
 10
18.681068
 20
153.853709
 30
0.0
  0
SEQEND
  5
2C7D
100
AcDbEntity
  8
TRACK
  0
POLYLINE
  5
2C7F
100
AcDbEntity
  8
TRACK
100
AcDb2dPolyline
 66
     1
 10
0.0
 20
0.0
 30
0.0
  0
VERTEX
  5
2C80
100
AcDbEntity
  8
TRACK
100
AcDbVertex
100
AcDb2dVertex
 10
54.194788
 20
112.299822
 30
0.0
  0
VERTEX
  5
2C81
100
AcDbEntity
  8
TRACK
100
AcDbVertex
100
AcDb2dVertex
 10
45.44537
 20
116.788279
 30
0.0
  0
SEQEND
  5
2C82
100
AcDbEntity
  8
TRACK
  0
POLYLINE
  5
2C83
100
AcDbEntity
  8
TRACK
100
AcDb2dPolyline
 66
     1
 10
0.0
 20
0.0
 30
0.0
  0
VERTEX
  5
2C84
100
AcDbEntity
  8
TRACK
100
AcDbVertex
100
AcDb2dVertex
 10
45.097556
 20
116.966708
 30
0.0
  0
VERTEX
  5
2C85
100
AcDbEntity
  8
TRACK
100
AcDbVertex
100
AcDb2dVertex
 10
44.722553
 20
117.159085
 30
0.0
  0
SEQEND
  5
2C86
100
AcDbEntity
  8
TRACK
  0
POLYLINE
  5
2C87
100
AcDbEntity
  8
TRACK
100
AcDb2dPolyline
 66
     1
 10
0.0
 20
0.0
 30
0.0
  0
VERTEX
  5
2C88
100
AcDbEntity
  8
TRACK
100
AcDbVertex
100
AcDb2dVertex
 10
54.194788
 20
112.299822
 30
0.0
  0
VERTEX
  5
2C89
100
AcDbEntity
  8
TRACK
100
AcDbVertex
100
AcDb2dVertex
 10
45.540121
 20
116.845769
 30
0.0
  0
SEQEND
  5
2C8A
100
AcDbEntity
  8
TRACK
  0
POLYLINE
  5
2C8B
100
AcDbEntity
  8
TRACK
100
AcDb2dPolyline
 66
     1
 10
0.0
 20
0.0
 30
0.0
  0
VERTEX
  5
2C8C
100
AcDbEntity
  8
TRACK
100
AcDbVertex
100
AcDb2dVertex
 10
45.097556
 20
117.07823
 30
0.0
  0
VERTEX
  5
2C8D
100
AcDbEntity
  8
TRACK
100
AcDbVertex
100
AcDb2dVertex
 10
44.722553
 20
117.275204
 30
0.0
  0
SEQEND
  5
2C8E
100
AcDbEntity
  8
TRACK
  0
POLYLINE
  5
2C99
100
AcDbEntity
  8
STUD
100
AcDb2dPolyline
 66
     1
 10
0.0
 20
0.0
 30
0.0
  0
VERTEX
  5
2C9A
100
AcDbEntity
  8
STUD
100
AcDbVertex
100
AcDb2dVertex
 10
41.552926
 20
135.966446
 30
0.0
  0
VERTEX
  5
2C9B
100
AcDbEntity
  8
STUD
100
AcDbVertex
100
AcDb2dVertex
 10
40.820132
 20
135.54214
 30
0.0
  0
SEQEND
  5
2C9C
100
AcDbEntity
  8
STUD
  0
LINE
  5
2CAB
100
AcDbEntity
  8
TRACK
100
AcDbLine
 10
18.681068
 20
152.208072
 30
0.0
 11
107.471532
 21
107.806676
 31
0.0
  0
LINE
  5
2CB9
100
AcDbEntity
  8
STUD
100
AcDbLine
 10
53.097697
 20
133.132236
 30
0.0
 11
50.909677
 21
134.229328
 31
0.0
  0
POLYLINE
  5
2CBE
100
AcDbEntity
  8
STUD
100
AcDb2dPolyline
 66
     1
 10
0.0
 20
0.0
 30
0.0
 70
     1
  0
VERTEX
  5
2CC6
100
AcDbEntity
  8
STUD
100
AcDbVertex
100
AcDb2dVertex
 10
53.028441
 20
134.156353
 30
0.0
 42
-0.284459
  0
VERTEX
  5
2CC4
100
AcDbEntity
  8
STUD
100
AcDbVertex
100
AcDb2dVertex
 10
53.097697
 20
134.044471
 30
0.0
  0
VERTEX
  5
2CC3
100
AcDbEntity
  8
STUD
100
AcDbVertex
100
AcDb2dVertex
 10
53.097697
 20
132.567082
 30
0.0
 42
-0.557996
  0
VERTEX
  5
2CBF
100
AcDbEntity
  8
STUD
100
AcDbVertex
100
AcDb2dVertex
 10
52.916638
 20
132.455357
 30
0.0
  0
VERTEX
  5
2CC0
100
AcDbEntity
  8
STUD
100
AcDbVertex
100
AcDb2dVertex
 10
50.978618
 20
133.427767
 30
0.0
 42
-0.2837
  0
VERTEX
  5
2CC2
100
AcDbEntity
  8
STUD
100
AcDbVertex
100
AcDb2dVertex
 10
50.909677
 20
133.539492
 30
0.0
  0
VERTEX
  5
2CC5
100
AcDbEntity
  8
STUD
100
AcDbVertex
100
AcDb2dVertex
 10
50.909677
 20
135.010081
 30
0.0
 42
-0.557076
  0
VERTEX
  5
2CC7
100
AcDbEntity
  8
STUD
100
AcDbVertex
100
AcDb2dVertex
 10
51.090421
 20
135.121962
 30
0.0
  0
SEQEND
  5
2CC1
100
AcDbEntity
  8
STUD
  0
POLYLINE
  5
2CC8
100
AcDbEntity
  8
STUD
100
AcDb2dPolyline
 66
     1
 10
0.0
 20
0.0
 30
0.0
 70
     1
  0
VERTEX
  5
2CC9
100
AcDbEntity
  8
STUD
100
AcDbVertex
100
AcDb2dVertex
 10
75.281528
 20
123.080657
 30
0.0
 42
-0.284459
  0
VERTEX
  5
2CCA
100
AcDbEntity
  8
STUD
100
AcDbVertex
100
AcDb2dVertex
 10
75.350784
 20
122.968776
 30
0.0
  0
VERTEX
  5
2CCB
100
AcDbEntity
  8
STUD
100
AcDbVertex
100
AcDb2dVertex
 10
75.350784
 20
121.491387
 30
0.0
 42
-0.557996
  0
VERTEX
  5
2CCC
100
AcDbEntity
  8
STUD
100
AcDbVertex
100
AcDb2dVertex
 10
75.169725
 20
121.379662
 30
0.0
  0
VERTEX
  5
2CCD
100
AcDbEntity
  8
STUD
100
AcDbVertex
100
AcDb2dVertex
 10
73.231705
 20
122.352072
 30
0.0
 42
-0.2837
  0
VERTEX
  5
2CCE
100
AcDbEntity
  8
STUD
100
AcDbVertex
100
AcDb2dVertex
 10
73.162764
 20
122.463797
 30
0.0
  0
VERTEX
  5
2CCF
100
AcDbEntity
  8
STUD
100
AcDbVertex
100
AcDb2dVertex
 10
73.162764
 20
123.934386
 30
0.0
 42
-0.557076
  0
VERTEX
  5
2CD0
100
AcDbEntity
  8
STUD
100
AcDbVertex
100
AcDb2dVertex
 10
73.343508
 20
124.046267
 30
0.0
  0
SEQEND
  5
2CD1
100
AcDbEntity
  8
STUD
  0
POLYLINE
  5
2CD4
100
AcDbEntity
  8
STUD
100
AcDb2dPolyline
 66
     1
 10
0.0
 20
0.0
 30
0.0
  0
VERTEX
  5
2CD5
100
AcDbEntity
  8
STUD
100
AcDbVertex
100
AcDb2dVertex
 10
42.792431
 20
131.813261
 30
0.0
  0
VERTEX
  5
2CD6
100
AcDbEntity
  8
STUD
100
AcDbVertex
100
AcDb2dVertex
 10
43.055297
 20
131.944694
 30
0.0
 42
-0.557537
  0
VERTEX
  5
2CD8
100
AcDbEntity
  8
STUD
100
AcDbVertex
100
AcDb2dVertex
 10
43.236199
 20
131.83289
 30
0.0
  0
VERTEX
  5
2CD9
100
AcDbEntity
  8
STUD
100
AcDbVertex
100
AcDb2dVertex
 10
43.236199
 20
129.375833
 30
0.0
 42
-0.284079
  0
VERTEX
  5
2CDA
100
AcDbEntity
  8
STUD
100
AcDbVertex
100
AcDb2dVertex
 10
43.1671
 20
129.26403
 30
0.0
  0
VERTEX
  5
2CDB
100
AcDbEntity
  8
STUD
100
AcDbVertex
100
AcDb2dVertex
 10
42.792431
 20
129.076695
 30
0.0
  0
SEQEND
  5
2CD7
100
AcDbEntity
  8
STUD
  0
POLYLINE
  5
2DBE
100
AcDbEntity
  8
STUD
100
AcDb2dPolyline
 66
     1
 10
0.0
 20
0.0
 30
0.0
  0
VERTEX
  5
2DBF
100
AcDbEntity
  8
STUD
100
AcDbVertex
100
AcDb2dVertex
 10
101.22379
 20
42.747214
 30
0.0
  0
VERTEX
  5
2DC0
100
AcDbEntity
  8
STUD
100
AcDbVertex
100
AcDb2dVertex
 10
102.350658
 20
43.310648
 30
0.0
 42
0.284079
  0
VERTEX
  5
2DC1
100
AcDbEntity
  8
STUD
100
AcDbVertex
100
AcDb2dVertex
 10
102.407291
 20
43.402282
 30
0.0
  0
VERTEX
  5
2DC2
100
AcDbEntity
  8
STUD
100
AcDbVertex
100
AcDb2dVertex
 10
102.407291
 20
45.865503
 30
0.0
 42
0.447316
  0
VERTEX
  5
2DC3
100
AcDbEntity
  8
STUD
100
AcDbVertex
100
AcDb2dVertex
 10
102.248939
 20
45.977306
 30
0.0
  0
SEQEND
  5
2DC4
100
AcDbEntity
  8
STUD
  0
POLYLINE
  5
2DC5
100
AcDbEntity
  8
STUD
100
AcDb2dPolyline
 66
     1
 10
0.0
 20
0.0
 30
0.0
 70
     1
  0
VERTEX
  5
2DC6
100
AcDbEntity
  8
STUD
100
AcDbVertex
100
AcDb2dVertex
 10
101.186128
 20
45.4459
 30
0.0
  0
VERTEX
  5
2DC7
100
AcDbEntity
  8
STUD
100
AcDbVertex
100
AcDb2dVertex
 10
102.248939
 20
45.977306
 30
0.0
 42
-0.557537
  0
VERTEX
  5
2DC8
100
AcDbEntity
  8
STUD
100
AcDbVertex
100
AcDb2dVertex
 10
102.429841
 20
45.865503
 30
0.0
  0
VERTEX
  5
2DC9
100
AcDbEntity
  8
STUD
100
AcDbVertex
100
AcDb2dVertex
 10
102.429841
 20
43.402282
 30
0.0
 42
-0.284079
  0
VERTEX
  5
2DCA
100
AcDbEntity
  8
STUD
100
AcDbVertex
100
AcDb2dVertex
 10
102.360743
 20
43.290479
 30
0.0
  0
VERTEX
  5
2DCB
100
AcDbEntity
  8
STUD
100
AcDbVertex
100
AcDb2dVertex
 10
101.297931
 20
42.759073
 30
0.0
 42
-0.557537
  0
VERTEX
  5
2DCC
100
AcDbEntity
  8
STUD
100
AcDbVertex
100
AcDb2dVertex
 10
101.117029
 20
42.870876
 30
0.0
  0
VERTEX
  5
2DCD
100
AcDbEntity
  8
STUD
100
AcDbVertex
100
AcDb2dVertex
 10
101.117029
 20
45.334097
 30
0.0
 42
-0.284079
  0
SEQEND
  5
2DCE
100
AcDbEntity
  8
STUD
  0
LINE
  5
2DCF
100
AcDbEntity
  8
STUD
100
AcDbLine
 10
101.992237
 20
45.845873
 30
0.0
 11
101.992237
 21
43.131438
 31
0.0
  0
LINE
  5
2DD0
100
AcDbEntity
  8
STUD
100
AcDbLine
 10
101.443691
 20
45.574682
 30
0.0
 11
101.443691
 21
42.857165
 31
0.0
  0
LINE
  5
2DEC
100
AcDbEntity
  8
STUD
100
AcDbLine
 10
42.792431
 20
75.445776
 30
0.0
 11
42.792431
 21
72.731341
 31
0.0
  0
POLYLINE
  5
2DED
100
AcDbEntity
  8
STUD
100
AcDb2dPolyline
 66
     1
 10
0.0
 20
0.0
 30
0.0
  0
VERTEX
  5
2DEE
100
AcDbEntity
  8
STUD
100
AcDbVertex
100
AcDb2dVertex
 10
42.023984
 20
72.347117
 30
0.0
  0
VERTEX
  5
2DEF
100
AcDbEntity
  8
STUD
100
AcDbVertex
100
AcDb2dVertex
 10
43.150852
 20
72.910551
 30
0.0
 42
0.284079
  0
VERTEX
  5
2DF0
100
AcDbEntity
  8
STUD
100
AcDbVertex
100
AcDb2dVertex
 10
43.207485
 20
73.002185
 30
0.0
  0
VERTEX
  5
2DF1
100
AcDbEntity
  8
STUD
100
AcDbVertex
100
AcDb2dVertex
 10
43.207485
 20
75.465406
 30
0.0
 42
0.447316
  0
VERTEX
  5
2DF2
100
AcDbEntity
  8
STUD
100
AcDbVertex
100
AcDb2dVertex
 10
43.049133
 20
75.577209
 30
0.0
  0
SEQEND
  5
2DF3
100
AcDbEntity
  8
STUD
  0
POLYLINE
  5
2DF4
100
AcDbEntity
  8
STUD
100
AcDb2dPolyline
 66
     1
 10
0.0
 20
0.0
 30
0.0
 70
     1
  0
VERTEX
  5
2DF5
100
AcDbEntity
  8
STUD
100
AcDbVertex
100
AcDb2dVertex
 10
41.986322
 20
75.045803
 30
0.0
  0
VERTEX
  5
2DF6
100
AcDbEntity
  8
STUD
100
AcDbVertex
100
AcDb2dVertex
 10
43.049133
 20
75.577209
 30
0.0
 42
-0.557537
  0
VERTEX
  5
2DF7
100
AcDbEntity
  8
STUD
100
AcDbVertex
100
AcDb2dVertex
 10
43.230035
 20
75.465406
 30
0.0
  0
VERTEX
  5
2DF8
100
AcDbEntity
  8
STUD
100
AcDbVertex
100
AcDb2dVertex
 10
43.230035
 20
73.002185
 30
0.0
 42
-0.284079
  0
VERTEX
  5
2DF9
100
AcDbEntity
  8
STUD
100
AcDbVertex
100
AcDb2dVertex
 10
43.160937
 20
72.890382
 30
0.0
  0
VERTEX
  5
2DFA
100
AcDbEntity
  8
STUD
100
AcDbVertex
100
AcDb2dVertex
 10
42.098125
 20
72.358976
 30
0.0
 42
-0.557537
  0
VERTEX
  5
2DFB
100
AcDbEntity
  8
STUD
100
AcDbVertex
100
AcDb2dVertex
 10
41.917223
 20
72.470779
 30
0.0
  0
VERTEX
  5
2DFC
100
AcDbEntity
  8
STUD
100
AcDbVertex
100
AcDb2dVertex
 10
41.917223
 20
74.934
 30
0.0
 42
-0.284079
  0
SEQEND
  5
2DFD
100
AcDbEntity
  8
STUD
  0
LINE
  5
2DFE
100
AcDbEntity
  8
STUD
100
AcDbLine
 10
42.243885
 20
75.174585
 30
0.0
 11
42.243885
 21
72.457068
 31
0.0
  0
LINE
  5
2DFF
100
AcDbEntity
  8
STUD
100
AcDbLine
 10
26.459325
 20
83.61233
 30
0.0
 11
26.459325
 21
80.897894
 31
0.0
  0
POLYLINE
  5
2E00
100
AcDbEntity
  8
STUD
100
AcDb2dPolyline
 66
     1
 10
0.0
 20
0.0
 30
0.0
  0
VERTEX
  5
2E01
100
AcDbEntity
  8
STUD
100
AcDbVertex
100
AcDb2dVertex
 10
25.690878
 20
80.51367
 30
0.0
  0
VERTEX
  5
2E02
100
AcDbEntity
  8
STUD
100
AcDbVertex
100
AcDb2dVertex
 10
26.817746
 20
81.077104
 30
0.0
 42
0.284079
  0
VERTEX
  5
2E03
100
AcDbEntity
  8
STUD
100
AcDbVertex
100
AcDb2dVertex
 10
26.874379
 20
81.168738
 30
0.0
  0
VERTEX
  5
2E04
100
AcDbEntity
  8
STUD
100
AcDbVertex
100
AcDb2dVertex
 10
26.874379
 20
83.631959
 30
0.0
 42
0.447316
  0
VERTEX
  5
2E05
100
AcDbEntity
  8
STUD
100
AcDbVertex
100
AcDb2dVertex
 10
26.716027
 20
83.743762
 30
0.0
  0
SEQEND
  5
2E06
100
AcDbEntity
  8
STUD
  0
POLYLINE
  5
2E07
100
AcDbEntity
  8
STUD
100
AcDb2dPolyline
 66
     1
 10
0.0
 20
0.0
 30
0.0
 70
     1
  0
VERTEX
  5
2E08
100
AcDbEntity
  8
STUD
100
AcDbVertex
100
AcDb2dVertex
 10
25.653215
 20
83.212356
 30
0.0
  0
VERTEX
  5
2E09
100
AcDbEntity
  8
STUD
100
AcDbVertex
100
AcDb2dVertex
 10
26.716027
 20
83.743762
 30
0.0
 42
-0.557537
  0
VERTEX
  5
2E0A
100
AcDbEntity
  8
STUD
100
AcDbVertex
100
AcDb2dVertex
 10
26.896929
 20
83.631959
 30
0.0
  0
VERTEX
  5
2E0B
100
AcDbEntity
  8
STUD
100
AcDbVertex
100
AcDb2dVertex
 10
26.896929
 20
81.168738
 30
0.0
 42
-0.284079
  0
VERTEX
  5
2E0C
100
AcDbEntity
  8
STUD
100
AcDbVertex
100
AcDb2dVertex
 10
26.827831
 20
81.056935
 30
0.0
  0
VERTEX
  5
2E0D
100
AcDbEntity
  8
STUD
100
AcDbVertex
100
AcDb2dVertex
 10
25.765019
 20
80.525529
 30
0.0
 42
-0.557537
  0
VERTEX
  5
2E0E
100
AcDbEntity
  8
STUD
100
AcDbVertex
100
AcDb2dVertex
 10
25.584117
 20
80.637332
 30
0.0
  0
VERTEX
  5
2E0F
100
AcDbEntity
  8
STUD
100
AcDbVertex
100
AcDb2dVertex
 10
25.584117
 20
83.100553
 30
0.0
 42
-0.284079
  0
SEQEND
  5
2E10
100
AcDbEntity
  8
STUD
  0
LINE
  5
2E11
100
AcDbEntity
  8
STUD
100
AcDbLine
 10
25.910779
 20
83.341138
 30
0.0
 11
25.910779
 21
80.623621
 31
0.0
  0
LINE
  5
2E71
100
AcDbEntity
  8
STUD
100
AcDbLine
 10
101.443691
 20
74.744184
 30
0.0
 11
101.443691
 21
72.026667
 31
0.0
  0
POLYLINE
  5
2E72
100
AcDbEntity
  8
STUD
100
AcDb2dPolyline
 66
     1
 10
0.0
 20
0.0
 30
0.0
 70
     1
  0
VERTEX
  5
2E73
100
AcDbEntity
  8
STUD
100
AcDbVertex
100
AcDb2dVertex
 10
101.186128
 20
74.615402
 30
0.0
  0
VERTEX
  5
2E74
100
AcDbEntity
  8
STUD
100
AcDbVertex
100
AcDb2dVertex
 10
102.248939
 20
75.146808
 30
0.0
 42
-0.557537
  0
VERTEX
  5
2E75
100
AcDbEntity
  8
STUD
100
AcDbVertex
100
AcDb2dVertex
 10
102.429841
 20
75.035005
 30
0.0
  0
VERTEX
  5
2E76
100
AcDbEntity
  8
STUD
100
AcDbVertex
100
AcDb2dVertex
 10
102.429841
 20
72.571784
 30
0.0
 42
-0.284079
  0
VERTEX
  5
2E77
100
AcDbEntity
  8
STUD
100
AcDbVertex
100
AcDb2dVertex
 10
102.360743
 20
72.459981
 30
0.0
  0
VERTEX
  5
2E78
100
AcDbEntity
  8
STUD
100
AcDbVertex
100
AcDb2dVertex
 10
101.297931
 20
71.928575
 30
0.0
 42
-0.557537
  0
VERTEX
  5
2E79
100
AcDbEntity
  8
STUD
100
AcDbVertex
100
AcDb2dVertex
 10
101.117029
 20
72.040378
 30
0.0
  0
VERTEX
  5
2E7A
100
AcDbEntity
  8
STUD
100
AcDbVertex
100
AcDb2dVertex
 10
101.117029
 20
74.503599
 30
0.0
 42
-0.284079
  0
SEQEND
  5
2E7B
100
AcDbEntity
  8
STUD
  0
POLYLINE
  5
2E7C
100
AcDbEntity
  8
STUD
100
AcDb2dPolyline
 66
     1
 10
0.0
 20
0.0
 30
0.0
  0
VERTEX
  5
2E7D
100
AcDbEntity
  8
STUD
100
AcDbVertex
100
AcDb2dVertex
 10
101.22379
 20
71.916716
 30
0.0
  0
VERTEX
  5
2E7E
100
AcDbEntity
  8
STUD
100
AcDbVertex
100
AcDb2dVertex
 10
102.350658
 20
72.48015
 30
0.0
 42
0.284079
  0
VERTEX
  5
2E7F
100
AcDbEntity
  8
STUD
100
AcDbVertex
100
AcDb2dVertex
 10
102.407291
 20
72.571784
 30
0.0
  0
VERTEX
  5
2E80
100
AcDbEntity
  8
STUD
100
AcDbVertex
100
AcDb2dVertex
 10
102.407291
 20
75.035005
 30
0.0
 42
0.447316
  0
VERTEX
  5
2E81
100
AcDbEntity
  8
STUD
100
AcDbVertex
100
AcDb2dVertex
 10
102.248939
 20
75.146808
 30
0.0
  0
SEQEND
  5
2E82
100
AcDbEntity
  8
STUD
  0
LINE
  5
2E83
100
AcDbEntity
  8
STUD
100
AcDbLine
 10
101.992237
 20
75.015375
 30
0.0
 11
101.992237
 21
72.300939
 31
0.0
  0
LINE
  5
2EAA
100
AcDbEntity
  8
STUD
100
AcDbLine
 10
25.910779
 20
112.513722
 30
0.0
 11
25.910779
 21
109.796204
 31
0.0
  0
POLYLINE
  5
2EAB
100
AcDbEntity
  8
STUD
100
AcDb2dPolyline
 66
     1
 10
0.0
 20
0.0
 30
0.0
 70
     1
  0
VERTEX
  5
2EAC
100
AcDbEntity
  8
STUD
100
AcDbVertex
100
AcDb2dVertex
 10
25.653215
 20
112.38494
 30
0.0
  0
VERTEX
  5
2EAD
100
AcDbEntity
  8
STUD
100
AcDbVertex
100
AcDb2dVertex
 10
26.716027
 20
112.916346
 30
0.0
 42
-0.557537
  0
VERTEX
  5
2EAE
100
AcDbEntity
  8
STUD
100
AcDbVertex
100
AcDb2dVertex
 10
26.896929
 20
112.804543
 30
0.0
  0
VERTEX
  5
2EAF
100
AcDbEntity
  8
STUD
100
AcDbVertex
100
AcDb2dVertex
 10
26.896929
 20
110.341322
 30
0.0
 42
-0.284079
  0
VERTEX
  5
2EB0
100
AcDbEntity
  8
STUD
100
AcDbVertex
100
AcDb2dVertex
 10
26.827831
 20
110.229519
 30
0.0
  0
VERTEX
  5
2EB1
100
AcDbEntity
  8
STUD
100
AcDbVertex
100
AcDb2dVertex
 10
25.765019
 20
109.698113
 30
0.0
 42
-0.557537
  0
VERTEX
  5
2EB2
100
AcDbEntity
  8
STUD
100
AcDbVertex
100
AcDb2dVertex
 10
25.584117
 20
109.809916
 30
0.0
  0
VERTEX
  5
2EB3
100
AcDbEntity
  8
STUD
100
AcDbVertex
100
AcDb2dVertex
 10
25.584117
 20
112.273137
 30
0.0
 42
-0.284079
  0
SEQEND
  5
2EB4
100
AcDbEntity
  8
STUD
  0
POLYLINE
  5
2EB5
100
AcDbEntity
  8
STUD
100
AcDb2dPolyline
 66
     1
 10
0.0
 20
0.0
 30
0.0
  0
VERTEX
  5
2EB6
100
AcDbEntity
  8
STUD
100
AcDbVertex
100
AcDb2dVertex
 10
25.690878
 20
109.686254
 30
0.0
  0
VERTEX
  5
2EB7
100
AcDbEntity
  8
STUD
100
AcDbVertex
100
AcDb2dVertex
 10
26.817746
 20
110.249688
 30
0.0
 42
0.284079
  0
VERTEX
  5
2EB8
100
AcDbEntity
  8
STUD
100
AcDbVertex
100
AcDb2dVertex
 10
26.874379
 20
110.341322
 30
0.0
  0
VERTEX
  5
2EB9
100
AcDbEntity
  8
STUD
100
AcDbVertex
100
AcDb2dVertex
 10
26.874379
 20
112.804543
 30
0.0
 42
0.447316
  0
VERTEX
  5
2EBA
100
AcDbEntity
  8
STUD
100
AcDbVertex
100
AcDb2dVertex
 10
26.716027
 20
112.916346
 30
0.0
  0
SEQEND
  5
2EBB
100
AcDbEntity
  8
STUD
  0
LINE
  5
2EBC
100
AcDbEntity
  8
STUD
100
AcDbLine
 10
26.459325
 20
112.784913
 30
0.0
 11
26.459325
 21
110.070477
 31
0.0
  0
LINE
  5
2EBD
100
AcDbEntity
  8
STUD
100
AcDbLine
 10
25.910779
 20
112.513722
 30
0.0
 11
25.910779
 21
109.796204
 31
0.0
  0
POLYLINE
  5
2EBE
100
AcDbEntity
  8
STUD
100
AcDb2dPolyline
 66
     1
 10
0.0
 20
0.0
 30
0.0
 70
     1
  0
VERTEX
  5
2EBF
100
AcDbEntity
  8
STUD
100
AcDbVertex
100
AcDb2dVertex
 10
25.653215
 20
112.38494
 30
0.0
  0
VERTEX
  5
2EC0
100
AcDbEntity
  8
STUD
100
AcDbVertex
100
AcDb2dVertex
 10
26.716027
 20
112.916346
 30
0.0
 42
-0.557537
  0
VERTEX
  5
2EC1
100
AcDbEntity
  8
STUD
100
AcDbVertex
100
AcDb2dVertex
 10
26.896929
 20
112.804543
 30
0.0
  0
VERTEX
  5
2EC2
100
AcDbEntity
  8
STUD
100
AcDbVertex
100
AcDb2dVertex
 10
26.896929
 20
110.341322
 30
0.0
 42
-0.284079
  0
VERTEX
  5
2EC3
100
AcDbEntity
  8
STUD
100
AcDbVertex
100
AcDb2dVertex
 10
26.827831
 20
110.229519
 30
0.0
  0
VERTEX
  5
2EC4
100
AcDbEntity
  8
STUD
100
AcDbVertex
100
AcDb2dVertex
 10
25.765019
 20
109.698113
 30
0.0
 42
-0.557537
  0
VERTEX
  5
2EC5
100
AcDbEntity
  8
STUD
100
AcDbVertex
100
AcDb2dVertex
 10
25.584117
 20
109.809916
 30
0.0
  0
VERTEX
  5
2EC6
100
AcDbEntity
  8
STUD
100
AcDbVertex
100
AcDb2dVertex
 10
25.584117
 20
112.273137
 30
0.0
 42
-0.284079
  0
SEQEND
  5
2EC7
100
AcDbEntity
  8
STUD
  0
POLYLINE
  5
2EC8
100
AcDbEntity
  8
STUD
100
AcDb2dPolyline
 66
     1
 10
0.0
 20
0.0
 30
0.0
  0
VERTEX
  5
2EC9
100
AcDbEntity
  8
STUD
100
AcDbVertex
100
AcDb2dVertex
 10
25.690878
 20
109.686254
 30
0.0
  0
VERTEX
  5
2ECA
100
AcDbEntity
  8
STUD
100
AcDbVertex
100
AcDb2dVertex
 10
26.817746
 20
110.249688
 30
0.0
 42
0.284079
  0
VERTEX
  5
2ECB
100
AcDbEntity
  8
STUD
100
AcDbVertex
100
AcDb2dVertex
 10
26.874379
 20
110.341322
 30
0.0
  0
VERTEX
  5
2ECC
100
AcDbEntity
  8
STUD
100
AcDbVertex
100
AcDb2dVertex
 10
26.874379
 20
112.804543
 30
0.0
 42
0.447316
  0
VERTEX
  5
2ECD
100
AcDbEntity
  8
STUD
100
AcDbVertex
100
AcDb2dVertex
 10
26.716027
 20
112.916346
 30
0.0
  0
SEQEND
  5
2ECE
100
AcDbEntity
  8
STUD
  0
LINE
  5
2ECF
100
AcDbEntity
  8
STUD
100
AcDbLine
 10
26.459325
 20
112.784913
 30
0.0
 11
26.459325
 21
110.070477
 31
0.0
  0
LINE
  5
2ED0
100
AcDbEntity
  8
STUD
100
AcDbLine
 10
101.443691
 20
101.875631
 30
0.0
 11
101.443691
 21
99.158113
 31
0.0
  0
POLYLINE
  5
2ED1
100
AcDbEntity
  8
STUD
100
AcDb2dPolyline
 66
     1
 10
0.0
 20
0.0
 30
0.0
 70
     1
  0
VERTEX
  5
2ED2
100
AcDbEntity
  8
STUD
100
AcDbVertex
100
AcDb2dVertex
 10
101.186128
 20
101.746849
 30
0.0
  0
VERTEX
  5
2ED3
100
AcDbEntity
  8
STUD
100
AcDbVertex
100
AcDb2dVertex
 10
102.248939
 20
102.278255
 30
0.0
 42
-0.557537
  0
VERTEX
  5
2ED4
100
AcDbEntity
  8
STUD
100
AcDbVertex
100
AcDb2dVertex
 10
102.429841
 20
102.166452
 30
0.0
  0
VERTEX
  5
2ED5
100
AcDbEntity
  8
STUD
100
AcDbVertex
100
AcDb2dVertex
 10
102.429841
 20
99.703231
 30
0.0
 42
-0.284079
  0
VERTEX
  5
2ED6
100
AcDbEntity
  8
STUD
100
AcDbVertex
100
AcDb2dVertex
 10
102.360743
 20
99.591427
 30
0.0
  0
VERTEX
  5
2ED7
100
AcDbEntity
  8
STUD
100
AcDbVertex
100
AcDb2dVertex
 10
101.297931
 20
99.060021
 30
0.0
 42
-0.557537
  0
VERTEX
  5
2ED8
100
AcDbEntity
  8
STUD
100
AcDbVertex
100
AcDb2dVertex
 10
101.117029
 20
99.171825
 30
0.0
  0
VERTEX
  5
2ED9
100
AcDbEntity
  8
STUD
100
AcDbVertex
100
AcDb2dVertex
 10
101.117029
 20
101.635046
 30
0.0
 42
-0.284079
  0
SEQEND
  5
2EDA
100
AcDbEntity
  8
STUD
  0
POLYLINE
  5
2EDB
100
AcDbEntity
  8
STUD
100
AcDb2dPolyline
 66
     1
 10
0.0
 20
0.0
 30
0.0
  0
VERTEX
  5
2EDC
100
AcDbEntity
  8
STUD
100
AcDbVertex
100
AcDb2dVertex
 10
101.22379
 20
99.048163
 30
0.0
  0
VERTEX
  5
2EDD
100
AcDbEntity
  8
STUD
100
AcDbVertex
100
AcDb2dVertex
 10
102.350658
 20
99.611597
 30
0.0
 42
0.284079
  0
VERTEX
  5
2EDE
100
AcDbEntity
  8
STUD
100
AcDbVertex
100
AcDb2dVertex
 10
102.407291
 20
99.703231
 30
0.0
  0
VERTEX
  5
2EDF
100
AcDbEntity
  8
STUD
100
AcDbVertex
100
AcDb2dVertex
 10
102.407291
 20
102.166452
 30
0.0
 42
0.447316
  0
VERTEX
  5
2EE0
100
AcDbEntity
  8
STUD
100
AcDbVertex
100
AcDb2dVertex
 10
102.248939
 20
102.278255
 30
0.0
  0
SEQEND
  5
2EE1
100
AcDbEntity
  8
STUD
  0
LINE
  5
2EE2
100
AcDbEntity
  8
STUD
100
AcDbLine
 10
101.992237
 20
102.146822
 30
0.0
 11
101.992237
 21
99.432386
 31
0.0
  0
LINE
  5
2F1C
100
AcDbEntity
  8
STUD
100
AcDbLine
 10
42.348664
 20
104.344087
 30
0.0
 11
42.348664
 21
101.62657
 31
0.0
  0
POLYLINE
  5
2F1D
100
AcDbEntity
  8
STUD
100
AcDb2dPolyline
 66
     1
 10
0.0
 20
0.0
 30
0.0
 70
     1
  0
VERTEX
  5
2F1E
100
AcDbEntity
  8
STUD
100
AcDbVertex
100
AcDb2dVertex
 10
42.0911
 20
104.215305
 30
0.0
  0
VERTEX
  5
2F1F
100
AcDbEntity
  8
STUD
100
AcDbVertex
100
AcDb2dVertex
 10
43.153912
 20
104.746711
 30
0.0
 42
-0.557537
  0
VERTEX
  5
2F20
100
AcDbEntity
  8
STUD
100
AcDbVertex
100
AcDb2dVertex
 10
43.334814
 20
104.634908
 30
0.0
  0
VERTEX
  5
2F21
100
AcDbEntity
  8
STUD
100
AcDbVertex
100
AcDb2dVertex
 10
43.334814
 20
102.171687
 30
0.0
 42
-0.284079
  0
VERTEX
  5
2F22
100
AcDbEntity
  8
STUD
100
AcDbVertex
100
AcDb2dVertex
 10
43.265715
 20
102.059884
 30
0.0
  0
VERTEX
  5
2F23
100
AcDbEntity
  8
STUD
100
AcDbVertex
100
AcDb2dVertex
 10
42.202903
 20
101.528478
 30
0.0
 42
-0.557537
  0
VERTEX
  5
2F24
100
AcDbEntity
  8
STUD
100
AcDbVertex
100
AcDb2dVertex
 10
42.022002
 20
101.640281
 30
0.0
  0
VERTEX
  5
2F25
100
AcDbEntity
  8
STUD
100
AcDbVertex
100
AcDb2dVertex
 10
42.022002
 20
104.103502
 30
0.0
 42
-0.284079
  0
SEQEND
  5
2F26
100
AcDbEntity
  8
STUD
  0
POLYLINE
  5
2F27
100
AcDbEntity
  8
STUD
100
AcDb2dPolyline
 66
     1
 10
0.0
 20
0.0
 30
0.0
  0
VERTEX
  5
2F28
100
AcDbEntity
  8
STUD
100
AcDbVertex
100
AcDb2dVertex
 10
42.128762
 20
101.516619
 30
0.0
  0
VERTEX
  5
2F29
100
AcDbEntity
  8
STUD
100
AcDbVertex
100
AcDb2dVertex
 10
43.255631
 20
102.080053
 30
0.0
 42
0.284079
  0
VERTEX
  5
2F2A
100
AcDbEntity
  8
STUD
100
AcDbVertex
100
AcDb2dVertex
 10
43.312264
 20
102.171687
 30
0.0
  0
VERTEX
  5
2F2B
100
AcDbEntity
  8
STUD
100
AcDbVertex
100
AcDb2dVertex
 10
43.312264
 20
104.634908
 30
0.0
 42
0.447316
  0
VERTEX
  5
2F2C
100
AcDbEntity
  8
STUD
100
AcDbVertex
100
AcDb2dVertex
 10
43.153912
 20
104.746711
 30
0.0
  0
SEQEND
  5
2F2D
100
AcDbEntity
  8
STUD
  0
LINE
  5
2F2E
100
AcDbEntity
  8
STUD
100
AcDbLine
 10
42.89721
 20
104.615278
 30
0.0
 11
42.89721
 21
101.900843
 31
0.0
  0
LINE
  5
2F2F
100
AcDbEntity
  8
STUD
100
AcDbLine
 10
72.395416
 20
116.729512
 30
0.0
 11
72.395416
 21
114.015077
 31
0.0
  0
POLYLINE
  5
2F30
100
AcDbEntity
  8
STUD
100
AcDb2dPolyline
 66
     1
 10
0.0
 20
0.0
 30
0.0
  0
VERTEX
  5
2F31
100
AcDbEntity
  8
STUD
100
AcDbVertex
100
AcDb2dVertex
 10
71.626969
 20
113.630853
 30
0.0
  0
VERTEX
  5
2F32
100
AcDbEntity
  8
STUD
100
AcDbVertex
100
AcDb2dVertex
 10
72.753837
 20
114.194287
 30
0.0
 42
0.284079
  0
VERTEX
  5
2F33
100
AcDbEntity
  8
STUD
100
AcDbVertex
100
AcDb2dVertex
 10
72.81047
 20
114.285921
 30
0.0
  0
VERTEX
  5
2F34
100
AcDbEntity
  8
STUD
100
AcDbVertex
100
AcDb2dVertex
 10
72.81047
 20
116.749142
 30
0.0
 42
0.447316
  0
VERTEX
  5
2F35
100
AcDbEntity
  8
STUD
100
AcDbVertex
100
AcDb2dVertex
 10
72.652118
 20
116.860945
 30
0.0
  0
SEQEND
  5
2F36
100
AcDbEntity
  8
STUD
  0
POLYLINE
  5
2F37
100
AcDbEntity
  8
STUD
100
AcDb2dPolyline
 66
     1
 10
0.0
 20
0.0
 30
0.0
 70
     1
  0
VERTEX
  5
2F38
100
AcDbEntity
  8
STUD
100
AcDbVertex
100
AcDb2dVertex
 10
71.589306
 20
116.329539
 30
0.0
  0
VERTEX
  5
2F39
100
AcDbEntity
  8
STUD
100
AcDbVertex
100
AcDb2dVertex
 10
72.652118
 20
116.860945
 30
0.0
 42
-0.557537
  0
VERTEX
  5
2F3A
100
AcDbEntity
  8
STUD
100
AcDbVertex
100
AcDb2dVertex
 10
72.83302
 20
116.749142
 30
0.0
  0
VERTEX
  5
2F3B
100
AcDbEntity
  8
STUD
100
AcDbVertex
100
AcDb2dVertex
 10
72.83302
 20
114.285921
 30
0.0
 42
-0.284079
  0
VERTEX
  5
2F3C
100
AcDbEntity
  8
STUD
100
AcDbVertex
100
AcDb2dVertex
 10
72.763922
 20
114.174118
 30
0.0
  0
VERTEX
  5
2F3D
100
AcDbEntity
  8
STUD
100
AcDbVertex
100
AcDb2dVertex
 10
71.70111
 20
113.642712
 30
0.0
 42
-0.557537
  0
VERTEX
  5
2F3E
100
AcDbEntity
  8
STUD
100
AcDbVertex
100
AcDb2dVertex
 10
71.520208
 20
113.754515
 30
0.0
  0
VERTEX
  5
2F3F
100
AcDbEntity
  8
STUD
100
AcDbVertex
100
AcDb2dVertex
 10
71.520208
 20
116.217736
 30
0.0
 42
-0.284079
  0
SEQEND
  5
2F40
100
AcDbEntity
  8
STUD
  0
LINE
  5
2F41
100
AcDbEntity
  8
STUD
100
AcDbLine
 10
71.84687
 20
116.458321
 30
0.0
 11
71.84687
 21
113.740804
 31
0.0
  0
LINE
  5
2F42
100
AcDbEntity
  8
STUD
100
AcDbLine
 10
57.597005
 20
124.076329
 30
0.0
 11
57.597005
 21
121.361893
 31
0.0
  0
POLYLINE
  5
2F43
100
AcDbEntity
  8
STUD
100
AcDb2dPolyline
 66
     1
 10
0.0
 20
0.0
 30
0.0
  0
VERTEX
  5
2F44
100
AcDbEntity
  8
STUD
100
AcDbVertex
100
AcDb2dVertex
 10
56.828558
 20
120.977669
 30
0.0
  0
VERTEX
  5
2F45
100
AcDbEntity
  8
STUD
100
AcDbVertex
100
AcDb2dVertex
 10
57.955426
 20
121.541103
 30
0.0
 42
0.284079
  0
VERTEX
  5
2F46
100
AcDbEntity
  8
STUD
100
AcDbVertex
100
AcDb2dVertex
 10
58.012059
 20
121.632737
 30
0.0
  0
VERTEX
  5
2F47
100
AcDbEntity
  8
STUD
100
AcDbVertex
100
AcDb2dVertex
 10
58.012059
 20
124.095958
 30
0.0
 42
0.447316
  0
VERTEX
  5
2F48
100
AcDbEntity
  8
STUD
100
AcDbVertex
100
AcDb2dVertex
 10
57.853708
 20
124.207761
 30
0.0
  0
SEQEND
  5
2F49
100
AcDbEntity
  8
STUD
  0
POLYLINE
  5
2F4A
100
AcDbEntity
  8
STUD
100
AcDb2dPolyline
 66
     1
 10
0.0
 20
0.0
 30
0.0
 70
     1
  0
VERTEX
  5
2F4B
100
AcDbEntity
  8
STUD
100
AcDbVertex
100
AcDb2dVertex
 10
56.790896
 20
123.676355
 30
0.0
  0
VERTEX
  5
2F4C
100
AcDbEntity
  8
STUD
100
AcDbVertex
100
AcDb2dVertex
 10
57.853708
 20
124.207761
 30
0.0
 42
-0.557537
  0
VERTEX
  5
2F4D
100
AcDbEntity
  8
STUD
100
AcDbVertex
100
AcDb2dVertex
 10
58.034609
 20
124.095958
 30
0.0
  0
VERTEX
  5
2F4E
100
AcDbEntity
  8
STUD
100
AcDbVertex
100
AcDb2dVertex
 10
58.034609
 20
121.632737
 30
0.0
 42
-0.284079
  0
VERTEX
  5
2F4F
100
AcDbEntity
  8
STUD
100
AcDbVertex
100
AcDb2dVertex
 10
57.965511
 20
121.520934
 30
0.0
  0
VERTEX
  5
2F50
100
AcDbEntity
  8
STUD
100
AcDbVertex
100
AcDb2dVertex
 10
56.902699
 20
120.989528
 30
0.0
 42
-0.557537
  0
VERTEX
  5
2F51
100
AcDbEntity
  8
STUD
100
AcDbVertex
100
AcDb2dVertex
 10
56.721797
 20
121.101331
 30
0.0
  0
VERTEX
  5
2F52
100
AcDbEntity
  8
STUD
100
AcDbVertex
100
AcDb2dVertex
 10
56.721797
 20
123.564552
 30
0.0
 42
-0.284079
  0
SEQEND
  5
2F53
100
AcDbEntity
  8
STUD
  0
LINE
  5
2F54
100
AcDbEntity
  8
STUD
100
AcDbLine
 10
57.048459
 20
123.805137
 30
0.0
 11
57.048459
 21
121.08762
 31
0.0
  0
LINE
  5
2F55
100
AcDbEntity
  8
STUD
100
AcDbLine
 10
26.459325
 20
139.971831
 30
0.0
 11
26.459325
 21
137.257395
 31
0.0
  0
POLYLINE
  5
2F56
100
AcDbEntity
  8
STUD
100
AcDb2dPolyline
 66
     1
 10
0.0
 20
0.0
 30
0.0
  0
VERTEX
  5
2F57
100
AcDbEntity
  8
STUD
100
AcDbVertex
100
AcDb2dVertex
 10
25.690878
 20
136.873172
 30
0.0
  0
VERTEX
  5
2F58
100
AcDbEntity
  8
STUD
100
AcDbVertex
100
AcDb2dVertex
 10
26.817746
 20
137.436606
 30
0.0
 42
0.284079
  0
VERTEX
  5
2F59
100
AcDbEntity
  8
STUD
100
AcDbVertex
100
AcDb2dVertex
 10
26.874379
 20
137.52824
 30
0.0
  0
VERTEX
  5
2F5A
100
AcDbEntity
  8
STUD
100
AcDbVertex
100
AcDb2dVertex
 10
26.874379
 20
139.99146
 30
0.0
 42
0.447316
  0
VERTEX
  5
2F5B
100
AcDbEntity
  8
STUD
100
AcDbVertex
100
AcDb2dVertex
 10
26.716027
 20
140.103264
 30
0.0
  0
SEQEND
  5
2F5C
100
AcDbEntity
  8
STUD
  0
POLYLINE
  5
2F5D
100
AcDbEntity
  8
STUD
100
AcDb2dPolyline
 66
     1
 10
0.0
 20
0.0
 30
0.0
 70
     1
  0
VERTEX
  5
2F5E
100
AcDbEntity
  8
STUD
100
AcDbVertex
100
AcDb2dVertex
 10
25.653215
 20
139.571858
 30
0.0
  0
VERTEX
  5
2F5F
100
AcDbEntity
  8
STUD
100
AcDbVertex
100
AcDb2dVertex
 10
26.716027
 20
140.103264
 30
0.0
 42
-0.557537
  0
VERTEX
  5
2F60
100
AcDbEntity
  8
STUD
100
AcDbVertex
100
AcDb2dVertex
 10
26.896929
 20
139.99146
 30
0.0
  0
VERTEX
  5
2F61
100
AcDbEntity
  8
STUD
100
AcDbVertex
100
AcDb2dVertex
 10
26.896929
 20
137.52824
 30
0.0
 42
-0.284079
  0
VERTEX
  5
2F62
100
AcDbEntity
  8
STUD
100
AcDbVertex
100
AcDb2dVertex
 10
26.827831
 20
137.416436
 30
0.0
  0
VERTEX
  5
2F63
100
AcDbEntity
  8
STUD
100
AcDbVertex
100
AcDb2dVertex
 10
25.765019
 20
136.88503
 30
0.0
 42
-0.557537
  0
VERTEX
  5
2F64
100
AcDbEntity
  8
STUD
100
AcDbVertex
100
AcDb2dVertex
 10
25.584117
 20
136.996834
 30
0.0
  0
VERTEX
  5
2F65
100
AcDbEntity
  8
STUD
100
AcDbVertex
100
AcDb2dVertex
 10
25.584117
 20
139.460054
 30
0.0
 42
-0.284079
  0
SEQEND
  5
2F66
100
AcDbEntity
  8
STUD
  0
LINE
  5
2F67
100
AcDbEntity
  8
STUD
100
AcDbLine
 10
25.910779
 20
139.70064
 30
0.0
 11
25.910779
 21
136.983122
 31
0.0
  0
POLYLINE
  5
2FCC
100
AcDbEntity
  8
TRACK
100
AcDb2dPolyline
 66
     1
 10
0.0
 20
0.0
 30
0.0
  0
VERTEX
  5
2FCD
100
AcDbEntity
  8
TRACK
100
AcDbVertex
100
AcDb2dVertex
 10
84.888701
 20
93.692965
 30
0.0
  0
VERTEX
  5
2FCE
100
AcDbEntity
  8
TRACK
100
AcDbVertex
100
AcDb2dVertex
 10
85.139708
 20
93.818468
 30
0.0
  0
SEQEND
  5
2FCF
100
AcDbEntity
  8
TRACK
  0
LINE
  5
2FD0
100
AcDbEntity
  8
STUD
100
AcDbLine
 10
85.221527
 20
93.778695
 30
0.0
 11
85.326305
 21
93.778695
 31
0.0
  0
LINE
  5
2FD1
100
AcDbEntity
  8
STUD
100
AcDbLine
 10
85.326305
 20
93.778695
 30
0.0
 11
85.437247
 21
93.843092
 31
0.0
  0
LINE
  5
2FDB
100
AcDbEntity
  8
TRACK
100
AcDbLine
 10
84.77776
 20
113.834517
 30
0.0
 11
85.257554
 21
114.114131
 31
0.0
  0
LINE
  5
2FDC
100
AcDbEntity
  8
STUD
100
AcDbLine
 10
83.79161
 20
95.861937
 30
0.0
 11
83.79161
 21
112.690568
 31
0.0
  0
LINE
  5
2FDD
100
AcDbEntity
  8
STUD
100
AcDbLine
 10
83.79161
 20
112.690568
 30
0.0
 11
83.79161
 21
95.861937
 31
0.0
  0
LINE
  5
2FDE
100
AcDbEntity
  8
STUD
100
AcDbLine
 10
83.79161
 20
95.861937
 30
0.0
 11
83.79161
 21
112.690568
 31
0.0
  0
LINE
  5
2FE1
100
AcDbEntity
  8
STUD
100
AcDbLine
 10
85.257834
 20
113.431631
 30
0.0
 11
84.888701
 21
113.618797
 31
0.0
  0
ARC
  5
2FE2
100
AcDbEntity
  8
STUD
100
AcDbCircle
 10
85.343612
 20
113.474547
 30
0.0
 40
0.095915
100
AcDbArc
 50
206.579883
 51
347.484113
  0
LINE
  5
2FE3
100
AcDbEntity
  8
STUD
100
AcDbLine
 10
85.221527
 20
113.292135
 30
0.0
 11
85.458879
 21
113.265278
 31
0.0
  0
LINE
  5
2FE5
100
AcDbEntity
  8
TRACK
100
AcDbLine
 10
41.368677
 20
117.01485
 30
0.0
 11
41.472652
 21
117.07368
 31
0.0
  0
LINE
  5
2FEE
100
AcDbEntity
  8
STUD
100
AcDbLine
 10
73.81917
 20
102.764986
 30
0.0
 11
73.81917
 21
117.674338
 31
0.0
  0
LINE
  5
2FEF
100
AcDbEntity
  8
STUD
100
AcDbLine
 10
73.81917
 20
117.674338
 30
0.0
 11
73.81917
 21
102.764986
 31
0.0
  0
LINE
  5
2FF0
100
AcDbEntity
  8
STUD
100
AcDbLine
 10
73.81917
 20
102.764986
 30
0.0
 11
73.81917
 21
117.674338
 31
0.0
  0
LINE
  5
2FF1
100
AcDbEntity
  8
STUD
100
AcDbLine
 10
73.81917
 20
117.674338
 30
0.0
 11
73.81917
 21
102.764986
 31
0.0
  0
LINE
  5
2FF2
100
AcDbEntity
  8
STUD
100
AcDbLine
 10
73.81917
 20
102.764986
 30
0.0
 11
73.81917
 21
117.701567
 31
0.0
  0
LINE
  5
2FF3
100
AcDbEntity
  8
STUD
100
AcDbLine
 10
68.993199
 20
120.126544
 30
0.0
 11
68.993199
 21
103.202589
 31
0.0
  0
LINE
  5
2FF4
100
AcDbEntity
  8
STUD
100
AcDbLine
 10
69.104141
 20
103.202589
 30
0.0
 11
69.104141
 21
120.084242
 31
0.0
  0
LINE
  5
2FF5
100
AcDbEntity
  8
STUD
100
AcDbLine
 10
70.416953
 20
102.543102
 30
0.0
 11
70.416953
 21
119.430917
 31
0.0
  0
LINE
  5
2FF6
100
AcDbEntity
  8
STUD
100
AcDbLine
 10
70.527895
 20
102.543102
 30
0.0
 11
70.527895
 21
119.430917
 31
0.0
  0
LINE
  5
2FF7
100
AcDbEntity
  8
STUD
100
AcDbLine
 10
70.527895
 20
119.430917
 30
0.0
 11
70.527895
 21
102.543102
 31
0.0
  0
LINE
  5
2FF8
100
AcDbEntity
  8
STUD
100
AcDbLine
 10
70.527895
 20
102.543102
 30
0.0
 11
70.527895
 21
119.355383
 31
0.0
  0
LINE
  5
2FFC
100
AcDbEntity
  8
STUD
100
AcDbLine
 10
23.174213
 20
69.866605
 30
0.0
 11
23.174213
 21
94.246214
 31
0.0
  0
LINE
  5
2FFE
100
AcDbEntity
  8
STUD
100
AcDbLine
 10
24.597967
 20
69.156942
 30
0.0
 11
24.597967
 21
93.44582
 31
0.0
  0
LINE
  5
3000
100
AcDbEntity
  8
STUD
100
AcDbLine
 10
24.487025
 20
69.212449
 30
0.0
 11
24.478404
 21
93.493239
 31
0.0
  0
LINE
  5
3006
100
AcDbEntity
  8
STUD
100
AcDbLine
 10
27.889242
 20
69.318059
 30
0.0
 11
27.889242
 21
95.344483
 31
0.0
  0
LINE
  5
3011
100
AcDbEntity
  8
TRACK
100
AcDbLine
 10
18.681068
 20
72.060788
 30
0.0
 11
18.738457
 21
72.088597
 31
0.0
  0
POLYLINE
  5
3012
100
AcDbEntity
  8
TRACK
100
AcDb2dPolyline
 66
     1
 10
0.0
 20
0.0
 30
0.0
  0
VERTEX
  5
3013
100
AcDbEntity
  8
TRACK
100
AcDbVertex
100
AcDb2dVertex
 10
40.931073
 20
60.985093
 30
0.0
  0
VERTEX
  5
3014
100
AcDbEntity
  8
TRACK
100
AcDbVertex
100
AcDb2dVertex
 10
18.738457
 20
72.088597
 30
0.0
  0
SEQEND
  5
3015
100
AcDbEntity
  8
TRACK
  0
POLYLINE
  5
3016
100
AcDbEntity
  8
TRACK
100
AcDb2dPolyline
 66
     1
 10
0.0
 20
0.0
 30
0.0
  0
VERTEX
  5
3017
100
AcDbEntity
  8
TRACK
100
AcDbVertex
100
AcDb2dVertex
 10
23.063271
 20
73.30924
 30
0.0
  0
VERTEX
  5
3018
100
AcDbEntity
  8
TRACK
100
AcDbVertex
100
AcDb2dVertex
 10
22.182576
 20
73.757526
 30
0.0
  0
SEQEND
  5
3019
100
AcDbEntity
  8
TRACK
  0
LINE
  5
301A
100
AcDbEntity
  8
TRACK
100
AcDbLine
 10
22.077122
 20
73.706425
 30
0.0
 11
22.182576
 21
73.757526
 31
0.0
  0
LINE
  5
301B
100
AcDbEntity
  8
TRACK
100
AcDbLine
 10
107.471532
 20
27.659393
 30
0.0
 11
107.548957
 21
27.696911
 31
0.0
  0
LINE
  5
301C
100
AcDbEntity
  8
TRACK
100
AcDbLine
 10
110.78003
 20
29.262603
 30
0.0
 11
110.778941
 21
27.703751
 31
0.0
  0
LINE
  5
301D
100
AcDbEntity
  8
TRACK
100
AcDbLine
 10
110.778941
 20
27.703751
 30
0.0
 11
107.548957
 21
26.129643
 31
0.0
  0
LINE
  5
301E
100
AcDbEntity
  8
TRACK
100
AcDbLine
 10
107.548957
 20
27.696911
 30
0.0
 11
107.548957
 21
26.129643
 31
0.0
  0
LINE
  5
301F
100
AcDbEntity
  8
TRACK
100
AcDbLine
 10
110.78003
 20
29.262603
 30
0.0
 11
110.867586
 21
29.30503
 31
0.0
  0
POLYLINE
  5
3020
100
AcDbEntity
  8
TRACK
100
AcDb2dPolyline
 66
     1
 10
0.0
 20
0.0
 30
0.0
  0
VERTEX
  5
3021
100
AcDbEntity
  8
TRACK
100
AcDbVertex
100
AcDb2dVertex
 10
110.778969
 20
27.743728
 30
0.0
  0
VERTEX
  5
3022
100
AcDbEntity
  8
TRACK
100
AcDbVertex
100
AcDb2dVertex
 10
103.242845
 20
31.518423
 30
0.0
  0
SEQEND
  5
3023
100
AcDbEntity
  8
TRACK
  0
POLYLINE
  5
3024
100
AcDbEntity
  8
TRACK
100
AcDb2dPolyline
 66
     1
 10
0.0
 20
0.0
 30
0.0
  0
VERTEX
  5
3025
100
AcDbEntity
  8
TRACK
100
AcDbVertex
100
AcDb2dVertex
 10
110.778941
 20
27.703751
 30
0.0
  0
VERTEX
  5
3026
100
AcDbEntity
  8
TRACK
100
AcDbVertex
100
AcDb2dVertex
 10
103.194107
 20
31.499213
 30
0.0
  0
SEQEND
  5
3027
100
AcDbEntity
  8
TRACK
  0
LINE
  5
3028
100
AcDbEntity
  8
TRACK
100
AcDbLine
 10
85.221527
 20
38.728125
 30
0.0
 11
85.221527
 21
37.08945
 31
0.0
  0
LINE
  5
3029
100
AcDbEntity
  8
TRACK
100
AcDbLine
 10
107.471532
 20
27.659393
 30
0.0
 11
85.221527
 21
38.728125
 31
0.0
  0
LINE
  5
302A
100
AcDbEntity
  8
TRACK
100
AcDbLine
 10
85.437247
 20
38.751834
 30
0.0
 11
86.756223
 21
38.099193
 31
0.0
  0
LEADER
  5
3063
100
AcDbEntity
  8
D-TEXT
100
AcDbLeader
  3
LEADER
 72
     1
 73
     0
 74
     0
 40
2.0
 41
18.896552
 76
     3
 10
33.604638
 20
148.789394
 30
0.0
 10
39.854344
 20
151.930005
 30
0.0
 10
51.431667
 20
152.817569
 30
0.0
 77
   256
  0
MTEXT
  5
3064
100
AcDbEntity
  8
D-TEXT
100
AcDbMText
 10
52.431667
 20
152.817569
 30
0.0
 40
2.0
 41
0.0
 71
     4
 72
     1
  1
TOP TRACK
  7
ARCH
  0
LEADER
  5
3065
100
AcDbEntity
  8
D-TEXT
100
AcDbLeader
  3
LEADER
 72
     1
 73
     0
 74
     0
 40
2.0
 41
25.310345
 76
     3
 10
55.568301
 20
131.647895
 30
0.0
 10
67.655643
 20
137.986137
 30
0.0
 10
72.609472
 20
137.986137
 30
0.0
 77
   256
  0
MTEXT
  5
3066
100
AcDbEntity
  8
D-TEXT
100
AcDbMText
 10
73.609472
 20
137.986137
 30
0.0
 40
2.0
 41
0.0
 71
     4
 72
     1
  1
LINTEL MEMBER
  7
ARCH
  0
LEADER
  5
3067
100
AcDbEntity
  8
D-TEXT
100
AcDbLeader
  3
LEADER
 72
     1
 73
     0
 74
     0
 40
2.0
 41
22.827586
 76
     3
 10
71.564351
 20
110.537617
 30
0.0
 10
84.894967
 20
126.498074
 30
0.0
 10
92.02848
 20
127.092284
 30
0.0
 77
   256
  0
MTEXT
  5
3068
100
AcDbEntity
  8
D-TEXT
100
AcDbMText
 10
93.02848
 20
127.092284
 30
0.0
 40
2.0
 41
0.0
 71
     4
 72
     1
  1
CRIPPLE STUD
  7
ARCH
  0
LEADER
  5
3069
100
AcDbEntity
  8
D-TEXT
100
AcDbLeader
  3
LEADER
 72
     1
 73
     0
 74
     0
 40
2.0
 41
24.62069
 76
     4
 10
48.355837
 20
111.881301
 30
0.0
 10
48.831094
 20
102.531598
 30
0.0
 10
49.601403
 20
95.828102
 30
0.0
 10
55.370148
 20
93.872516
 30
0.0
 77
   256
  0
MTEXT
  5
306A
100
AcDbEntity
  8
D-TEXT
100
AcDbMText
 10
56.370148
 20
93.607665
 30
0.0
 40
2.0
 41
0.0
 71
     4
 72
     1
  1
HEADER PLATE
  7
ARCH
  0
LINE
  5
3290
100
AcDbEntity
  8
STUD
100
AcDbLine
 10
27.883079
 20
104.444662
 30
0.0
 11
27.889242
 21
147.603985
 31
0.0
  0
LINE
  5
3291
100
AcDbEntity
  8
STUD
100
AcDbLine
 10
24.487025
 20
102.604938
 30
0.0
 11
24.487025
 21
149.249622
 31
0.0
  0
LINE
  5
3292
100
AcDbEntity
  8
STUD
100
AcDbLine
 10
24.597967
 20
102.548002
 30
0.0
 11
24.597967
 21
149.249622
 31
0.0
  0
LINE
  5
3293
100
AcDbEntity
  8
STUD
100
AcDbLine
 10
23.174213
 20
103.36289
 30
0.0
 11
23.174213
 21
149.902947
 31
0.0
  0
LINE
  5
3294
100
AcDbEntity
  8
STUD
100
AcDbLine
 10
23.063271
 20
103.426942
 30
0.0
 11
23.063271
 21
149.902947
 31
0.0
  0
POLYLINE
  5
329F
100
AcDbEntity
  8
STUD
100
AcDb2dPolyline
 66
     1
 10
0.0
 20
0.0
 30
0.0
  0
VERTEX
  5
32A0
100
AcDbEntity
  8
STUD
100
AcDbVertex
100
AcDb2dVertex
 10
98.700962
 20
32.047759
 30
0.0
  0
VERTEX
  5
32A1
100
AcDbEntity
  8
STUD
100
AcDbVertex
100
AcDb2dVertex
 10
98.727097
 20
56.546334
 30
0.0
  0
SEQEND
  5
32A2
100
AcDbEntity
  8
STUD
  0
POLYLINE
  5
32A3
100
AcDbEntity
  8
STUD
100
AcDb2dPolyline
 66
     1
 10
0.0
 20
0.0
 30
0.0
  0
VERTEX
  5
32A4
100
AcDbEntity
  8
STUD
100
AcDbVertex
100
AcDb2dVertex
 10
98.700962
 20
62.353708
 30
0.0
  0
VERTEX
  5
32A5
100
AcDbEntity
  8
STUD
100
AcDbVertex
100
AcDb2dVertex
 10
98.700962
 20
112.195043
 30
0.0
  0
SEQEND
  5
32A6
100
AcDbEntity
  8
STUD
  0
POLYLINE
  5
32AF
100
AcDbEntity
  8
STUD
100
AcDb2dPolyline
 66
     1
 10
0.0
 20
0.0
 30
0.0
  0
VERTEX
  5
32B0
100
AcDbEntity
  8
STUD
100
AcDbVertex
100
AcDb2dVertex
 10
100.124716
 20
31.388272
 30
0.0
  0
VERTEX
  5
32B1
100
AcDbEntity
  8
STUD
100
AcDbVertex
100
AcDb2dVertex
 10
100.148714
 20
55.68651
 30
0.0
  0
SEQEND
  5
32B2
100
AcDbEntity
  8
STUD
  0
POLYLINE
  5
32C6
100
AcDbEntity
  8
STUD
100
AcDb2dPolyline
 66
     1
 10
0.0
 20
0.0
 30
0.0
  0
VERTEX
  5
32C7
100
AcDbEntity
  8
STUD
100
AcDbVertex
100
AcDb2dVertex
 10
37.861682
 20
142.616433
 30
0.0
  0
VERTEX
  5
32C8
100
AcDbEntity
  8
STUD
100
AcDbVertex
100
AcDb2dVertex
 10
37.921301
 20
96.306437
 30
0.0
  0
VERTEX
  5
48B5
100
AcDbEntity
  8
STUD
100
AcDbVertex
100
AcDb2dVertex
 10
37.972624
 20
96.16155
 30
0.0
  0
SEQEND
  5
32C9
100
AcDbEntity
  8
STUD
  0
POLYLINE
  5
32DA
100
AcDbEntity
  8
STUD
100
AcDb2dPolyline
 66
     1
 10
0.0
 20
0.0
 30
0.0
  0
VERTEX
  5
32DB
100
AcDbEntity
  8
STUD
100
AcDbVertex
100
AcDb2dVertex
 10
39.285436
 20
95.381854
 30
0.0
  0
VERTEX
  5
32DC
100
AcDbEntity
  8
STUD
100
AcDbVertex
100
AcDb2dVertex
 10
39.285436
 20
141.902806
 30
0.0
  0
SEQEND
  5
32DD
100
AcDbEntity
  8
STUD
  0
POLYLINE
  5
32EC
100
AcDbEntity
  8
STUD
100
AcDb2dPolyline
 66
     1
 10
0.0
 20
0.0
 30
0.0
  0
VERTEX
  5
32ED
100
AcDbEntity
  8
STUD
100
AcDbVertex
100
AcDb2dVertex
 10
40.499472
 20
98.896197
 30
0.0
  0
VERTEX
  5
32EE
100
AcDbEntity
  8
STUD
100
AcDbVertex
100
AcDb2dVertex
 10
40.499472
 20
135.675411
 30
0.0
  0
SEQEND
  5
32EF
100
AcDbEntity
  8
STUD
  0
POLYLINE
  5
32F0
100
AcDbEntity
  8
STUD
100
AcDb2dPolyline
 66
     1
 10
0.0
 20
0.0
 30
0.0
  0
VERTEX
  5
32F1
100
AcDbEntity
  8
STUD
100
AcDbVertex
100
AcDb2dVertex
 10
44.222348
 20
61.206977
 30
0.0
  0
VERTEX
  5
32F2
100
AcDbEntity
  8
STUD
100
AcDbVertex
100
AcDb2dVertex
 10
44.222348
 20
87.17793
 30
0.0
  0
SEQEND
  5
32F3
100
AcDbEntity
  8
STUD
  0
POLYLINE
  5
32F4
100
AcDbEntity
  8
STUD
100
AcDb2dPolyline
 66
     1
 10
0.0
 20
0.0
 30
0.0
  0
VERTEX
  5
32F5
100
AcDbEntity
  8
STUD
100
AcDbVertex
100
AcDb2dVertex
 10
44.222348
 20
100.619516
 30
0.0
  0
VERTEX
  5
32F6
100
AcDbEntity
  8
STUD
100
AcDbVertex
100
AcDb2dVertex
 10
44.222348
 20
113.945459
 30
0.0
  0
SEQEND
  5
32F7
100
AcDbEntity
  8
STUD
  0
LINE
  5
3341
100
AcDbEntity
  8
STUD
100
AcDbLine
 10
103.415991
 20
31.610155
 30
0.0
 11
103.411068
 21
57.570031
 31
0.0
  0
LINE
  5
3342
100
AcDbEntity
  8
STUD
100
AcDbLine
 10
100.124716
 20
61.531704
 30
0.0
 11
100.124716
 21
111.424614
 31
0.0
  0
LINE
  5
3344
100
AcDbEntity
  8
STUD
100
AcDbLine
 10
100.019938
 20
31.388272
 30
0.0
 11
100.081071
 21
55.68651
 31
0.0
  0
LINE
  5
334A
100
AcDbEntity
  8
STUD
100
AcDbLine
 10
89.677058
 20
73.222192
 30
0.0
 11
89.681174
 21
70.819277
 31
0.0
  0
LINE
  5
334B
100
AcDbEntity
  8
STUD
100
AcDbLine
 10
103.415991
 20
63.431922
 30
0.0
 11
103.415991
 21
109.778976
 31
0.0
  0
LINE
  5
334C
100
AcDbEntity
  8
STUD
100
AcDbLine
 10
100.019938
 20
61.592198
 30
0.0
 11
100.019938
 21
111.424614
 31
0.0
  0
LINE
  5
334D
100
AcDbEntity
  8
STUD
100
AcDbLine
 10
98.59002
 20
62.417761
 30
0.0
 11
98.59002
 21
112.195043
 31
0.0
  0
ELLIPSE
  5
335C
100
AcDbEntity
  8
D-TEXT
100
AcDbEllipse
 10
47.569099
 20
126.269691
 30
0.0
 11
11.90076959315507
 21
-20.61273758451536
 31
0.0
210
0.0
220
0.0
230
1.0
 40
0.57735
 41
0.0000000000000292
 42
6.283185307179629
1001
PE_URL
1000
6020-018.dwf
  0
LEADER
  5
335D
100
AcDbEntity
  8
D-TEXT
100
AcDbLeader
  3
LEADER
 72
     1
 73
     0
 74
     0
 40
2.0
 41
1.862069
 76
     3
 10
53.270156
 20
141.263135
 30
0.0
 10
56.364669
 20
144.004066
 30
0.0
 10
63.861202
 20
145.019691
 30
0.0
 77
   256
1001
PE_URL
1000
6020-018.dwf
  0
INSERT
  5
339C
100
AcDbEntity
  8
D-TEXT
100
AcDbBlockReference
 66
     1
  2
DETAIL_MARK
 10
69.040201
 20
144.988441
 30
0.0
1001
PE_URL
1000
6020-018.dwf
  0
ATTRIB
  5
339D
100
AcDbEntity
  8
0
100
AcDbText
 10
68.419512
 20
145.953958
 30
0.0
 40
2.0
  1
-
  7
ARCH
 72
     1
 11
69.040201
 21
144.988441
 31
0.0
100
AcDbAttribute
  2
DETAIL_#
 70
     0
 74
     1
  0
ATTRIB
  5
339E
100
AcDbEntity
  8
0
100
AcDbText
 10
65.833305
 20
142.203958
 30
0.0
 40
2.0
  1
S-18
  7
ARCH
 72
     1
 11
69.040201
 21
141.238441
 31
0.0
100
AcDbAttribute
  2
DETAIL_PAGE
 70
     0
 74
     1
  0
SEQEND
  5
339F
100
AcDbEntity
  8
D-TEXT
  0
LINE
  5
33FB
100
AcDbEntity
  8
FASTENER
100
AcDbLine
 10
39.892968
 20
60.873384
 30
0.0
 11
39.892968
 21
60.498384
 31
0.0
  0
LINE
  5
33FC
100
AcDbEntity
  8
FASTENER
100
AcDbLine
 10
40.055348
 20
60.592134
 30
0.0
 11
39.730588
 21
60.779634
 31
0.0
  0
ELLIPSE
  5
33FD
100
AcDbEntity
  8
FASTENER
100
AcDbEllipse
 10
39.892968
 20
60.685884
 30
0.0
 11
0.114819831692953
 21
-0.1988737822087213
 31
0.0
210
0.0
220
0.0
230
1.0
 40
0.57735
 41
0.0000000000000128
 42
6.283185307179612
  0
ELLIPSE
  5
3401
100
AcDbEntity
  8
FASTENER
100
AcDbEllipse
 10
38.434571
 20
61.33646
 30
0.0
 11
0.114819831692953
 21
-0.1988737822087213
 31
0.0
210
0.0
220
0.0
230
1.0
 40
0.57735
 41
0.0000000000000128
 42
6.283185307179612
  0
LINE
  5
3402
100
AcDbEntity
  8
FASTENER
100
AcDbLine
 10
38.59695
 20
61.24271
 30
0.0
 11
38.272191
 21
61.43021
 31
0.0
  0
LINE
  5
3403
100
AcDbEntity
  8
FASTENER
100
AcDbLine
 10
38.434571
 20
61.52396
 30
0.0
 11
38.434571
 21
61.14896
 31
0.0
  0
ELLIPSE
  5
3404
100
AcDbEntity
  8
FASTENER
100
AcDbEllipse
 10
23.613361
 20
68.8651
 30
0.0
 11
0.114819831692953
 21
-0.1988737822087213
 31
0.0
210
0.0
220
0.0
230
1.0
 40
0.57735
 41
-0.0000000000000105
 42
6.283185307179589
  0
LINE
  5
3405
100
AcDbEntity
  8
FASTENER
100
AcDbLine
 10
23.77574
 20
68.77135
 30
0.0
 11
23.450981
 21
68.95885
 31
0.0
  0
LINE
  5
3406
100
AcDbEntity
  8
FASTENER
100
AcDbLine
 10
23.613361
 20
69.0526
 30
0.0
 11
23.613361
 21
68.6776
 31
0.0
  0
ELLIPSE
  5
3407
100
AcDbEntity
  8
FASTENER
100
AcDbEllipse
 10
85.954742
 20
37.561056
 30
0.0
 11
0.114819831692953
 21
-0.1988737822087213
 31
0.0
210
0.0
220
0.0
230
1.0
 40
0.57735
 41
0.0000000000000128
 42
6.283185307179612
  0
LINE
  5
3408
100
AcDbEntity
  8
FASTENER
100
AcDbLine
 10
86.117122
 20
37.467306
 30
0.0
 11
85.792362
 21
37.654806
 31
0.0
  0
LINE
  5
3409
100
AcDbEntity
  8
FASTENER
100
AcDbLine
 10
85.954742
 20
37.748556
 30
0.0
 11
85.954742
 21
37.373556
 31
0.0
  0
ELLIPSE
  5
340D
100
AcDbEntity
  8
FASTENER
100
AcDbEllipse
 10
87.348194
 20
36.807023
 30
0.0
 11
0.114819831692953
 21
-0.1988737822087213
 31
0.0
210
0.0
220
0.0
230
1.0
 40
0.57735
 41
0.0000000000000128
 42
6.283185307179612
  0
LINE
  5
340E
100
AcDbEntity
  8
FASTENER
100
AcDbLine
 10
87.510574
 20
36.713273
 30
0.0
 11
87.185814
 21
36.900773
 31
0.0
  0
LINE
  5
340F
100
AcDbEntity
  8
FASTENER
100
AcDbLine
 10
87.348194
 20
36.994523
 30
0.0
 11
87.348194
 21
36.619523
 31
0.0
  0
ELLIPSE
  5
3410
100
AcDbEntity
  8
FASTENER
100
AcDbEllipse
 10
99.222829
 20
31.067989
 30
0.0
 11
0.114819831692953
 21
-0.1988737822087213
 31
0.0
210
0.0
220
0.0
230
1.0
 40
0.57735
 41
0.0000000000000128
 42
6.283185307179612
  0
LINE
  5
3411
100
AcDbEntity
  8
FASTENER
100
AcDbLine
 10
99.385209
 20
30.974239
 30
0.0
 11
99.06045
 21
31.161739
 31
0.0
  0
LINE
  5
3412
100
AcDbEntity
  8
FASTENER
100
AcDbLine
 10
99.222829
 20
31.255489
 30
0.0
 11
99.222829
 21
30.880489
 31
0.0
  0
LINE
  5
3414
100
AcDbEntity
  8
FASTENER
100
AcDbLine
 10
39.960922
 20
140.034253
 30
0.0
 11
39.960922
 21
139.659253
 31
0.0
  0
LINE
  5
3415
100
AcDbEntity
  8
FASTENER
100
AcDbLine
 10
40.123302
 20
139.753003
 30
0.0
 11
39.798542
 21
139.940503
 31
0.0
  0
ELLIPSE
  5
3416
100
AcDbEntity
  8
FASTENER
100
AcDbEllipse
 10
39.960922
 20
139.846753
 30
0.0
 11
0.114819831692953
 21
-0.1988737822087213
 31
0.0
210
0.0
220
0.0
230
1.0
 40
0.57735
 41
0.0000000000000128
 42
6.283185307179612
  0
LINE
  5
3417
100
AcDbEntity
  8
FASTENER
100
AcDbLine
 10
86.015327
 20
117.053981
 30
0.0
 11
86.015327
 21
116.678981
 31
0.0
  0
LINE
  5
3418
100
AcDbEntity
  8
FASTENER
100
AcDbLine
 10
86.177706
 20
116.772731
 30
0.0
 11
85.852947
 21
116.960231
 31
0.0
  0
ELLIPSE
  5
3419
100
AcDbEntity
  8
FASTENER
100
AcDbEllipse
 10
86.015327
 20
116.866481
 30
0.0
 11
0.114819831692953
 21
-0.1988737822087213
 31
0.0
210
0.0
220
0.0
230
1.0
 40
0.57735
 41
0.0000000000000128
 42
6.283185307179612
  0
LINE
  5
3420
100
AcDbEntity
  8
FASTENER
100
AcDbLine
 10
39.960922
 20
137.891093
 30
0.0
 11
39.960922
 21
137.516093
 31
0.0
  0
LINE
  5
3421
100
AcDbEntity
  8
FASTENER
100
AcDbLine
 10
40.123302
 20
137.609843
 30
0.0
 11
39.798542
 21
137.797343
 31
0.0
  0
ELLIPSE
  5
3422
100
AcDbEntity
  8
FASTENER
100
AcDbEllipse
 10
39.960922
 20
137.703593
 30
0.0
 11
0.114819831692953
 21
-0.1988737822087213
 31
0.0
210
0.0
220
0.0
230
1.0
 40
0.57735
 41
0.0000000000000128
 42
6.283185307179612
  0
LINE
  5
3423
100
AcDbEntity
  8
FASTENER
100
AcDbLine
 10
86.015327
 20
114.811754
 30
0.0
 11
86.015327
 21
114.436754
 31
0.0
  0
LINE
  5
3424
100
AcDbEntity
  8
FASTENER
100
AcDbLine
 10
86.177706
 20
114.530504
 30
0.0
 11
85.852947
 21
114.718004
 31
0.0
  0
ELLIPSE
  5
3425
100
AcDbEntity
  8
FASTENER
100
AcDbEllipse
 10
86.015327
 20
114.624254
 30
0.0
 11
0.114819831692953
 21
-0.1988737822087213
 31
0.0
210
0.0
220
0.0
230
1.0
 40
0.57735
 41
0.0000000000000128
 42
6.283185307179612
  0
LINE
  5
342F
100
AcDbEntity
  8
FASTENER
100
AcDbLine
 10
86.015327
 20
79.487023
 30
0.0
 11
86.015327
 21
79.112023
 31
0.0
  0
LINE
  5
3430
100
AcDbEntity
  8
FASTENER
100
AcDbLine
 10
86.177706
 20
79.205773
 30
0.0
 11
85.852947
 21
79.393273
 31
0.0
  0
ELLIPSE
  5
3431
100
AcDbEntity
  8
FASTENER
100
AcDbEllipse
 10
86.015327
 20
79.299523
 30
0.0
 11
0.114819831692953
 21
-0.1988737822087213
 31
0.0
210
0.0
220
0.0
230
1.0
 40
0.57735
 41
0.0000000000000128
 42
6.283185307179612
  0
LINE
  5
3438
100
AcDbEntity
  8
FASTENER
100
AcDbLine
 10
41.712441
 20
116.261534
 30
0.0
 11
41.712441
 21
115.886534
 31
0.0
  0
LINE
  5
3439
100
AcDbEntity
  8
FASTENER
100
AcDbLine
 10
41.874821
 20
115.980284
 30
0.0
 11
41.550062
 21
116.167784
 31
0.0
  0
ELLIPSE
  5
343A
100
AcDbEntity
  8
FASTENER
100
AcDbEllipse
 10
41.712441
 20
116.074034
 30
0.0
 11
0.114819831692953
 21
-0.1988737822087213
 31
0.0
210
0.0
220
0.0
230
1.0
 40
0.57735
 41
0.0000000000000128
 42
6.283185307179612
  0
LINE
  5
3444
100
AcDbEntity
  8
FASTENER
100
AcDbLine
 10
41.680852
 20
134.622434
 30
0.0
 11
41.680852
 21
134.247434
 31
0.0
  0
LINE
  5
3445
100
AcDbEntity
  8
FASTENER
100
AcDbLine
 10
41.843232
 20
134.341184
 30
0.0
 11
41.518472
 21
134.528684
 31
0.0
  0
ELLIPSE
  5
3446
100
AcDbEntity
  8
FASTENER
100
AcDbEllipse
 10
41.680852
 20
134.434934
 30
0.0
 11
0.114819831692953
 21
-0.1988737822087213
 31
0.0
210
0.0
220
0.0
230
1.0
 40
0.57735
 41
0.0000000000000128
 42
6.283185307179612
  0
LINE
  5
344A
100
AcDbEntity
  8
FASTENER
100
AcDbLine
 10
87.348194
 20
118.699249
 30
0.0
 11
87.348194
 21
118.324249
 31
0.0
  0
LINE
  5
344B
100
AcDbEntity
  8
FASTENER
100
AcDbLine
 10
87.510574
 20
118.417999
 30
0.0
 11
87.185814
 21
118.605499
 31
0.0
  0
ELLIPSE
  5
344C
100
AcDbEntity
  8
FASTENER
100
AcDbEllipse
 10
87.348194
 20
118.511749
 30
0.0
 11
0.114819831692953
 21
-0.1988737822087213
 31
0.0
210
0.0
220
0.0
230
1.0
 40
0.57735
 41
0.0000000000000128
 42
6.283185307179612
  0
LINE
  5
344D
100
AcDbEntity
  8
FASTENER
100
AcDbLine
 10
85.954742
 20
119.453283
 30
0.0
 11
85.954742
 21
119.078283
 31
0.0
  0
LINE
  5
344E
100
AcDbEntity
  8
FASTENER
100
AcDbLine
 10
86.117122
 20
119.172033
 30
0.0
 11
85.792362
 21
119.359533
 31
0.0
  0
ELLIPSE
  5
344F
100
AcDbEntity
  8
FASTENER
100
AcDbEllipse
 10
85.954742
 20
119.265783
 30
0.0
 11
0.114819831692953
 21
-0.1988737822087213
 31
0.0
210
0.0
220
0.0
230
1.0
 40
0.57735
 41
0.0000000000000128
 42
6.283185307179612
  0
LINE
  5
3450
100
AcDbEntity
  8
TRACK
100
AcDbLine
 10
86.756223
 20
119.80392
 30
0.0
 11
86.861001
 21
119.861148
 31
0.0
  0
LINE
  5
3451
100
AcDbEntity
  8
FASTENER
100
AcDbLine
 10
99.222829
 20
112.960216
 30
0.0
 11
99.222829
 21
112.585216
 31
0.0
  0
LINE
  5
3452
100
AcDbEntity
  8
FASTENER
100
AcDbLine
 10
99.385209
 20
112.678966
 30
0.0
 11
99.06045
 21
112.866466
 31
0.0
  0
ELLIPSE
  5
3453
100
AcDbEntity
  8
FASTENER
100
AcDbEllipse
 10
99.222829
 20
112.772716
 30
0.0
 11
0.114819831692953
 21
-0.1988737822087213
 31
0.0
210
0.0
220
0.0
230
1.0
 40
0.57735
 41
0.0000000000000128
 42
6.283185307179612
  0
LINE
  5
3454
100
AcDbEntity
  8
FASTENER
100
AcDbLine
 10
38.434571
 20
143.228687
 30
0.0
 11
38.434571
 21
142.853687
 31
0.0
  0
LINE
  5
3455
100
AcDbEntity
  8
FASTENER
100
AcDbLine
 10
38.59695
 20
142.947437
 30
0.0
 11
38.272191
 21
143.134937
 31
0.0
  0
ELLIPSE
  5
3456
100
AcDbEntity
  8
FASTENER
100
AcDbEllipse
 10
38.434571
 20
143.041187
 30
0.0
 11
0.114819831692953
 21
-0.1988737822087213
 31
0.0
210
0.0
220
0.0
230
1.0
 40
0.57735
 41
0.0000000000000128
 42
6.283185307179612
  0
ELLIPSE
  5
3457
100
AcDbEntity
  8
FASTENER
100
AcDbEllipse
 10
39.892968
 20
142.390611
 30
0.0
 11
0.114819831692953
 21
-0.1988737822087213
 31
0.0
210
0.0
220
0.0
230
1.0
 40
0.57735
 41
0.0000000000000128
 42
6.283185307179612
  0
LINE
  5
3458
100
AcDbEntity
  8
FASTENER
100
AcDbLine
 10
40.055348
 20
142.296861
 30
0.0
 11
39.730588
 21
142.484361
 31
0.0
  0
LINE
  5
3459
100
AcDbEntity
  8
FASTENER
100
AcDbLine
 10
39.892968
 20
142.578111
 30
0.0
 11
39.892968
 21
142.203111
 31
0.0
  0
LINE
  5
3466
100
AcDbEntity
  8
FASTENER
100
AcDbLine
 10
23.613361
 20
150.757327
 30
0.0
 11
23.613361
 21
150.382327
 31
0.0
  0
LINE
  5
3467
100
AcDbEntity
  8
FASTENER
100
AcDbLine
 10
23.77574
 20
150.476077
 30
0.0
 11
23.450981
 21
150.663577
 31
0.0
  0
ELLIPSE
  5
3468
100
AcDbEntity
  8
FASTENER
100
AcDbEllipse
 10
23.613361
 20
150.569827
 30
0.0
 11
0.114819831692953
 21
-0.1988737822087213
 31
0.0
210
0.0
220
0.0
230
1.0
 40
0.57735
 41
-0.0000000000000105
 42
6.283185307179589
  0
POLYLINE
  5
349F
100
AcDbEntity
  8
STUD
100
AcDb2dPolyline
 66
     1
 10
0.0
 20
0.0
 30
0.0
  0
VERTEX
  5
34A0
100
AcDbEntity
  8
STUD
100
AcDbVertex
100
AcDb2dVertex
 10
101.47893
 20
62.931205
 30
0.0
  0
VERTEX
  5
34A1
100
AcDbEntity
  8
STUD
100
AcDbVertex
100
AcDb2dVertex
 10
102.11828
 20
62.112324
 30
0.0
  0
VERTEX
  5
34A3
100
AcDbEntity
  8
STUD
100
AcDbVertex
100
AcDb2dVertex
 10
102.223058
 20
62.05183
 30
0.0
  0
SEQEND
  5
34A2
100
AcDbEntity
  8
STUD
  0
LINE
  5
4194
100
AcDbEntity
  8
STUD
100
AcDbLine
 10
101.499679
 20
58.181951
 30
0.0
 11
101.499679
 21
56.38713
 31
0.0
  0
LINE
  5
4195
100
AcDbEntity
  8
STUD
100
AcDbLine
 10
101.462232
 20
58.203571
 30
0.0
 11
101.462232
 21
56.435092
 31
0.0
  0
LINE
  5
4196
100
AcDbEntity
  8
STUD
100
AcDbLine
 10
99.156479
 20
56.829104
 30
0.0
 11
99.156479
 21
56.263563
 31
0.0
  0
LINE
  5
41B7
100
AcDbEntity
  8
STUD
100
AcDbLine
 10
102.00455
 20
58.456005
 30
0.0
 11
102.00455
 21
56.801217
 31
0.0
  0
ELLIPSE
  5
41B8
100
AcDbEntity
  8
FASTENER
100
AcDbEllipse
 10
99.379219
 20
55.019556
 30
0.0
 11
0.0765465544619687
 21
-0.1325825214724809
 31
0.0
210
0.0
220
0.0
230
1.0
 40
0.57735
 41
0.0000000000000262
 42
6.283185307179626
  0
LINE
  5
41B9
100
AcDbEntity
  8
FASTENER
100
AcDbLine
 10
99.454759
 20
54.975943
 30
0.0
 11
99.303679
 21
55.063169
 31
0.0
  0
LINE
  5
41BA
100
AcDbEntity
  8
FASTENER
100
AcDbLine
 10
99.379219
 20
55.106782
 30
0.0
 11
99.379219
 21
54.93233
 31
0.0
  0
LINE
  5
41E6
100
AcDbEntity
  8
STUD
100
AcDbLine
 10
101.830227
 20
56.657332
 30
0.0
 11
101.79278
 21
56.678952
 31
0.0
  0
LINE
  5
41E8
100
AcDbEntity
  8
STUD
100
AcDbLine
 10
101.086098
 20
56.227709
 30
0.0
 11
101.048652
 21
56.260673
 31
0.0
  0
POLYLINE
  5
426A
100
AcDbEntity
  8
STUD
100
AcDb2dPolyline
 66
     1
 10
0.0
 20
0.0
 30
0.0
  0
VERTEX
  5
426B
100
AcDbEntity
  8
STUD
100
AcDbVertex
100
AcDb2dVertex
 10
101.79278
 20
56.013942
 30
0.0
  0
VERTEX
  5
426C
100
AcDbEntity
  8
STUD
100
AcDbVertex
100
AcDb2dVertex
 10
101.79278
 20
56.678952
 30
0.0
  0
VERTEX
  5
426D
100
AcDbEntity
  8
STUD
100
AcDbVertex
100
AcDb2dVertex
 10
103.392345
 20
57.602461
 30
0.0
 42
0.57735
  0
VERTEX
  5
426E
100
AcDbEntity
  8
STUD
100
AcDbVertex
100
AcDb2dVertex
 10
103.392345
 20
57.654761
 30
0.0
  0
VERTEX
  5
426F
100
AcDbEntity
  8
STUD
100
AcDbVertex
100
AcDb2dVertex
 10
102.00455
 20
58.456005
 30
0.0
 42
0.267949
  0
VERTEX
  5
4270
100
AcDbEntity
  8
STUD
100
AcDbVertex
100
AcDb2dVertex
 10
101.974354
 20
58.456005
 30
0.0
  0
VERTEX
  5
4271
100
AcDbEntity
  8
STUD
100
AcDbVertex
100
AcDb2dVertex
 10
101.499679
 20
58.181951
 30
0.0
  0
VERTEX
  5
4272
100
AcDbEntity
  8
STUD
100
AcDbVertex
100
AcDb2dVertex
 10
101.462232
 20
58.203571
 30
0.0
  0
VERTEX
  5
4273
100
AcDbEntity
  8
STUD
100
AcDbVertex
100
AcDb2dVertex
 10
101.955631
 20
58.488435
 30
0.0
 42
-0.267949
  0
VERTEX
  5
4274
100
AcDbEntity
  8
STUD
100
AcDbVertex
100
AcDb2dVertex
 10
102.023273
 20
58.488435
 30
0.0
  0
VERTEX
  5
4275
100
AcDbEntity
  8
STUD
100
AcDbVertex
100
AcDb2dVertex
 10
103.411068
 20
57.687191
 30
0.0
 42
-0.57735
  0
VERTEX
  5
4276
100
AcDbEntity
  8
STUD
100
AcDbVertex
100
AcDb2dVertex
 10
103.411068
 20
57.570031
 30
0.0
  0
VERTEX
  5
4277
100
AcDbEntity
  8
STUD
100
AcDbVertex
100
AcDb2dVertex
 10
101.830227
 20
56.657332
 30
0.0
  0
VERTEX
  5
4278
100
AcDbEntity
  8
STUD
100
AcDbVertex
100
AcDb2dVertex
 10
101.830227
 20
55.96598
 30
0.0
  0
VERTEX
  5
4279
100
AcDbEntity
  8
STUD
100
AcDbVertex
100
AcDb2dVertex
 10
101.086098
 20
56.919061
 30
0.0
  0
VERTEX
  5
427B
100
AcDbEntity
  8
STUD
100
AcDbVertex
100
AcDb2dVertex
 10
101.086098
 20
56.227709
 30
0.0
  0
VERTEX
  5
427C
100
AcDbEntity
  8
STUD
100
AcDbVertex
100
AcDb2dVertex
 10
100.148714
 20
55.68651
 30
0.0
 42
-0.267949
  0
VERTEX
  5
427D
100
AcDbEntity
  8
STUD
100
AcDbVertex
100
AcDb2dVertex
 10
100.081071
 20
55.68651
 30
0.0
  0
VERTEX
  5
427E
100
AcDbEntity
  8
STUD
100
AcDbVertex
100
AcDb2dVertex
 10
99.941562
 20
55.767056
 30
0.0
  0
VERTEX
  5
427F
100
AcDbEntity
  8
STUD
100
AcDbVertex
100
AcDb2dVertex
 10
98.693276
 20
56.487754
 30
0.0
 42
-0.57735
  0
VERTEX
  5
4280
100
AcDbEntity
  8
STUD
100
AcDbVertex
100
AcDb2dVertex
 10
98.693276
 20
56.604914
 30
0.0
  0
VERTEX
  5
4281
100
AcDbEntity
  8
STUD
100
AcDbVertex
100
AcDb2dVertex
 10
99.119033
 20
56.850724
 30
0.0
  0
VERTEX
  5
4282
100
AcDbEntity
  8
STUD
100
AcDbVertex
100
AcDb2dVertex
 10
99.156479
 20
56.829104
 30
0.0
  0
VERTEX
  5
4283
100
AcDbEntity
  8
STUD
100
AcDbVertex
100
AcDb2dVertex
 10
98.712
 20
56.572484
 30
0.0
 42
0.57735
  0
VERTEX
  5
4284
100
AcDbEntity
  8
STUD
100
AcDbVertex
100
AcDb2dVertex
 10
98.712
 20
56.520184
 30
0.0
  0
VERTEX
  5
4285
100
AcDbEntity
  8
STUD
100
AcDbVertex
100
AcDb2dVertex
 10
99.941562
 20
55.810295
 30
0.0
  0
VERTEX
  5
4286
100
AcDbEntity
  8
STUD
100
AcDbVertex
100
AcDb2dVertex
 10
100.099795
 20
55.71894
 30
0.0
 42
0.267949
  0
VERTEX
  5
4287
100
AcDbEntity
  8
STUD
100
AcDbVertex
100
AcDb2dVertex
 10
100.12999
 20
55.71894
 30
0.0
  0
VERTEX
  5
4288
100
AcDbEntity
  8
STUD
100
AcDbVertex
100
AcDb2dVertex
 10
101.048652
 20
56.260673
 30
0.0
  0
VERTEX
  5
4289
100
AcDbEntity
  8
STUD
100
AcDbVertex
100
AcDb2dVertex
 10
101.048652
 20
56.940681
 30
0.0
  0
VERTEX
  5
428A
100
AcDbEntity
  8
STUD
100
AcDbVertex
100
AcDb2dVertex
 10
101.086098
 20
56.919061
 30
0.0
  0
SEQEND
  5
428B
100
AcDbEntity
  8
STUD
  0
LINE
  5
438A
100
AcDbEntity
  8
STUD
100
AcDbLine
 10
85.458879
 20
69.996402
 30
0.0
 11
85.458879
 21
113.441273
 31
0.0
  0
POLYLINE
  5
43C1
100
AcDbEntity
  8
STUD
100
AcDb2dPolyline
 66
     1
 10
0.0
 20
0.0
 30
0.0
  0
VERTEX
  5
43C2
100
AcDbEntity
  8
STUD
100
AcDbVertex
100
AcDb2dVertex
 10
26.259868
 20
93.780399
 30
0.0
  0
VERTEX
  5
43C3
100
AcDbEntity
  8
STUD
100
AcDbVertex
100
AcDb2dVertex
 10
26.259868
 20
94.445408
 30
0.0
  0
VERTEX
  5
43C4
100
AcDbEntity
  8
STUD
100
AcDbVertex
100
AcDb2dVertex
 10
27.859432
 20
95.368917
 30
0.0
 42
0.57735
  0
VERTEX
  5
43C5
100
AcDbEntity
  8
STUD
100
AcDbVertex
100
AcDb2dVertex
 10
27.859432
 20
95.421218
 30
0.0
  0
VERTEX
  5
43C6
100
AcDbEntity
  8
STUD
100
AcDbVertex
100
AcDb2dVertex
 10
26.471637
 20
96.222461
 30
0.0
 42
0.267949
  0
VERTEX
  5
43C7
100
AcDbEntity
  8
STUD
100
AcDbVertex
100
AcDb2dVertex
 10
26.441442
 20
96.222461
 30
0.0
  0
VERTEX
  5
43C8
100
AcDbEntity
  8
STUD
100
AcDbVertex
100
AcDb2dVertex
 10
25.966767
 20
95.948408
 30
0.0
  0
VERTEX
  5
43C9
100
AcDbEntity
  8
STUD
100
AcDbVertex
100
AcDb2dVertex
 10
25.92932
 20
95.970027
 30
0.0
  0
VERTEX
  5
43CA
100
AcDbEntity
  8
STUD
100
AcDbVertex
100
AcDb2dVertex
 10
26.422718
 20
96.254891
 30
0.0
 42
-0.267949
  0
VERTEX
  5
43CB
100
AcDbEntity
  8
STUD
100
AcDbVertex
100
AcDb2dVertex
 10
26.490361
 20
96.254891
 30
0.0
  0
VERTEX
  5
43CC
100
AcDbEntity
  8
STUD
100
AcDbVertex
100
AcDb2dVertex
 10
27.878156
 20
95.453648
 30
0.0
 42
-0.57735
  0
VERTEX
  5
43CD
100
AcDbEntity
  8
STUD
100
AcDbVertex
100
AcDb2dVertex
 10
27.878156
 20
95.336488
 30
0.0
  0
VERTEX
  5
43CE
100
AcDbEntity
  8
STUD
100
AcDbVertex
100
AcDb2dVertex
 10
26.297314
 20
94.423788
 30
0.0
  0
VERTEX
  5
43CF
100
AcDbEntity
  8
STUD
100
AcDbVertex
100
AcDb2dVertex
 10
26.297314
 20
93.732437
 30
0.0
  0
VERTEX
  5
43D0
100
AcDbEntity
  8
STUD
100
AcDbVertex
100
AcDb2dVertex
 10
25.553186
 20
94.685517
 30
0.0
  0
VERTEX
  5
43D1
100
AcDbEntity
  8
STUD
100
AcDbVertex
100
AcDb2dVertex
 10
25.553186
 20
93.994166
 30
0.0
  0
VERTEX
  5
43D2
100
AcDbEntity
  8
STUD
100
AcDbVertex
100
AcDb2dVertex
 10
24.615801
 20
93.452966
 30
0.0
 42
-0.267949
  0
VERTEX
  5
43D3
100
AcDbEntity
  8
STUD
100
AcDbVertex
100
AcDb2dVertex
 10
24.548159
 20
93.452966
 30
0.0
  0
VERTEX
  5
43D4
100
AcDbEntity
  8
STUD
100
AcDbVertex
100
AcDb2dVertex
 10
24.40865
 20
93.533512
 30
0.0
  0
VERTEX
  5
43D5
100
AcDbEntity
  8
STUD
100
AcDbVertex
100
AcDb2dVertex
 10
23.160364
 20
94.25421
 30
0.0
 42
-0.57735
  0
VERTEX
  5
43D6
100
AcDbEntity
  8
STUD
100
AcDbVertex
100
AcDb2dVertex
 10
23.160364
 20
94.37137
 30
0.0
  0
VERTEX
  5
43D7
100
AcDbEntity
  8
STUD
100
AcDbVertex
100
AcDb2dVertex
 10
23.58612
 20
94.617181
 30
0.0
  0
VERTEX
  5
43D8
100
AcDbEntity
  8
STUD
100
AcDbVertex
100
AcDb2dVertex
 10
23.623567
 20
94.595561
 30
0.0
  0
VERTEX
  5
43D9
100
AcDbEntity
  8
STUD
100
AcDbVertex
100
AcDb2dVertex
 10
23.179087
 20
94.33894
 30
0.0
 42
0.57735
  0
VERTEX
  5
43DA
100
AcDbEntity
  8
STUD
100
AcDbVertex
100
AcDb2dVertex
 10
23.179087
 20
94.28664
 30
0.0
  0
VERTEX
  5
43DB
100
AcDbEntity
  8
STUD
100
AcDbVertex
100
AcDb2dVertex
 10
24.40865
 20
93.576752
 30
0.0
  0
VERTEX
  5
43DC
100
AcDbEntity
  8
STUD
100
AcDbVertex
100
AcDb2dVertex
 10
24.566882
 20
93.485396
 30
0.0
 42
0.267949
  0
VERTEX
  5
43DD
100
AcDbEntity
  8
STUD
100
AcDbVertex
100
AcDb2dVertex
 10
24.597078
 20
93.485396
 30
0.0
  0
VERTEX
  5
43DE
100
AcDbEntity
  8
STUD
100
AcDbVertex
100
AcDb2dVertex
 10
25.515739
 20
94.027129
 30
0.0
  0
VERTEX
  5
43DF
100
AcDbEntity
  8
STUD
100
AcDbVertex
100
AcDb2dVertex
 10
25.515739
 20
94.707137
 30
0.0
  0
VERTEX
  5
43E0
100
AcDbEntity
  8
STUD
100
AcDbVertex
100
AcDb2dVertex
 10
25.553186
 20
94.685517
 30
0.0
  0
SEQEND
  5
43E1
100
AcDbEntity
  8
STUD
  0
LINE
  5
43E2
100
AcDbEntity
  8
STUD
100
AcDbLine
 10
25.553186
 20
93.994166
 30
0.0
 11
25.515739
 21
94.027129
 31
0.0
  0
LINE
  5
43E3
100
AcDbEntity
  8
STUD
100
AcDbLine
 10
26.297314
 20
94.423788
 30
0.0
 11
26.259868
 21
94.445408
 31
0.0
  0
LINE
  5
43E4
100
AcDbEntity
  8
FASTENER
100
AcDbLine
 10
23.846306
 20
92.873238
 30
0.0
 11
23.846306
 21
92.698786
 31
0.0
  0
LINE
  5
43E5
100
AcDbEntity
  8
FASTENER
100
AcDbLine
 10
23.921846
 20
92.742399
 30
0.0
 11
23.770767
 21
92.829625
 31
0.0
  0
ELLIPSE
  5
43E6
100
AcDbEntity
  8
FASTENER
100
AcDbEllipse
 10
23.846306
 20
92.786012
 30
0.0
 11
0.0765465544619687
 21
-0.1325825214724809
 31
0.0
210
0.0
220
0.0
230
1.0
 40
0.57735
 41
-0.000000000000049
 42
6.283185307179551
  0
LINE
  5
43E7
100
AcDbEntity
  8
STUD
100
AcDbLine
 10
26.471637
 20
96.222461
 30
0.0
 11
26.471637
 21
94.567674
 31
0.0
  0
LINE
  5
43E8
100
AcDbEntity
  8
STEEL
100
AcDbLine
 10
23.623567
 20
94.595561
 30
0.0
 11
23.623567
 21
94.030019
 31
0.0
  0
LINE
  5
43E9
100
AcDbEntity
  8
STEEL
100
AcDbLine
 10
25.92932
 20
95.970027
 30
0.0
 11
25.92932
 21
94.201548
 31
0.0
  0
LINE
  5
43EA
100
AcDbEntity
  8
STEEL
100
AcDbLine
 10
25.966767
 20
95.948408
 30
0.0
 11
25.966767
 21
94.153586
 31
0.0
  0
POLYLINE
  5
44E9
100
AcDbEntity
  8
STUD
100
AcDb2dPolyline
 66
     1
 10
0.0
 20
0.0
 30
0.0
  0
VERTEX
  5
44EA
100
AcDbEntity
  8
STUD
100
AcDbVertex
100
AcDb2dVertex
 10
90.100012
 20
71.17635
 30
0.0
 42
-0.57735
  0
VERTEX
  5
44EB
100
AcDbEntity
  8
STUD
100
AcDbVertex
100
AcDb2dVertex
 10
90.100012
 20
71.061094
 30
0.0
  0
VERTEX
  5
44EC
100
AcDbEntity
  8
STUD
100
AcDbVertex
100
AcDb2dVertex
 10
89.681174
 20
70.819277
 30
0.0
  0
VERTEX
  5
44ED
100
AcDbEntity
  8
STUD
100
AcDbVertex
100
AcDb2dVertex
 10
89.644336
 20
70.840546
 30
0.0
  0
SEQEND
  5
44EE
100
AcDbEntity
  8
STUD
  0
LINE
  5
44FC
100
AcDbEntity
  8
STUD
100
AcDbLine
 10
89.640292
 20
73.200966
 30
0.0
 11
89.644336
 21
70.840546
 31
0.0
  0
POLYLINE
  5
44FD
100
AcDbEntity
  8
STUD
100
AcDb2dPolyline
 66
     1
 10
0.0
 20
0.0
 30
0.0
  0
VERTEX
  5
44FE
100
AcDbEntity
  8
STUD
100
AcDbVertex
100
AcDb2dVertex
 10
87.376049
 20
69.488412
 30
0.0
  0
VERTEX
  5
44FF
100
AcDbEntity
  8
STUD
100
AcDbVertex
100
AcDb2dVertex
 10
86.890667
 20
69.208177
 30
0.0
 42
-0.267949
  0
VERTEX
  5
4500
100
AcDbEntity
  8
STUD
100
AcDbVertex
100
AcDb2dVertex
 10
86.824124
 20
69.208177
 30
0.0
  0
VERTEX
  5
4501
100
AcDbEntity
  8
STUD
100
AcDbVertex
100
AcDb2dVertex
 10
85.458879
 20
69.996402
 30
0.0
 42
-0.57735
  0
VERTEX
  5
4502
100
AcDbEntity
  8
STUD
100
AcDbVertex
100
AcDb2dVertex
 10
85.458879
 20
70.111658
 30
0.0
  0
SEQEND
  5
4503
100
AcDbEntity
  8
STUD
  0
POLYLINE
  5
4512
100
AcDbEntity
  8
STUD
100
AcDb2dPolyline
 66
     1
 10
0.0
 20
0.0
 30
0.0
  0
VERTEX
  5
4513
100
AcDbEntity
  8
STUD
100
AcDbVertex
100
AcDb2dVertex
 10
89.643382
 20
71.397448
 30
0.0
  0
VERTEX
  5
4514
100
AcDbEntity
  8
STUD
100
AcDbVertex
100
AcDb2dVertex
 10
88.716348
 20
71.932671
 30
0.0
 42
0.267949
  0
VERTEX
  5
4515
100
AcDbEntity
  8
STUD
100
AcDbVertex
100
AcDb2dVertex
 10
88.686643
 20
71.932671
 30
0.0
  0
VERTEX
  5
4516
100
AcDbEntity
  8
STUD
100
AcDbVertex
100
AcDb2dVertex
 10
88.241315
 20
71.675561
 30
0.0
  0
VERTEX
  5
4517
100
AcDbEntity
  8
STUD
100
AcDbVertex
100
AcDb2dVertex
 10
88.241315
 20
70.984209
 30
0.0
  0
VERTEX
  5
4518
100
AcDbEntity
  8
STUD
100
AcDbVertex
100
AcDb2dVertex
 10
87.497187
 20
71.93729
 30
0.0
  0
VERTEX
  5
451A
100
AcDbEntity
  8
STUD
100
AcDbVertex
100
AcDb2dVertex
 10
87.497187
 20
71.245938
 30
0.0
  0
VERTEX
  5
451B
100
AcDbEntity
  8
STUD
100
AcDbVertex
100
AcDb2dVertex
 10
87.355558
 20
71.164169
 30
0.0
 42
0.57735
  0
SEQEND
  5
451C
100
AcDbEntity
  8
STUD
  0
POLYLINE
  5
451F
100
AcDbEntity
  8
STUD
100
AcDb2dPolyline
 66
     1
 10
0.0
 20
0.0
 30
0.0
  0
VERTEX
  5
4523
100
AcDbEntity
  8
STUD
100
AcDbVertex
100
AcDb2dVertex
 10
88.241315
 20
70.984209
 30
0.0
  0
VERTEX
  5
4520
100
AcDbEntity
  8
STUD
100
AcDbVertex
100
AcDb2dVertex
 10
88.204477
 20
71.005478
 30
0.0
  0
VERTEX
  5
4521
100
AcDbEntity
  8
STUD
100
AcDbVertex
100
AcDb2dVertex
 10
87.497187
 20
71.911376
 30
0.0
  0
SEQEND
  5
4522
100
AcDbEntity
  8
STUD
  0
POLYLINE
  5
48A2
100
AcDbEntity
  8
D-TEXT
100
AcDb2dPolyline
 66
     1
 10
0.0
 20
0.0
 30
0.0
  0
VERTEX
  5
48A3
100
AcDbEntity
  8
D-TEXT
100
AcDbVertex
100
AcDb2dVertex
 10
25.946017
 20
103.943945
 30
0.0
  0
VERTEX
  5
48A4
100
AcDbEntity
  8
D-TEXT
100
AcDbVertex
100
AcDb2dVertex
 10
26.585367
 20
103.125064
 30
0.0
  0
VERTEX
  5
48A5
100
AcDbEntity
  8
D-TEXT
100
AcDbVertex
100
AcDb2dVertex
 10
26.690146
 20
103.06457
 30
0.0
  0
SEQEND
  5
48A6
100
AcDbEntity
  8
D-TEXT
  0
POLYLINE
  5
48AB
100
AcDbEntity
  8
STUD
100
AcDb2dPolyline
 66
     1
 10
0.0
 20
0.0
 30
0.0
  0
VERTEX
  5
48B4
100
AcDbEntity
  8
STUD
100
AcDbVertex
100
AcDb2dVertex
 10
23.057108
 20
103.430501
 30
0.0
  0
VERTEX
  5
48B3
100
AcDbEntity
  8
STUD
100
AcDbVertex
100
AcDb2dVertex
 10
24.591804
 20
102.544444
 30
0.0
  0
VERTEX
  5
48AC
100
AcDbEntity
  8
STUD
100
AcDbVertex
100
AcDb2dVertex
 10
25.946017
 20
103.326299
 30
0.0
  0
VERTEX
  5
48AD
100
AcDbEntity
  8
STUD
100
AcDbVertex
100
AcDb2dVertex
 10
25.946017
 20
104.017651
 30
0.0
  0
VERTEX
  5
48AE
100
AcDbEntity
  8
STUD
100
AcDbVertex
100
AcDb2dVertex
 10
26.690146
 20
103.06457
 30
0.0
  0
VERTEX
  5
48B0
100
AcDbEntity
  8
STUD
100
AcDbVertex
100
AcDb2dVertex
 10
26.690146
 20
103.755922
 30
0.0
  0
VERTEX
  5
48B1
100
AcDbEntity
  8
STUD
100
AcDbVertex
100
AcDb2dVertex
 10
27.883079
 20
104.444662
 30
0.0
  0
SEQEND
  5
48B2
100
AcDbEntity
  8
STUD
  0
POLYLINE
  5
48C7
100
AcDbEntity
  8
STUD
100
AcDb2dPolyline
 66
     1
 10
0.0
 20
0.0
 30
0.0
  0
VERTEX
  5
48D0
100
AcDbEntity
  8
STUD
100
AcDbVertex
100
AcDb2dVertex
 10
98.59002
 20
62.417761
 30
0.0
  0
VERTEX
  5
48CF
100
AcDbEntity
  8
STUD
100
AcDbVertex
100
AcDb2dVertex
 10
100.124716
 20
61.531704
 30
0.0
  0
VERTEX
  5
48C8
100
AcDbEntity
  8
STUD
100
AcDbVertex
100
AcDb2dVertex
 10
101.47893
 20
62.313559
 30
0.0
  0
VERTEX
  5
48C9
100
AcDbEntity
  8
STUD
100
AcDbVertex
100
AcDb2dVertex
 10
101.47893
 20
63.004911
 30
0.0
  0
VERTEX
  5
48CA
100
AcDbEntity
  8
STUD
100
AcDbVertex
100
AcDb2dVertex
 10
102.223058
 20
62.05183
 30
0.0
  0
VERTEX
  5
48CC
100
AcDbEntity
  8
STUD
100
AcDbVertex
100
AcDb2dVertex
 10
102.223058
 20
62.743182
 30
0.0
  0
VERTEX
  5
48CD
100
AcDbEntity
  8
STUD
100
AcDbVertex
100
AcDb2dVertex
 10
103.415991
 20
63.431922
 30
0.0
  0
SEQEND
  5
48CE
100
AcDbEntity
  8
STUD
  0
ELLIPSE
  5
48F2
100
AcDbEntity
  8
D-TEXT
100
AcDbEllipse
 10
44.222348
 20
74.192453
 30
0.0
 11
9.581671032754449
 21
-16.59594105014164
 31
0.0
210
0.0
220
0.0
230
1.0
 40
0.717089
 41
0.0000000000000568
 42
6.283185307179657
1001
PE_URL
1000
6020-019.dwf
  0
LEADER
  5
48F3
100
AcDbEntity
  8
D-TEXT
100
AcDbLeader
  3
LEADER
 72
     1
 73
     0
 74
     0
 40
2.0
 41
1.862069
 76
     3
 10
56.415227
 20
79.856683
 30
0.0
 10
60.341758
 20
81.237717
 30
0.0
 10
65.781247
 20
81.381223
 30
0.0
 77
   256
1001
PE_URL
1000
6020-019.dwf
  0
INSERT
  5
48F4
100
AcDbEntity
  8
D-TEXT
100
AcDbBlockReference
 66
     1
  2
DETAIL_MARK
 10
70.719143
 20
81.381223
 30
0.0
1001
PE_URL
1000
6020-019.dwf
  0
ATTRIB
  5
48F5
100
AcDbEntity
  8
0
100
AcDbText
 10
70.098453
 20
82.346741
 30
0.0
 40
2.0
  1
-
  7
ARCH
 72
     1
 11
70.719143
 21
81.381223
 31
0.0
100
AcDbAttribute
  2
DETAIL_#
 70
     0
 74
     1
  0
ATTRIB
  5
48F6
100
AcDbEntity
  8
0
100
AcDbText
 10
67.68466
 20
78.596741
 30
0.0
 40
2.0
  1
S-19
  7
ARCH
 72
     1
 11
70.719143
 21
77.631223
 31
0.0
100
AcDbAttribute
  2
DETAIL_PAGE
 70
     0
 74
     1
  0
SEQEND
  5
48F7
100
AcDbEntity
  8
D-TEXT
  0
TEXT
  5
4D96
100
AcDbEntity
  8
LINK
 62
     1
100
AcDbText
 10
-36.721432
 20
46.016007
 30
0.0
 40
3.0
  1
drawing list
  7
BLOCK
 72
     1
 11
-28.08
 21
46.016007
 31
0.0
100
AcDbText
1001
PE_URL
1000
Cemco_drawings.htm
  0
TEXT
  5
4D97
100
AcDbEntity
  8
LINK
 62
     1
100
AcDbText
 10
-32.419504
 20
22.016007
 30
0.0
 40
3.0
  1
home
  7
BLOCK
 72
     1
 11
-28.08
 21
22.016007
 31
0.0
100
AcDbText
1001
PE_URL
1000
Cemco_drawings.htm
  0
TEXT
  5
4D98
100
AcDbEntity
  8
LINK
 62
     1
100
AcDbText
 10
-44.342313
 20
34.016007
 30
0.0
 40
3.0
  1
Assembly drawing 10
  7
BLOCK
 72
     1
 11
-28.08
 21
34.016007
 31
0.0
100
AcDbText
1001
PE_URL
1000
Cemco_drawings.htm
  0
TEXT
  5
4D99
100
AcDbEntity
  8
LINK
 62
     1
100
AcDbText
 10
-42.692644
 20
28.016007
 30
0.0
 40
3.0
  1
Cemco drawing list
  7
BLOCK
 72
     1
 11
-28.08
 21
28.016007
 31
0.0
100
AcDbText
1001
PE_URL
1000
Cemco_drawings.htm
  0
TEXT
  5
4DA8
100
AcDbEntity
  8
LINK
 62
     1
100
AcDbText
 10
-43.386343
 20
40.016007
 30
0.0
 40
3.0
  1
Assembly drawing 9
  7
BLOCK
 72
     1
 11
-28.08
 21
40.016007
 31
0.0
100
AcDbText
1001
PE_URL
1000
Cemco_drawings.htm
  0
MTEXT
  5
4DAD
100
AcDbEntity
  8
LINK
100
AcDbMText
 10
-17.004595
 20
4.396492
 30
0.0
 40
3.0
 41
0.0
 71
     7
 72
     1
  1
{Back}\P{Button}
  7
ARCH
1001
PE_URL
1000
6020-010.dwf
  0
LEADER
  5
4DAE
100
AcDbEntity
  8
LINK
100
AcDbLeader
  3
LEADER
 72
     1
 73
     0
 74
     0
 40
0.125
 41
0.556034
 76
     7
 10
-0.666077
 20
13.352556
 30
0.0
 10
-13.949148
 20
18.7092
 30
0.0
 10
-19.993348
 20
19.640857
 30
0.0
 10
-28.262233
 20
16.877816
 30
0.0
 10
-26.568606
 20
6.778424
 30
0.0
 10
-23.790154
 20
5.958102
 30
0.0
 10
-17.441118
 20
6.1858
 30
0.0
 77
   256
1001
PE_URL
1000
6020-010.dwf
  0
INSERT
  5
4DAF
100
AcDbEntity
  8
D-TEXT
100
AcDbBlockReference
 66
     1
  2
DETAIL_TITLE
 10
0.0
 20
0.0
 30
0.0
 41
24.0
 42
24.0
 43
24.0
1001
PE_URL
1000
6020-010.dwf
  0
ATTRIB
  5
4DB0
100
AcDbEntity
  8
D-TEXT
100
AcDbText
 10
27.924461
 20
15.603424
 30
0.0
 40
6.0
  1
STRUCTURAL HEADER
  7
BLOCK
100
AcDbAttribute
  2
DETAIL_DISCRIPTION
 70
     0
  0
ATTRIB
  5
4DB1
100
AcDbEntity
  8
D-TEXT
100
AcDbText
 10
1.971711
 20
9.462231
 30
0.0
 40
6.0
  1
D-17
  7
BLD
 72
     1
 11
12.462231
 21
12.462231
 31
0.0
100
AcDbAttribute
  2
DETAIL_NO
 70
     0
 74
     2
  0
ATTRIB
  5
4DB2
100
AcDbEntity
  8
D-TEXT
100
AcDbText
 10
27.924461
 20
4.129176
 30
0.0
 40
4.5
  1
N. T. Scale 1/2" = 1'0"
  7
BLOCK
100
AcDbAttribute
  2
SCALE
 70
     0
  0
SEQEND
  5
4DB3
100
AcDbEntity
  8
D-TEXT
  0
POLYLINE
  5
4E15
100
AcDbEntity
  8
LAYOUT
100
AcDb2dPolyline
 66
     1
 10
0.0
 20
0.0
 30
0.0
 70
     1
  0
VERTEX
  5
4E16
100
AcDbEntity
  8
LAYOUT
100
AcDbVertex
100
AcDb2dVertex
 10
0.0
 20
0.0
 30
0.0
  0
VERTEX
  5
4E17
100
AcDbEntity
  8
LAYOUT
100
AcDbVertex
100
AcDb2dVertex
 10
246.48
 20
0.0
 30
0.0
  0
VERTEX
  5
4E18
100
AcDbEntity
  8
LAYOUT
100
AcDbVertex
100
AcDb2dVertex
 10
246.48
 20
190.32
 30
0.0
  0
VERTEX
  5
4E19
100
AcDbEntity
  8
LAYOUT
100
AcDbVertex
100
AcDb2dVertex
 10
190.32
 20
190.32
 30
0.0
  0
VERTEX
  5
4E1A
100
AcDbEntity
  8
LAYOUT
100
AcDbVertex
100
AcDb2dVertex
 10
190.32
 20
246.48
 30
0.0
  0
VERTEX
  5
4E1B
100
AcDbEntity
  8
LAYOUT
100
AcDbVertex
100
AcDb2dVertex
 10
0.0
 20
246.48
 30
0.0
  0
SEQEND
  5
4E1C
100
AcDbEntity
  8
LAYOUT
  0
LINE
  5
4F9A
100
AcDbEntity
  8
STUD
100
AcDbLine
 10
39.96776
 20
86.437003
 30
0.0
 11
39.96776
 21
85.871462
 31
0.0
  0
LINE
  5
4F9B
100
AcDbEntity
  8
STUD
100
AcDbLine
 10
42.237282
 20
89.832387
 30
0.0
 11
42.237282
 21
86.09161
 31
0.0
  0
LINE
  5
4F9C
100
AcDbEntity
  8
STUD
100
AcDbLine
 10
40.959994
 20
85.294408
 30
0.0
 11
40.959994
 21
59.575799
 31
0.0
  0
LINE
  5
4F9D
100
AcDbEntity
  8
STUD
100
AcDbLine
 10
40.892351
 20
85.294408
 30
0.0
 11
40.892351
 21
61.004466
 31
0.0
  0
LINE
  5
4F9E
100
AcDbEntity
  8
STUD
100
AcDbLine
 10
39.504556
 20
86.095652
 30
0.0
 11
39.504556
 21
61.698814
 31
0.0
  0
LINE
  5
4F9F
100
AcDbEntity
  8
STUD
100
AcDbLine
 10
39.417071
 20
88.200019
 30
0.0
 11
39.417071
 21
61.742585
 31
0.0
  0
LINE
  5
4FA0
100
AcDbEntity
  8
STUD
100
AcDbLine
 10
38.051826
 20
88.988243
 30
0.0
 11
38.051826
 21
62.42565
 31
0.0
  0
LINE
  5
4FA2
100
AcDbEntity
  8
STUD
100
AcDbLine
 10
42.310959
 20
87.78985
 30
0.0
 11
42.310959
 21
85.997245
 31
0.0
  0
LINE
  5
4FA3
100
AcDbEntity
  8
STUD
100
AcDbLine
 10
42.81583
 20
88.063904
 30
0.0
 11
42.81583
 21
86.409116
 31
0.0
  0
LINE
  5
4FA4
100
AcDbEntity
  8
STUD
100
AcDbLine
 10
41.309295
 20
90.924513
 30
0.0
 11
41.309295
 21
85.543862
 31
0.0
  0
LINE
  5
4FA5
100
AcDbEntity
  8
STUD
100
AcDbLine
 10
41.27959
 20
90.924513
 30
0.0
 11
41.27959
 21
85.526345
 31
0.0
  0
ELLIPSE
  5
4FA7
100
AcDbEntity
  8
FASTENER
100
AcDbEllipse
 10
40.190499
 20
84.627454
 30
0.0
 11
0.0765465544619687
 21
-0.1325825214724809
 31
0.0
210
0.0
220
0.0
230
1.0
 40
0.57735
 41
0.0000000000000555
 42
6.283185307179655
  0
LINE
  5
4FA8
100
AcDbEntity
  8
FASTENER
100
AcDbLine
 10
40.266039
 20
84.583841
 30
0.0
 11
40.114959
 21
84.671067
 31
0.0
  0
LINE
  5
4FA9
100
AcDbEntity
  8
FASTENER
100
AcDbLine
 10
40.190499
 20
84.71468
 30
0.0
 11
40.190499
 21
84.540228
 31
0.0
  0
LINE
  5
4FAA
100
AcDbEntity
  8
STUD
100
AcDbLine
 10
42.641507
 20
86.265231
 30
0.0
 11
42.60406
 21
86.28685
 31
0.0
  0
LINE
  5
4FAB
100
AcDbEntity
  8
STUD
100
AcDbLine
 10
41.897379
 20
85.835608
 30
0.0
 11
41.859932
 21
85.868571
 31
0.0
  0
POLYLINE
  5
4FAC
100
AcDbEntity
  8
STUD
100
AcDb2dPolyline
 66
     1
 10
0.0
 20
0.0
 30
0.0
  0
VERTEX
  5
4FAD
100
AcDbEntity
  8
STUD
100
AcDbVertex
100
AcDb2dVertex
 10
42.60406
 20
85.621841
 30
0.0
  0
VERTEX
  5
4FAE
100
AcDbEntity
  8
STUD
100
AcDbVertex
100
AcDb2dVertex
 10
42.60406
 20
86.28685
 30
0.0
  0
VERTEX
  5
4FAF
100
AcDbEntity
  8
STUD
100
AcDbVertex
100
AcDb2dVertex
 10
44.203625
 20
87.21036
 30
0.0
 42
0.57735
  0
VERTEX
  5
4FB0
100
AcDbEntity
  8
STUD
100
AcDbVertex
100
AcDb2dVertex
 10
44.203625
 20
87.26266
 30
0.0
  0
VERTEX
  5
4FB1
100
AcDbEntity
  8
STUD
100
AcDbVertex
100
AcDb2dVertex
 10
42.81583
 20
88.063904
 30
0.0
 42
0.267949
  0
VERTEX
  5
4FB2
100
AcDbEntity
  8
STUD
100
AcDbVertex
100
AcDb2dVertex
 10
42.785634
 20
88.063904
 30
0.0
  0
VERTEX
  5
4FB3
100
AcDbEntity
  8
STUD
100
AcDbVertex
100
AcDb2dVertex
 10
42.310959
 20
87.78985
 30
0.0
  0
VERTEX
  5
4FB4
100
AcDbEntity
  8
STUD
100
AcDbVertex
100
AcDb2dVertex
 10
42.273512
 20
87.81147
 30
0.0
  0
VERTEX
  5
4FB5
100
AcDbEntity
  8
STUD
100
AcDbVertex
100
AcDb2dVertex
 10
42.766911
 20
88.096334
 30
0.0
 42
-0.267949
  0
VERTEX
  5
4FB6
100
AcDbEntity
  8
STUD
100
AcDbVertex
100
AcDb2dVertex
 10
42.834553
 20
88.096334
 30
0.0
  0
VERTEX
  5
4FB7
100
AcDbEntity
  8
STUD
100
AcDbVertex
100
AcDb2dVertex
 10
44.222348
 20
87.29509
 30
0.0
 42
-0.57735
  0
VERTEX
  5
4FB8
100
AcDbEntity
  8
STUD
100
AcDbVertex
100
AcDb2dVertex
 10
44.222348
 20
87.17793
 30
0.0
  0
VERTEX
  5
4FB9
100
AcDbEntity
  8
STUD
100
AcDbVertex
100
AcDb2dVertex
 10
42.641507
 20
86.265231
 30
0.0
  0
VERTEX
  5
4FBA
100
AcDbEntity
  8
STUD
100
AcDbVertex
100
AcDb2dVertex
 10
42.641507
 20
85.573879
 30
0.0
  0
VERTEX
  5
4FBB
100
AcDbEntity
  8
STUD
100
AcDbVertex
100
AcDb2dVertex
 10
41.897379
 20
86.52696
 30
0.0
  0
VERTEX
  5
4FBC
100
AcDbEntity
  8
STUD
100
AcDbVertex
100
AcDb2dVertex
 10
41.897379
 20
85.835608
 30
0.0
  0
VERTEX
  5
4FBD
100
AcDbEntity
  8
STUD
100
AcDbVertex
100
AcDb2dVertex
 10
40.959994
 20
85.294408
 30
0.0
 42
-0.267949
  0
VERTEX
  5
4FBE
100
AcDbEntity
  8
STUD
100
AcDbVertex
100
AcDb2dVertex
 10
40.892351
 20
85.294408
 30
0.0
  0
VERTEX
  5
4FBF
100
AcDbEntity
  8
STUD
100
AcDbVertex
100
AcDb2dVertex
 10
40.752842
 20
85.374954
 30
0.0
  0
VERTEX
  5
4FC0
100
AcDbEntity
  8
STUD
100
AcDbVertex
100
AcDb2dVertex
 10
39.504556
 20
86.095652
 30
0.0
 42
-0.57735
  0
VERTEX
  5
4FC1
100
AcDbEntity
  8
STUD
100
AcDbVertex
100
AcDb2dVertex
 10
39.504556
 20
86.212812
 30
0.0
  0
VERTEX
  5
4FC2
100
AcDbEntity
  8
STUD
100
AcDbVertex
100
AcDb2dVertex
 10
39.930313
 20
86.458623
 30
0.0
  0
VERTEX
  5
4FC3
100
AcDbEntity
  8
STUD
100
AcDbVertex
100
AcDb2dVertex
 10
39.96776
 20
86.437003
 30
0.0
  0
VERTEX
  5
4FC4
100
AcDbEntity
  8
STUD
100
AcDbVertex
100
AcDb2dVertex
 10
39.52328
 20
86.180382
 30
0.0
 42
0.57735
  0
VERTEX
  5
4FC5
100
AcDbEntity
  8
STUD
100
AcDbVertex
100
AcDb2dVertex
 10
39.52328
 20
86.128082
 30
0.0
  0
VERTEX
  5
4FC6
100
AcDbEntity
  8
STUD
100
AcDbVertex
100
AcDb2dVertex
 10
40.752842
 20
85.418194
 30
0.0
  0
VERTEX
  5
4FC7
100
AcDbEntity
  8
STUD
100
AcDbVertex
100
AcDb2dVertex
 10
40.911075
 20
85.326838
 30
0.0
 42
0.267949
  0
VERTEX
  5
4FC8
100
AcDbEntity
  8
STUD
100
AcDbVertex
100
AcDb2dVertex
 10
40.94127
 20
85.326838
 30
0.0
  0
VERTEX
  5
4FC9
100
AcDbEntity
  8
STUD
100
AcDbVertex
100
AcDb2dVertex
 10
41.859932
 20
85.868571
 30
0.0
  0
VERTEX
  5
4FCA
100
AcDbEntity
  8
STUD
100
AcDbVertex
100
AcDb2dVertex
 10
41.859932
 20
86.548579
 30
0.0
  0
VERTEX
  5
4FCB
100
AcDbEntity
  8
STUD
100
AcDbVertex
100
AcDb2dVertex
 10
41.897379
 20
86.52696
 30
0.0
  0
SEQEND
  5
4FCC
100
AcDbEntity
  8
STUD
  0
LINE
  5
4FCD
100
AcDbEntity
  8
D-TEXT
100
AcDbLine
 10
39.266015
 20
89.804512
 30
0.0
 11
39.302853
 21
89.783243
 31
0.0
  0
LINE
  5
4FCE
100
AcDbEntity
  8
D-TEXT
100
AcDbLine
 10
40.010143
 20
90.234134
 30
0.0
 11
40.046982
 21
90.212866
 31
0.0
  0
POLYLINE
  5
4FCF
100
AcDbEntity
  8
STUD
100
AcDb2dPolyline
 66
     1
 10
0.0
 20
0.0
 30
0.0
  0
VERTEX
  5
4FD0
100
AcDbEntity
  8
STUD
100
AcDbVertex
100
AcDb2dVertex
 10
40.010143
 20
89.568697
 30
0.0
  0
VERTEX
  5
4FD1
100
AcDbEntity
  8
STUD
100
AcDbVertex
100
AcDb2dVertex
 10
40.010143
 20
90.234134
 30
0.0
  0
VERTEX
  5
4FD2
100
AcDbEntity
  8
STUD
100
AcDbVertex
100
AcDb2dVertex
 10
41.261171
 20
90.956416
 30
0.0
 42
-0.267949
  0
VERTEX
  5
4FD3
100
AcDbEntity
  8
STUD
100
AcDbVertex
100
AcDb2dVertex
 10
41.327714
 20
90.956416
 30
0.0
  0
VERTEX
  5
4FD4
100
AcDbEntity
  8
STUD
100
AcDbVertex
100
AcDb2dVertex
 10
42.692959
 20
90.168191
 30
0.0
 42
-0.57735
  0
VERTEX
  5
4FD5
100
AcDbEntity
  8
STUD
100
AcDbVertex
100
AcDb2dVertex
 10
42.692959
 20
90.052935
 30
0.0
  0
VERTEX
  5
4FD6
100
AcDbEntity
  8
STUD
100
AcDbVertex
100
AcDb2dVertex
 10
42.274121
 20
89.811118
 30
0.0
  0
VERTEX
  5
4FD7
100
AcDbEntity
  8
STUD
100
AcDbVertex
100
AcDb2dVertex
 10
42.237282
 20
89.832387
 30
0.0
  0
VERTEX
  5
4FD8
100
AcDbEntity
  8
STUD
100
AcDbVertex
100
AcDb2dVertex
 10
42.67454
 20
90.084838
 30
0.0
 42
0.57735
  0
VERTEX
  5
4FD9
100
AcDbEntity
  8
STUD
100
AcDbVertex
100
AcDb2dVertex
 10
42.67454
 20
90.136288
 30
0.0
  0
VERTEX
  5
4FDA
100
AcDbEntity
  8
STUD
100
AcDbVertex
100
AcDb2dVertex
 10
41.309295
 20
90.924513
 30
0.0
 42
0.267949
  0
VERTEX
  5
4FDB
100
AcDbEntity
  8
STUD
100
AcDbVertex
100
AcDb2dVertex
 10
41.27959
 20
90.924513
 30
0.0
  0
VERTEX
  5
4FDC
100
AcDbEntity
  8
STUD
100
AcDbVertex
100
AcDb2dVertex
 10
40.046982
 20
90.212866
 30
0.0
  0
VERTEX
  5
4FDD
100
AcDbEntity
  8
STUD
100
AcDbVertex
100
AcDb2dVertex
 10
40.046982
 20
89.521514
 30
0.0
  0
VERTEX
  5
4FDE
100
AcDbEntity
  8
STUD
100
AcDbVertex
100
AcDb2dVertex
 10
39.302853
 20
90.474595
 30
0.0
  0
VERTEX
  5
4FDF
100
AcDbEntity
  8
STUD
100
AcDbVertex
100
AcDb2dVertex
 10
39.302853
 20
89.783243
 30
0.0
  0
VERTEX
  5
4FE0
100
AcDbEntity
  8
STUD
100
AcDbVertex
100
AcDb2dVertex
 10
38.070245
 20
89.071596
 30
0.0
 42
0.57735
  0
VERTEX
  5
4FE1
100
AcDbEntity
  8
STUD
100
AcDbVertex
100
AcDb2dVertex
 10
38.070245
 20
89.020146
 30
0.0
  0
VERTEX
  5
4FE2
100
AcDbEntity
  8
STUD
100
AcDbVertex
100
AcDb2dVertex
 10
39.43549
 20
88.231921
 30
0.0
 42
0.267949
  0
VERTEX
  5
4FE3
100
AcDbEntity
  8
STUD
100
AcDbVertex
100
AcDb2dVertex
 10
39.465195
 20
88.231921
 30
0.0
  0
VERTEX
  5
4FE4
100
AcDbEntity
  8
STUD
100
AcDbVertex
100
AcDb2dVertex
 10
39.932157
 20
88.501522
 30
0.0
  0
VERTEX
  5
4FE5
100
AcDbEntity
  8
STUD
100
AcDbVertex
100
AcDb2dVertex
 10
39.968996
 20
88.480254
 30
0.0
  0
VERTEX
  5
4FE6
100
AcDbEntity
  8
STUD
100
AcDbVertex
100
AcDb2dVertex
 10
39.483614
 20
88.200019
 30
0.0
 42
-0.267949
  0
VERTEX
  5
4FE7
100
AcDbEntity
  8
STUD
100
AcDbVertex
100
AcDb2dVertex
 10
39.417071
 20
88.200019
 30
0.0
  0
VERTEX
  5
4FE8
100
AcDbEntity
  8
STUD
100
AcDbVertex
100
AcDb2dVertex
 10
38.051826
 20
88.988243
 30
0.0
 42
-0.57735
  0
VERTEX
  5
4FE9
100
AcDbEntity
  8
STUD
100
AcDbVertex
100
AcDb2dVertex
 10
38.051826
 20
89.103499
 30
0.0
  0
VERTEX
  5
4FEA
100
AcDbEntity
  8
STUD
100
AcDbVertex
100
AcDb2dVertex
 10
39.266015
 20
89.804512
 30
0.0
  0
VERTEX
  5
4FEB
100
AcDbEntity
  8
STUD
100
AcDbVertex
100
AcDb2dVertex
 10
39.266015
 20
90.495863
 30
0.0
  0
VERTEX
  5
4FEC
100
AcDbEntity
  8
STUD
100
AcDbVertex
100
AcDb2dVertex
 10
39.302853
 20
90.474595
 30
0.0
  0
SEQEND
  5
4FED
100
AcDbEntity
  8
STUD
  0
LINE
  5
4FF6
100
AcDbEntity
  8
STUD
100
AcDbLine
 10
42.274121
 20
89.811118
 30
0.0
 11
42.269443
 21
86.050419
 31
0.0
  0
LINE
  5
4FF7
100
AcDbEntity
  8
STUD
100
AcDbLine
 10
42.692959
 20
90.052935
 30
0.0
 11
42.692959
 21
88.053637
 31
0.0
  0
LINE
  5
4FF8
100
AcDbEntity
  8
STUD
100
AcDbLine
 10
39.968996
 20
88.480254
 30
0.0
 11
39.968996
 21
86.46037
 31
0.0
  0
LINE
  5
4FF9
100
AcDbEntity
  8
STUD
100
AcDbLine
 10
87.424221
 20
64.601393
 30
0.0
 11
87.424221
 21
62.581509
 31
0.0
  0
LINE
  5
4FFA
100
AcDbEntity
  8
STUD
100
AcDbLine
 10
90.148185
 20
66.174074
 30
0.0
 11
90.148185
 21
64.174776
 31
0.0
  0
LINE
  5
4FFB
100
AcDbEntity
  8
STUD
100
AcDbLine
 10
89.729347
 20
65.932257
 30
0.0
 11
89.724669
 21
62.171558
 31
0.0
  0
POLYLINE
  5
5002
100
AcDbEntity
  8
STUD
100
AcDb2dPolyline
 66
     1
 10
0.0
 20
0.0
 30
0.0
  0
VERTEX
  5
5003
100
AcDbEntity
  8
STUD
100
AcDbVertex
100
AcDb2dVertex
 10
87.465369
 20
65.689836
 30
0.0
  0
VERTEX
  5
5004
100
AcDbEntity
  8
STUD
100
AcDbVertex
100
AcDb2dVertex
 10
87.465369
 20
66.355273
 30
0.0
  0
VERTEX
  5
5005
100
AcDbEntity
  8
STUD
100
AcDbVertex
100
AcDb2dVertex
 10
88.716397
 20
67.077554
 30
0.0
 42
-0.267949
  0
VERTEX
  5
5006
100
AcDbEntity
  8
STUD
100
AcDbVertex
100
AcDb2dVertex
 10
88.78294
 20
67.077554
 30
0.0
  0
VERTEX
  5
5007
100
AcDbEntity
  8
STUD
100
AcDbVertex
100
AcDb2dVertex
 10
90.148185
 20
66.28933
 30
0.0
 42
-0.57735
  0
VERTEX
  5
5008
100
AcDbEntity
  8
STUD
100
AcDbVertex
100
AcDb2dVertex
 10
90.148185
 20
66.174074
 30
0.0
  0
VERTEX
  5
5009
100
AcDbEntity
  8
STUD
100
AcDbVertex
100
AcDb2dVertex
 10
89.729347
 20
65.932257
 30
0.0
  0
VERTEX
  5
500A
100
AcDbEntity
  8
STUD
100
AcDbVertex
100
AcDb2dVertex
 10
89.692508
 20
65.953526
 30
0.0
  0
VERTEX
  5
500B
100
AcDbEntity
  8
STUD
100
AcDbVertex
100
AcDb2dVertex
 10
90.129766
 20
66.205977
 30
0.0
 42
0.57735
  0
VERTEX
  5
500C
100
AcDbEntity
  8
STUD
100
AcDbVertex
100
AcDb2dVertex
 10
90.129766
 20
66.257427
 30
0.0
  0
VERTEX
  5
500D
100
AcDbEntity
  8
STUD
100
AcDbVertex
100
AcDb2dVertex
 10
88.764521
 20
67.045652
 30
0.0
 42
0.267949
  0
VERTEX
  5
500E
100
AcDbEntity
  8
STUD
100
AcDbVertex
100
AcDb2dVertex
 10
88.734816
 20
67.045652
 30
0.0
  0
VERTEX
  5
500F
100
AcDbEntity
  8
STUD
100
AcDbVertex
100
AcDb2dVertex
 10
87.502208
 20
66.334005
 30
0.0
  0
VERTEX
  5
5010
100
AcDbEntity
  8
STUD
100
AcDbVertex
100
AcDb2dVertex
 10
87.502208
 20
65.642653
 30
0.0
  0
VERTEX
  5
5011
100
AcDbEntity
  8
STUD
100
AcDbVertex
100
AcDb2dVertex
 10
86.758079
 20
66.595734
 30
0.0
  0
VERTEX
  5
5012
100
AcDbEntity
  8
STUD
100
AcDbVertex
100
AcDb2dVertex
 10
86.758079
 20
65.904382
 30
0.0
  0
VERTEX
  5
5013
100
AcDbEntity
  8
STUD
100
AcDbVertex
100
AcDb2dVertex
 10
85.525471
 20
65.192735
 30
0.0
 42
0.57735
  0
VERTEX
  5
5014
100
AcDbEntity
  8
STUD
100
AcDbVertex
100
AcDb2dVertex
 10
85.525471
 20
65.141285
 30
0.0
  0
VERTEX
  5
5015
100
AcDbEntity
  8
STUD
100
AcDbVertex
100
AcDb2dVertex
 10
86.890716
 20
64.35306
 30
0.0
 42
0.267949
  0
VERTEX
  5
5016
100
AcDbEntity
  8
STUD
100
AcDbVertex
100
AcDb2dVertex
 10
86.920421
 20
64.35306
 30
0.0
  0
VERTEX
  5
5017
100
AcDbEntity
  8
STUD
100
AcDbVertex
100
AcDb2dVertex
 10
87.387383
 20
64.622661
 30
0.0
  0
VERTEX
  5
5018
100
AcDbEntity
  8
STUD
100
AcDbVertex
100
AcDb2dVertex
 10
87.424221
 20
64.601393
 30
0.0
  0
VERTEX
  5
5019
100
AcDbEntity
  8
STUD
100
AcDbVertex
100
AcDb2dVertex
 10
86.93884
 20
64.321157
 30
0.0
 42
-0.267949
  0
VERTEX
  5
501A
100
AcDbEntity
  8
STUD
100
AcDbVertex
100
AcDb2dVertex
 10
86.872297
 20
64.321157
 30
0.0
  0
VERTEX
  5
501B
100
AcDbEntity
  8
STUD
100
AcDbVertex
100
AcDb2dVertex
 10
85.507052
 20
65.109382
 30
0.0
 42
-0.57735
  0
VERTEX
  5
501C
100
AcDbEntity
  8
STUD
100
AcDbVertex
100
AcDb2dVertex
 10
85.507052
 20
65.224638
 30
0.0
  0
VERTEX
  5
501D
100
AcDbEntity
  8
STUD
100
AcDbVertex
100
AcDb2dVertex
 10
86.721241
 20
65.925651
 30
0.0
  0
VERTEX
  5
501E
100
AcDbEntity
  8
STUD
100
AcDbVertex
100
AcDb2dVertex
 10
86.721241
 20
66.617002
 30
0.0
  0
VERTEX
  5
501F
100
AcDbEntity
  8
STUD
100
AcDbVertex
100
AcDb2dVertex
 10
86.758079
 20
66.595734
 30
0.0
  0
SEQEND
  5
5020
100
AcDbEntity
  8
STUD
  0
LINE
  5
5021
100
AcDbEntity
  8
STUD
100
AcDbLine
 10
87.465369
 20
66.355273
 30
0.0
 11
87.502208
 21
66.334005
 31
0.0
  0
LINE
  5
5022
100
AcDbEntity
  8
STUD
100
AcDbLine
 10
86.721241
 20
65.925651
 30
0.0
 11
86.758079
 21
65.904382
 31
0.0
  0
POLYLINE
  5
5023
100
AcDbEntity
  8
STUD
100
AcDb2dPolyline
 66
     1
 10
0.0
 20
0.0
 30
0.0
  0
VERTEX
  5
5024
100
AcDbEntity
  8
STUD
100
AcDbVertex
100
AcDb2dVertex
 10
90.059286
 20
61.74298
 30
0.0
  0
VERTEX
  5
5025
100
AcDbEntity
  8
STUD
100
AcDbVertex
100
AcDb2dVertex
 10
90.059286
 20
62.407989
 30
0.0
  0
VERTEX
  5
5026
100
AcDbEntity
  8
STUD
100
AcDbVertex
100
AcDb2dVertex
 10
91.658851
 20
63.331499
 30
0.0
 42
0.57735
  0
VERTEX
  5
5027
100
AcDbEntity
  8
STUD
100
AcDbVertex
100
AcDb2dVertex
 10
91.658851
 20
63.383799
 30
0.0
  0
VERTEX
  5
5028
100
AcDbEntity
  8
STUD
100
AcDbVertex
100
AcDb2dVertex
 10
90.271056
 20
64.185043
 30
0.0
 42
0.267949
  0
VERTEX
  5
5029
100
AcDbEntity
  8
STUD
100
AcDbVertex
100
AcDb2dVertex
 10
90.24086
 20
64.185043
 30
0.0
  0
VERTEX
  5
502A
100
AcDbEntity
  8
STUD
100
AcDbVertex
100
AcDb2dVertex
 10
89.766185
 20
63.910989
 30
0.0
  0
VERTEX
  5
502B
100
AcDbEntity
  8
STUD
100
AcDbVertex
100
AcDb2dVertex
 10
89.728738
 20
63.932609
 30
0.0
  0
VERTEX
  5
502C
100
AcDbEntity
  8
STUD
100
AcDbVertex
100
AcDb2dVertex
 10
90.222137
 20
64.217472
 30
0.0
 42
-0.267949
  0
VERTEX
  5
502D
100
AcDbEntity
  8
STUD
100
AcDbVertex
100
AcDb2dVertex
 10
90.289779
 20
64.217472
 30
0.0
  0
VERTEX
  5
502E
100
AcDbEntity
  8
STUD
100
AcDbVertex
100
AcDb2dVertex
 10
91.677574
 20
63.416229
 30
0.0
 42
-0.57735
  0
VERTEX
  5
502F
100
AcDbEntity
  8
STUD
100
AcDbVertex
100
AcDb2dVertex
 10
91.677574
 20
63.299069
 30
0.0
  0
VERTEX
  5
5030
100
AcDbEntity
  8
STUD
100
AcDbVertex
100
AcDb2dVertex
 10
90.096733
 20
62.386369
 30
0.0
  0
VERTEX
  5
5031
100
AcDbEntity
  8
STUD
100
AcDbVertex
100
AcDb2dVertex
 10
90.096733
 20
61.695018
 30
0.0
  0
VERTEX
  5
5032
100
AcDbEntity
  8
STUD
100
AcDbVertex
100
AcDb2dVertex
 10
89.352604
 20
62.648098
 30
0.0
  0
VERTEX
  5
5033
100
AcDbEntity
  8
STUD
100
AcDbVertex
100
AcDb2dVertex
 10
89.352604
 20
61.956747
 30
0.0
  0
VERTEX
  5
5034
100
AcDbEntity
  8
STUD
100
AcDbVertex
100
AcDb2dVertex
 10
88.415219
 20
61.415547
 30
0.0
 42
-0.267949
  0
VERTEX
  5
5035
100
AcDbEntity
  8
STUD
100
AcDbVertex
100
AcDb2dVertex
 10
88.347577
 20
61.415547
 30
0.0
  0
VERTEX
  5
5036
100
AcDbEntity
  8
STUD
100
AcDbVertex
100
AcDb2dVertex
 10
88.208068
 20
61.496093
 30
0.0
  0
VERTEX
  5
5037
100
AcDbEntity
  8
STUD
100
AcDbVertex
100
AcDb2dVertex
 10
86.959782
 20
62.216791
 30
0.0
 42
-0.57735
  0
VERTEX
  5
5038
100
AcDbEntity
  8
STUD
100
AcDbVertex
100
AcDb2dVertex
 10
86.959782
 20
62.333951
 30
0.0
  0
VERTEX
  5
5039
100
AcDbEntity
  8
STUD
100
AcDbVertex
100
AcDb2dVertex
 10
87.385539
 20
62.579762
 30
0.0
  0
VERTEX
  5
503A
100
AcDbEntity
  8
STUD
100
AcDbVertex
100
AcDb2dVertex
 10
87.422985
 20
62.558142
 30
0.0
  0
VERTEX
  5
503B
100
AcDbEntity
  8
STUD
100
AcDbVertex
100
AcDb2dVertex
 10
86.978506
 20
62.301521
 30
0.0
 42
0.57735
  0
VERTEX
  5
503C
100
AcDbEntity
  8
STUD
100
AcDbVertex
100
AcDb2dVertex
 10
86.978506
 20
62.249221
 30
0.0
  0
VERTEX
  5
503D
100
AcDbEntity
  8
STUD
100
AcDbVertex
100
AcDb2dVertex
 10
88.208068
 20
61.539333
 30
0.0
  0
VERTEX
  5
503E
100
AcDbEntity
  8
STUD
100
AcDbVertex
100
AcDb2dVertex
 10
88.366301
 20
61.447977
 30
0.0
 42
0.267949
  0
VERTEX
  5
503F
100
AcDbEntity
  8
STUD
100
AcDbVertex
100
AcDb2dVertex
 10
88.396496
 20
61.447977
 30
0.0
  0
VERTEX
  5
5040
100
AcDbEntity
  8
STUD
100
AcDbVertex
100
AcDb2dVertex
 10
89.315158
 20
61.98971
 30
0.0
  0
VERTEX
  5
5041
100
AcDbEntity
  8
STUD
100
AcDbVertex
100
AcDb2dVertex
 10
89.315158
 20
62.669718
 30
0.0
  0
VERTEX
  5
5042
100
AcDbEntity
  8
STUD
100
AcDbVertex
100
AcDb2dVertex
 10
89.352604
 20
62.648098
 30
0.0
  0
SEQEND
  5
5043
100
AcDbEntity
  8
STUD
  0
LINE
  5
5044
100
AcDbEntity
  8
STUD
100
AcDbLine
 10
89.352604
 20
61.956747
 30
0.0
 11
89.315158
 21
61.98971
 31
0.0
  0
LINE
  5
5045
100
AcDbEntity
  8
STUD
100
AcDbLine
 10
90.096733
 20
62.386369
 30
0.0
 11
90.059286
 21
62.407989
 31
0.0
  0
LINE
  5
5046
100
AcDbEntity
  8
FASTENER
100
AcDbLine
 10
87.645725
 20
60.835819
 30
0.0
 11
87.645725
 21
60.661367
 31
0.0
  0
LINE
  5
5047
100
AcDbEntity
  8
FASTENER
100
AcDbLine
 10
87.721265
 20
60.70498
 30
0.0
 11
87.570185
 21
60.792206
 31
0.0
  0
ELLIPSE
  5
5048
100
AcDbEntity
  8
FASTENER
100
AcDbEllipse
 10
87.645725
 20
60.748593
 30
0.0
 11
0.0765465544619687
 21
-0.1325825214724809
 31
0.0
210
0.0
220
0.0
230
1.0
 40
0.57735
 41
0.0000000000000262
 42
6.283185307179626
  0
LINE
  5
5049
100
AcDbEntity
  8
STUD
100
AcDbLine
 10
88.734816
 20
67.045652
 30
0.0
 11
88.734816
 21
61.647484
 31
0.0
  0
LINE
  5
504A
100
AcDbEntity
  8
STUD
100
AcDbLine
 10
88.764521
 20
67.045652
 30
0.0
 11
88.764521
 21
61.665001
 31
0.0
  0
LINE
  5
504B
100
AcDbEntity
  8
STUD
100
AcDbLine
 10
90.271056
 20
64.185043
 30
0.0
 11
90.271056
 21
62.530255
 31
0.0
  0
LINE
  5
504C
100
AcDbEntity
  8
STUD
100
AcDbLine
 10
89.766185
 20
63.910989
 30
0.0
 11
89.766185
 21
62.118384
 31
0.0
  0
LINE
  5
504D
100
AcDbEntity
  8
STUD
100
AcDbLine
 10
85.507052
 20
65.109382
 30
0.0
 11
85.507052
 21
38.546789
 31
0.0
  0
LINE
  5
504E
100
AcDbEntity
  8
STUD
100
AcDbLine
 10
86.872297
 20
64.321157
 30
0.0
 11
86.872297
 21
37.863724
 31
0.0
  0
LINE
  5
504F
100
AcDbEntity
  8
STUD
100
AcDbLine
 10
86.959782
 20
62.216791
 30
0.0
 11
86.959782
 21
37.819953
 31
0.0
  0
LINE
  5
5050
100
AcDbEntity
  8
STUD
100
AcDbLine
 10
88.347577
 20
61.415547
 30
0.0
 11
88.347577
 21
37.125605
 31
0.0
  0
LINE
  5
5051
100
AcDbEntity
  8
STUD
100
AcDbLine
 10
88.415219
 20
61.415547
 30
0.0
 11
88.415219
 21
35.696938
 31
0.0
  0
LINE
  5
5052
100
AcDbEntity
  8
STUD
100
AcDbLine
 10
89.692508
 20
65.953526
 30
0.0
 11
89.692508
 21
62.212749
 31
0.0
  0
LINE
  5
5053
100
AcDbEntity
  8
STUD
100
AcDbLine
 10
87.422985
 20
62.558142
 30
0.0
 11
87.422985
 21
61.9926
 31
0.0
  0
POLYLINE
  5
5055
100
AcDbEntity
  8
STUD
100
AcDb2dPolyline
 66
     1
 10
0.0
 20
0.0
 30
0.0
  0
VERTEX
  5
5056
100
AcDbEntity
  8
STUD
100
AcDbVertex
100
AcDb2dVertex
 10
91.677574
 20
37.328116
 30
0.0
  0
VERTEX
  5
5057
100
AcDbEntity
  8
STUD
100
AcDbVertex
100
AcDb2dVertex
 10
91.677574
 20
63.299069
 30
0.0
  0
SEQEND
  5
5058
100
AcDbEntity
  8
STUD
  0
LINE
  5
5059
100
AcDbEntity
  8
STUD
100
AcDbLine
 10
89.699111
 20
51.295724
 30
0.0
 11
89.699111
 21
48.578207
 31
0.0
  0
POLYLINE
  5
505A
100
AcDbEntity
  8
STUD
100
AcDb2dPolyline
 66
     1
 10
0.0
 20
0.0
 30
0.0
 70
     1
  0
VERTEX
  5
505B
100
AcDbEntity
  8
STUD
100
AcDbVertex
100
AcDb2dVertex
 10
89.441547
 20
51.166942
 30
0.0
  0
VERTEX
  5
505C
100
AcDbEntity
  8
STUD
100
AcDbVertex
100
AcDb2dVertex
 10
90.504359
 20
51.698348
 30
0.0
 42
-0.557537
  0
VERTEX
  5
505D
100
AcDbEntity
  8
STUD
100
AcDbVertex
100
AcDb2dVertex
 10
90.685261
 20
51.586545
 30
0.0
  0
VERTEX
  5
505E
100
AcDbEntity
  8
STUD
100
AcDbVertex
100
AcDb2dVertex
 10
90.685261
 20
49.123324
 30
0.0
 42
-0.284079
  0
VERTEX
  5
505F
100
AcDbEntity
  8
STUD
100
AcDbVertex
100
AcDb2dVertex
 10
90.616163
 20
49.011521
 30
0.0
  0
VERTEX
  5
5060
100
AcDbEntity
  8
STUD
100
AcDbVertex
100
AcDb2dVertex
 10
89.553351
 20
48.480115
 30
0.0
 42
-0.557537
  0
VERTEX
  5
5061
100
AcDbEntity
  8
STUD
100
AcDbVertex
100
AcDb2dVertex
 10
89.372449
 20
48.591918
 30
0.0
  0
VERTEX
  5
5062
100
AcDbEntity
  8
STUD
100
AcDbVertex
100
AcDb2dVertex
 10
89.372449
 20
51.055139
 30
0.0
 42
-0.284079
  0
SEQEND
  5
5063
100
AcDbEntity
  8
STUD
  0
POLYLINE
  5
5064
100
AcDbEntity
  8
STUD
100
AcDb2dPolyline
 66
     1
 10
0.0
 20
0.0
 30
0.0
  0
VERTEX
  5
5065
100
AcDbEntity
  8
STUD
100
AcDbVertex
100
AcDb2dVertex
 10
89.47921
 20
48.468256
 30
0.0
  0
VERTEX
  5
5066
100
AcDbEntity
  8
STUD
100
AcDbVertex
100
AcDb2dVertex
 10
90.606078
 20
49.03169
 30
0.0
 42
0.284079
  0
VERTEX
  5
5067
100
AcDbEntity
  8
STUD
100
AcDbVertex
100
AcDb2dVertex
 10
90.662711
 20
49.123324
 30
0.0
  0
VERTEX
  5
5068
100
AcDbEntity
  8
STUD
100
AcDbVertex
100
AcDb2dVertex
 10
90.662711
 20
51.586545
 30
0.0
 42
0.447316
  0
VERTEX
  5
5069
100
AcDbEntity
  8
STUD
100
AcDbVertex
100
AcDb2dVertex
 10
90.504359
 20
51.698348
 30
0.0
  0
SEQEND
  5
506A
100
AcDbEntity
  8
STUD
  0
LINE
  5
506B
100
AcDbEntity
  8
STUD
100
AcDbLine
 10
90.247657
 20
51.566915
 30
0.0
 11
90.247657
 21
48.85248
 31
0.0
  0
POLYLINE
  5
506C
100
AcDbEntity
  8
STUD
100
AcDb2dPolyline
 66
     1
 10
0.0
 20
0.0
 30
0.0
  0
VERTEX
  5
506D
100
AcDbEntity
  8
STUD
100
AcDbVertex
100
AcDb2dVertex
 10
88.386299
 20
35.682478
 30
0.0
  0
VERTEX
  5
506E
100
AcDbEntity
  8
STUD
100
AcDbVertex
100
AcDb2dVertex
 10
91.677574
 20
37.328116
 30
0.0
  0
SEQEND
  5
506F
100
AcDbEntity
  8
STUD
  0
POLYLINE
  5
5079
100
AcDbEntity
  8
STUD
100
AcDb2dPolyline
 66
     1
 10
0.0
 20
0.0
 30
0.0
  0
VERTEX
  5
507A
100
AcDbEntity
  8
STUD
100
AcDbVertex
100
AcDb2dVertex
 10
86.933956
 20
73.410575
 30
0.0
  0
VERTEX
  5
507B
100
AcDbEntity
  8
STUD
100
AcDbVertex
100
AcDb2dVertex
 10
88.468651
 20
72.524518
 30
0.0
  0
VERTEX
  5
507C
100
AcDbEntity
  8
STUD
100
AcDbVertex
100
AcDb2dVertex
 10
89.822865
 20
73.306374
 30
0.0
  0
VERTEX
  5
507D
100
AcDbEntity
  8
STUD
100
AcDbVertex
100
AcDb2dVertex
 10
89.822865
 20
73.997726
 30
0.0
  0
VERTEX
  5
507E
100
AcDbEntity
  8
STUD
100
AcDbVertex
100
AcDb2dVertex
 10
90.566993
 20
73.044645
 30
0.0
  0
VERTEX
  5
507F
100
AcDbEntity
  8
STUD
100
AcDbVertex
100
AcDb2dVertex
 10
90.566993
 20
73.735997
 30
0.0
  0
VERTEX
  5
5080
100
AcDbEntity
  8
STUD
100
AcDbVertex
100
AcDb2dVertex
 10
91.759926
 20
74.424737
 30
0.0
  0
SEQEND
  5
5081
100
AcDbEntity
  8
STUD
  0
POLYLINE
  5
5082
100
AcDbEntity
  8
STUD
100
AcDb2dPolyline
 66
     1
 10
0.0
 20
0.0
 30
0.0
  0
VERTEX
  5
5083
100
AcDbEntity
  8
STUD
100
AcDbVertex
100
AcDb2dVertex
 10
89.822865
 20
73.924019
 30
0.0
  0
VERTEX
  5
5084
100
AcDbEntity
  8
STUD
100
AcDbVertex
100
AcDb2dVertex
 10
90.462215
 20
73.105139
 30
0.0
  0
VERTEX
  5
5085
100
AcDbEntity
  8
STUD
100
AcDbVertex
100
AcDb2dVertex
 10
90.566993
 20
73.044645
 30
0.0
  0
SEQEND
  5
5086
100
AcDbEntity
  8
STUD
  0
LINE
  5
5087
100
AcDbEntity
  8
STUD
100
AcDbLine
 10
86.933956
 20
73.410575
 30
0.0
 11
86.933956
 21
118.07689
 31
0.0
  0
LINE
  5
5088
100
AcDbEntity
  8
STUD
100
AcDbLine
 10
88.363873
 20
72.585012
 30
0.0
 11
88.363873
 21
117.361832
 31
0.0
  0
LINE
  5
5089
100
AcDbEntity
  8
STUD
100
AcDbLine
 10
91.759926
 20
74.424737
 30
0.0
 11
91.759926
 21
115.66357
 31
0.0
  0
LINE
  5
508A
100
AcDbEntity
  8
STUD
100
AcDbLine
 10
88.468651
 20
72.524518
 30
0.0
 11
88.468651
 21
117.309436
 31
0.0
  0
LINE
  5
508F
100
AcDbEntity
  8
STUD
100
AcDbLine
 10
90.336172
 20
86.00819
 30
0.0
 11
90.336172
 21
83.293754
 31
0.0
  0
POLYLINE
  5
5090
100
AcDbEntity
  8
STUD
100
AcDb2dPolyline
 66
     1
 10
0.0
 20
0.0
 30
0.0
  0
VERTEX
  5
5091
100
AcDbEntity
  8
STUD
100
AcDbVertex
100
AcDb2dVertex
 10
89.567725
 20
82.909531
 30
0.0
  0
VERTEX
  5
5092
100
AcDbEntity
  8
STUD
100
AcDbVertex
100
AcDb2dVertex
 10
90.694593
 20
83.472965
 30
0.0
 42
0.284079
  0
VERTEX
  5
5093
100
AcDbEntity
  8
STUD
100
AcDbVertex
100
AcDb2dVertex
 10
90.751226
 20
83.564599
 30
0.0
  0
VERTEX
  5
5094
100
AcDbEntity
  8
STUD
100
AcDbVertex
100
AcDb2dVertex
 10
90.751226
 20
86.02782
 30
0.0
 42
0.447316
  0
VERTEX
  5
5095
100
AcDbEntity
  8
STUD
100
AcDbVertex
100
AcDb2dVertex
 10
90.592875
 20
86.139623
 30
0.0
  0
SEQEND
  5
5096
100
AcDbEntity
  8
STUD
  0
POLYLINE
  5
5097
100
AcDbEntity
  8
STUD
100
AcDb2dPolyline
 66
     1
 10
0.0
 20
0.0
 30
0.0
 70
     1
  0
VERTEX
  5
5098
100
AcDbEntity
  8
STUD
100
AcDbVertex
100
AcDb2dVertex
 10
89.530063
 20
85.608217
 30
0.0
  0
VERTEX
  5
5099
100
AcDbEntity
  8
STUD
100
AcDbVertex
100
AcDb2dVertex
 10
90.592875
 20
86.139623
 30
0.0
 42
-0.557537
  0
VERTEX
  5
509A
100
AcDbEntity
  8
STUD
100
AcDbVertex
100
AcDb2dVertex
 10
90.773776
 20
86.02782
 30
0.0
  0
VERTEX
  5
509B
100
AcDbEntity
  8
STUD
100
AcDbVertex
100
AcDb2dVertex
 10
90.773776
 20
83.564599
 30
0.0
 42
-0.284079
  0
VERTEX
  5
509C
100
AcDbEntity
  8
STUD
100
AcDbVertex
100
AcDb2dVertex
 10
90.704678
 20
83.452795
 30
0.0
  0
VERTEX
  5
509D
100
AcDbEntity
  8
STUD
100
AcDbVertex
100
AcDb2dVertex
 10
89.641866
 20
82.921389
 30
0.0
 42
-0.557537
  0
VERTEX
  5
509E
100
AcDbEntity
  8
STUD
100
AcDbVertex
100
AcDb2dVertex
 10
89.460965
 20
83.033193
 30
0.0
  0
VERTEX
  5
509F
100
AcDbEntity
  8
STUD
100
AcDbVertex
100
AcDb2dVertex
 10
89.460965
 20
85.496414
 30
0.0
 42
-0.284079
  0
SEQEND
  5
50A0
100
AcDbEntity
  8
STUD
  0
LINE
  5
50A1
100
AcDbEntity
  8
STUD
100
AcDbLine
 10
89.787627
 20
85.736999
 30
0.0
 11
89.787627
 21
83.019481
 31
0.0
  0
LINE
  5
50B1
100
AcDbEntity
  8
TRACK
100
AcDbLine
 10
85.437247
 20
113.453762
 30
0.0
 11
86.861001
 21
112.631757
 31
0.0
  0
POLYLINE
  5
50DB
100
AcDbEntity
  8
STUD
100
AcDb2dPolyline
 66
     1
 10
0.0
 20
0.0
 30
0.0
  0
VERTEX
  5
50DC
100
AcDbEntity
  8
STUD
100
AcDbVertex
100
AcDb2dVertex
 10
88.716348
 20
71.932671
 30
0.0
  0
VERTEX
  5
50DD
100
AcDbEntity
  8
STUD
100
AcDbVertex
100
AcDb2dVertex
 10
88.716524
 20
72.667628
 30
0.0
  0
SEQEND
  5
50DE
100
AcDbEntity
  8
STUD
  0
POLYLINE
  5
50DF
100
AcDbEntity
  8
STUD
100
AcDb2dPolyline
 66
     1
 10
0.0
 20
0.0
 30
0.0
  0
VERTEX
  5
50E0
100
AcDbEntity
  8
STUD
100
AcDbVertex
100
AcDb2dVertex
 10
88.686643
 20
71.932671
 30
0.0
  0
VERTEX
  5
50E1
100
AcDbEntity
  8
STUD
100
AcDbVertex
100
AcDb2dVertex
 10
88.685532
 20
72.649735
 30
0.0
  0
SEQEND
  5
50E2
100
AcDbEntity
  8
STUD
  0
POLYLINE
  5
50E3
100
AcDbEntity
  8
STUD
100
AcDb2dPolyline
 66
     1
 10
0.0
 20
0.0
 30
0.0
  0
VERTEX
  5
50E4
100
AcDbEntity
  8
STUD
100
AcDbVertex
100
AcDb2dVertex
 10
90.100012
 20
71.061094
 30
0.0
  0
VERTEX
  5
50E5
100
AcDbEntity
  8
STUD
100
AcDbVertex
100
AcDb2dVertex
 10
90.102896
 20
73.639061
 30
0.0
  0
SEQEND
  5
50E6
100
AcDbEntity
  8
STUD
  0
POLYLINE
  5
50E7
100
AcDbEntity
  8
STUD
100
AcDb2dPolyline
 66
     1
 10
0.0
 20
0.0
 30
0.0
  0
VERTEX
  5
50E8
100
AcDbEntity
  8
STUD
100
AcDbVertex
100
AcDb2dVertex
 10
87.35763
 20
69.499047
 30
0.0
  0
VERTEX
  5
50E9
100
AcDbEntity
  8
STUD
100
AcDbVertex
100
AcDb2dVertex
 10
87.353065
 20
73.168603
 30
0.0
  0
SEQEND
  5
50EA
100
AcDbEntity
  8
STUD
  0
LINE
  5
50EB
100
AcDbEntity
  8
STUD
100
AcDbLine
 10
89.787627
 20
109.736999
 30
0.0
 11
89.787627
 21
107.019481
 31
0.0
  0
POLYLINE
  5
50EC
100
AcDbEntity
  8
STUD
100
AcDb2dPolyline
 66
     1
 10
0.0
 20
0.0
 30
0.0
 70
     1
  0
VERTEX
  5
50ED
100
AcDbEntity
  8
STUD
100
AcDbVertex
100
AcDb2dVertex
 10
89.530063
 20
109.608217
 30
0.0
  0
VERTEX
  5
50EE
100
AcDbEntity
  8
STUD
100
AcDbVertex
100
AcDb2dVertex
 10
90.592875
 20
110.139623
 30
0.0
 42
-0.557537
  0
VERTEX
  5
50EF
100
AcDbEntity
  8
STUD
100
AcDbVertex
100
AcDb2dVertex
 10
90.773776
 20
110.02782
 30
0.0
  0
VERTEX
  5
50F0
100
AcDbEntity
  8
STUD
100
AcDbVertex
100
AcDb2dVertex
 10
90.773776
 20
107.564599
 30
0.0
 42
-0.284079
  0
VERTEX
  5
50F1
100
AcDbEntity
  8
STUD
100
AcDbVertex
100
AcDb2dVertex
 10
90.704678
 20
107.452795
 30
0.0
  0
VERTEX
  5
50F2
100
AcDbEntity
  8
STUD
100
AcDbVertex
100
AcDb2dVertex
 10
89.641866
 20
106.921389
 30
0.0
 42
-0.557537
  0
VERTEX
  5
50F3
100
AcDbEntity
  8
STUD
100
AcDbVertex
100
AcDb2dVertex
 10
89.460965
 20
107.033193
 30
0.0
  0
VERTEX
  5
50F4
100
AcDbEntity
  8
STUD
100
AcDbVertex
100
AcDb2dVertex
 10
89.460965
 20
109.496414
 30
0.0
 42
-0.284079
  0
SEQEND
  5
50F5
100
AcDbEntity
  8
STUD
  0
POLYLINE
  5
50F6
100
AcDbEntity
  8
STUD
100
AcDb2dPolyline
 66
     1
 10
0.0
 20
0.0
 30
0.0
  0
VERTEX
  5
50F7
100
AcDbEntity
  8
STUD
100
AcDbVertex
100
AcDb2dVertex
 10
89.567725
 20
106.909531
 30
0.0
  0
VERTEX
  5
50F8
100
AcDbEntity
  8
STUD
100
AcDbVertex
100
AcDb2dVertex
 10
90.694593
 20
107.472965
 30
0.0
 42
0.284079
  0
VERTEX
  5
50F9
100
AcDbEntity
  8
STUD
100
AcDbVertex
100
AcDb2dVertex
 10
90.751226
 20
107.564599
 30
0.0
  0
VERTEX
  5
50FA
100
AcDbEntity
  8
STUD
100
AcDbVertex
100
AcDb2dVertex
 10
90.751226
 20
110.02782
 30
0.0
 42
0.447316
  0
VERTEX
  5
50FB
100
AcDbEntity
  8
STUD
100
AcDbVertex
100
AcDb2dVertex
 10
90.592875
 20
110.139623
 30
0.0
  0
SEQEND
  5
50FC
100
AcDbEntity
  8
STUD
  0
LINE
  5
50FD
100
AcDbEntity
  8
STUD
100
AcDbLine
 10
90.336172
 20
110.00819
 30
0.0
 11
90.336172
 21
107.293754
 31
0.0
  0
POLYLINE
  5
50FE
100
AcDbEntity
  8
TRACK
100
AcDb2dPolyline
 66
     1
 10
0.0
 20
0.0
 30
0.0
  0
VERTEX
  5
50FF
100
AcDbEntity
  8
TRACK
100
AcDbVertex
100
AcDb2dVertex
 10
86.861001
 20
112.631757
 30
0.0
  0
VERTEX
  5
5100
100
AcDbEntity
  8
TRACK
100
AcDbVertex
100
AcDb2dVertex
 10
86.861001
 20
117.563396
 30
0.0
  0
SEQEND
  5
5101
100
AcDbEntity
  8
TRACK
  0
POLYLINE
  5
5102
100
AcDbEntity
  8
TRACK
100
AcDb2dPolyline
 66
     1
 10
0.0
 20
0.0
 30
0.0
  0
VERTEX
  5
5103
100
AcDbEntity
  8
TRACK
100
AcDbVertex
100
AcDb2dVertex
 10
86.756223
 20
112.692251
 30
0.0
  0
VERTEX
  5
5104
100
AcDbEntity
  8
TRACK
100
AcDbVertex
100
AcDb2dVertex
 10
86.756223
 20
117.563396
 30
0.0
  0
VERTEX
  5
5105
100
AcDbEntity
  8
TRACK
100
AcDbVertex
100
AcDb2dVertex
 10
85.437247
 20
118.222884
 30
0.0
  0
SEQEND
  5
5106
100
AcDbEntity
  8
TRACK
  0
POLYLINE
  5
5107
100
AcDbEntity
  8
TRACK
100
AcDb2dPolyline
 66
     1
 10
0.0
 20
0.0
 30
0.0
  0
VERTEX
  5
5108
100
AcDbEntity
  8
TRACK
100
AcDbVertex
100
AcDb2dVertex
 10
85.437247
 20
118.222884
 30
0.0
  0
VERTEX
  5
5109
100
AcDbEntity
  8
TRACK
100
AcDbVertex
100
AcDb2dVertex
 10
85.437247
 20
113.453762
 30
0.0
  0
SEQEND
  5
510A
100
AcDbEntity
  8
TRACK
  0
POLYLINE
  5
510B
100
AcDbEntity
  8
STUD
100
AcDb2dPolyline
 66
     1
 10
0.0
 20
0.0
 30
0.0
  0
VERTEX
  5
510C
100
AcDbEntity
  8
STUD
100
AcDbVertex
100
AcDb2dVertex
 10
86.85967
 20
69.190281
 30
0.0
  0
VERTEX
  5
510D
100
AcDbEntity
  8
STUD
100
AcDbVertex
100
AcDb2dVertex
 10
86.85967
 20
112.632525
 30
0.0
  0
SEQEND
  5
510E
100
AcDbEntity
  8
STUD
  0
POLYLINE
  5
510F
100
AcDbEntity
  8
STUD
100
AcDb2dPolyline
 66
     1
 10
0.0
 20
0.0
 30
0.0
  0
VERTEX
  5
5110
100
AcDbEntity
  8
STUD
100
AcDbVertex
100
AcDb2dVertex
 10
86.754892
 20
69.250775
 30
0.0
  0
VERTEX
  5
5111
100
AcDbEntity
  8
STUD
100
AcDbVertex
100
AcDb2dVertex
 10
86.754892
 20
112.693019
 30
0.0
  0
SEQEND
  5
5112
100
AcDbEntity
  8
STUD
  0
LINE
  5
5115
100
AcDbEntity
  8
TRACK
100
AcDbLine
 10
40.715353
 20
135.56003
 30
0.0
 11
39.285436
 21
136.385593
 31
0.0
  0
POLYLINE
  5
5116
100
AcDbEntity
  8
TRACK
100
AcDb2dPolyline
 66
     1
 10
0.0
 20
0.0
 30
0.0
  0
VERTEX
  5
5117
100
AcDbEntity
  8
TRACK
100
AcDbVertex
100
AcDb2dVertex
 10
40.715353
 20
135.56003
 30
0.0
  0
VERTEX
  5
5118
100
AcDbEntity
  8
TRACK
100
AcDbVertex
100
AcDb2dVertex
 10
40.715353
 20
140.583831
 30
0.0
  0
VERTEX
  5
5119
100
AcDbEntity
  8
TRACK
100
AcDbVertex
100
AcDb2dVertex
 10
39.396378
 20
141.243319
 30
0.0
  0
SEQEND
  5
511A
100
AcDbEntity
  8
TRACK
  0
POLYLINE
  5
511B
100
AcDbEntity
  8
TRACK
100
AcDb2dPolyline
 66
     1
 10
0.0
 20
0.0
 30
0.0
  0
VERTEX
  5
511C
100
AcDbEntity
  8
TRACK
100
AcDbVertex
100
AcDb2dVertex
 10
39.396378
 20
136.321541
 30
0.0
  0
VERTEX
  5
511D
100
AcDbEntity
  8
TRACK
100
AcDbVertex
100
AcDb2dVertex
 10
39.396378
 20
141.243319
 30
0.0
  0
SEQEND
  5
511E
100
AcDbEntity
  8
TRACK
  0
POLYLINE
  5
511F
100
AcDbEntity
  8
STUD
100
AcDb2dPolyline
 66
     1
 10
0.0
 20
0.0
 30
0.0
  0
VERTEX
  5
5120
100
AcDbEntity
  8
STUD
100
AcDbVertex
100
AcDb2dVertex
 10
39.820052
 20
95.693826
 30
0.0
  0
VERTEX
  5
5121
100
AcDbEntity
  8
STUD
100
AcDbVertex
100
AcDb2dVertex
 10
39.815487
 20
99.363382
 30
0.0
  0
SEQEND
  5
5122
100
AcDbEntity
  8
STUD
  0
POLYLINE
  5
5123
100
AcDbEntity
  8
STUD
100
AcDb2dPolyline
 66
     1
 10
0.0
 20
0.0
 30
0.0
  0
VERTEX
  5
5124
100
AcDbEntity
  8
STUD
100
AcDbVertex
100
AcDb2dVertex
 10
42.562435
 20
97.255873
 30
0.0
  0
VERTEX
  5
5125
100
AcDbEntity
  8
STUD
100
AcDbVertex
100
AcDb2dVertex
 10
42.565319
 20
99.83384
 30
0.0
  0
SEQEND
  5
5126
100
AcDbEntity
  8
STUD
  0
POLYLINE
  5
5127
100
AcDbEntity
  8
STUD
100
AcDb2dPolyline
 66
     1
 10
0.0
 20
0.0
 30
0.0
  0
VERTEX
  5
5128
100
AcDbEntity
  8
STUD
100
AcDbVertex
100
AcDb2dVertex
 10
41.149066
 20
98.127451
 30
0.0
  0
VERTEX
  5
5129
100
AcDbEntity
  8
STUD
100
AcDbVertex
100
AcDb2dVertex
 10
41.147954
 20
98.844514
 30
0.0
  0
SEQEND
  5
512A
100
AcDbEntity
  8
STUD
  0
POLYLINE
  5
512B
100
AcDbEntity
  8
STUD
100
AcDb2dPolyline
 66
     1
 10
0.0
 20
0.0
 30
0.0
  0
VERTEX
  5
512C
100
AcDbEntity
  8
STUD
100
AcDbVertex
100
AcDb2dVertex
 10
41.17877
 20
98.127451
 30
0.0
  0
VERTEX
  5
512D
100
AcDbEntity
  8
STUD
100
AcDbVertex
100
AcDb2dVertex
 10
41.178946
 20
98.862407
 30
0.0
  0
SEQEND
  5
512E
100
AcDbEntity
  8
STUD
  0
POLYLINE
  5
512F
100
AcDbEntity
  8
STUD
100
AcDb2dPolyline
 66
     1
 10
0.0
 20
0.0
 30
0.0
  0
VERTEX
  5
5130
100
AcDbEntity
  8
STUD
100
AcDbVertex
100
AcDb2dVertex
 10
42.285287
 20
100.118798
 30
0.0
  0
VERTEX
  5
5131
100
AcDbEntity
  8
STUD
100
AcDbVertex
100
AcDb2dVertex
 10
42.924637
 20
99.299918
 30
0.0
  0
VERTEX
  5
5132
100
AcDbEntity
  8
STUD
100
AcDbVertex
100
AcDb2dVertex
 10
43.029415
 20
99.239424
 30
0.0
  0
SEQEND
  5
5133
100
AcDbEntity
  8
STUD
  0
POLYLINE
  5
5134
100
AcDbEntity
  8
STUD
100
AcDb2dPolyline
 66
     1
 10
0.0
 20
0.0
 30
0.0
  0
VERTEX
  5
5135
100
AcDbEntity
  8
STUD
100
AcDbVertex
100
AcDb2dVertex
 10
39.396378
 20
99.605355
 30
0.0
  0
VERTEX
  5
5136
100
AcDbEntity
  8
STUD
100
AcDbVertex
100
AcDb2dVertex
 10
40.931073
 20
98.719298
 30
0.0
  0
VERTEX
  5
5137
100
AcDbEntity
  8
STUD
100
AcDbVertex
100
AcDb2dVertex
 10
42.285287
 20
99.501153
 30
0.0
  0
VERTEX
  5
5138
100
AcDbEntity
  8
STUD
100
AcDbVertex
100
AcDb2dVertex
 10
42.285287
 20
100.192505
 30
0.0
  0
VERTEX
  5
5139
100
AcDbEntity
  8
STUD
100
AcDbVertex
100
AcDb2dVertex
 10
43.029415
 20
99.239424
 30
0.0
  0
VERTEX
  5
513A
100
AcDbEntity
  8
STUD
100
AcDbVertex
100
AcDb2dVertex
 10
43.029415
 20
99.930776
 30
0.0
  0
VERTEX
  5
513B
100
AcDbEntity
  8
STUD
100
AcDbVertex
100
AcDb2dVertex
 10
44.222348
 20
100.619516
 30
0.0
  0
SEQEND
  5
513C
100
AcDbEntity
  8
STUD
  0
POLYLINE
  5
513D
100
AcDbEntity
  8
STUD
100
AcDb2dPolyline
 66
     1
 10
0.0
 20
0.0
 30
0.0
  0
VERTEX
  5
513E
100
AcDbEntity
  8
STUD
100
AcDbVertex
100
AcDb2dVertex
 10
40.703737
 20
97.178988
 30
0.0
  0
VERTEX
  5
513F
100
AcDbEntity
  8
STUD
100
AcDbVertex
100
AcDb2dVertex
 10
40.666899
 20
97.200257
 30
0.0
  0
VERTEX
  5
5140
100
AcDbEntity
  8
STUD
100
AcDbVertex
100
AcDb2dVertex
 10
39.959609
 20
98.106155
 30
0.0
  0
SEQEND
  5
5141
100
AcDbEntity
  8
STUD
  0
POLYLINE
  5
5142
100
AcDbEntity
  8
STUD
100
AcDb2dPolyline
 66
     1
 10
0.0
 20
0.0
 30
0.0
  0
VERTEX
  5
5143
100
AcDbEntity
  8
STUD
100
AcDbVertex
100
AcDb2dVertex
 10
42.105804
 20
97.592228
 30
0.0
  0
VERTEX
  5
5144
100
AcDbEntity
  8
STUD
100
AcDbVertex
100
AcDb2dVertex
 10
41.17877
 20
98.127451
 30
0.0
 42
0.267949
  0
VERTEX
  5
5145
100
AcDbEntity
  8
STUD
100
AcDbVertex
100
AcDb2dVertex
 10
41.149066
 20
98.127451
 30
0.0
  0
VERTEX
  5
5146
100
AcDbEntity
  8
STUD
100
AcDbVertex
100
AcDb2dVertex
 10
40.703737
 20
97.87034
 30
0.0
  0
VERTEX
  5
5147
100
AcDbEntity
  8
STUD
100
AcDbVertex
100
AcDb2dVertex
 10
40.703737
 20
97.178988
 30
0.0
  0
VERTEX
  5
5148
100
AcDbEntity
  8
STUD
100
AcDbVertex
100
AcDb2dVertex
 10
39.959609
 20
98.132069
 30
0.0
  0
VERTEX
  5
5149
100
AcDbEntity
  8
STUD
100
AcDbVertex
100
AcDb2dVertex
 10
39.959609
 20
97.440717
 30
0.0
  0
VERTEX
  5
514A
100
AcDbEntity
  8
STUD
100
AcDbVertex
100
AcDb2dVertex
 10
39.81798
 20
97.358948
 30
0.0
 42
0.57735
  0
SEQEND
  5
514B
100
AcDbEntity
  8
STUD
  0
POLYLINE
  5
514C
100
AcDbEntity
  8
STUD
100
AcDb2dPolyline
 66
     1
 10
0.0
 20
0.0
 30
0.0
  0
VERTEX
  5
514D
100
AcDbEntity
  8
STUD
100
AcDbVertex
100
AcDb2dVertex
 10
39.838471
 20
95.683192
 30
0.0
  0
VERTEX
  5
514E
100
AcDbEntity
  8
STUD
100
AcDbVertex
100
AcDb2dVertex
 10
39.353089
 20
95.402956
 30
0.0
 42
-0.267949
  0
VERTEX
  5
514F
100
AcDbEntity
  8
STUD
100
AcDbVertex
100
AcDb2dVertex
 10
39.286546
 20
95.402956
 30
0.0
  0
VERTEX
  5
5150
100
AcDbEntity
  8
STUD
100
AcDbVertex
100
AcDb2dVertex
 10
37.921301
 20
96.191181
 30
0.0
 42
-0.57735
  0
VERTEX
  5
5151
100
AcDbEntity
  8
STUD
100
AcDbVertex
100
AcDb2dVertex
 10
37.921301
 20
96.306437
 30
0.0
  0
SEQEND
  5
5152
100
AcDbEntity
  8
STUD
  0
LINE
  5
5153
100
AcDbEntity
  8
STUD
100
AcDbLine
 10
42.102714
 20
99.395745
 30
0.0
 11
42.106758
 21
97.035325
 31
0.0
  0
POLYLINE
  5
5154
100
AcDbEntity
  8
STUD
100
AcDb2dPolyline
 66
     1
 10
0.0
 20
0.0
 30
0.0
  0
VERTEX
  5
5155
100
AcDbEntity
  8
STUD
100
AcDbVertex
100
AcDb2dVertex
 10
42.562435
 20
97.371129
 30
0.0
 42
-0.57735
  0
VERTEX
  5
5156
100
AcDbEntity
  8
STUD
100
AcDbVertex
100
AcDb2dVertex
 10
42.562435
 20
97.255873
 30
0.0
  0
VERTEX
  5
5157
100
AcDbEntity
  8
STUD
100
AcDbVertex
100
AcDb2dVertex
 10
42.143596
 20
97.014056
 30
0.0
  0
VERTEX
  5
5158
100
AcDbEntity
  8
STUD
100
AcDbVertex
100
AcDb2dVertex
 10
42.106758
 20
97.035325
 30
0.0
  0
SEQEND
  5
5159
100
AcDbEntity
  8
STUD
  0
LINE
  5
515A
100
AcDbEntity
  8
STUD
100
AcDbLine
 10
42.13948
 20
99.416971
 30
0.0
 11
42.143596
 21
97.014056
 31
0.0
  0
LINE
  5
515D
100
AcDbEntity
  8
STUD
100
AcDbLine
 10
39.638554
 20
141.122231
 30
0.0
 11
39.638554
 21
141.727874
 31
0.0
  0
POLYLINE
  5
515E
100
AcDbEntity
  8
TRACK
100
AcDb2dPolyline
 66
     1
 10
0.0
 20
0.0
 30
0.0
  0
VERTEX
  5
515F
100
AcDbEntity
  8
TRACK
100
AcDbVertex
100
AcDb2dVertex
 10
39.396378
 20
141.243319
 30
0.0
  0
VERTEX
  5
5160
100
AcDbEntity
  8
TRACK
100
AcDbVertex
100
AcDb2dVertex
 10
39.638554
 20
141.380923
 30
0.0
  0
SEQEND
  5
5161
100
AcDbEntity
  8
TRACK
  0
LINE
  5
5162
100
AcDbEntity
  8
STUD
100
AcDbLine
 10
41.48839
 20
135.998713
 30
0.0
 11
40.715353
 21
135.554307
 31
0.0
  0
TEXT
  5
5184
100
AcDbEntity
  8
LINK
100
AcDbText
 10
-40.620241
 20
4.468381
 30
0.0
 40
6.0
  1
24
  7
BLOCK
 11
-40.620241
 21
4.468381
 31
0.0
100
AcDbText
 73
     1
  0
LINE
  5
521B
100
AcDbEntity
  8
STUD
100
AcDbLine
 10
86.65874
 20
117.568666
 30
0.0
 11
86.65874
 21
118.171085
 31
0.0
  0
POLYLINE
  5
5239
100
AcDbEntity
  8
TRACK
100
AcDb2dPolyline
 66
     1
 10
0.0
 20
0.0
 30
0.0
  0
VERTEX
  5
523A
100
AcDbEntity
  8
TRACK
100
AcDbVertex
100
AcDb2dVertex
 10
84.985526
 20
113.955599
 30
0.0
  0
VERTEX
  5
523B
100
AcDbEntity
  8
TRACK
100
AcDbVertex
100
AcDb2dVertex
 10
41.46025
 20
135.718238
 30
0.0
  0
SEQEND
  5
523C
100
AcDbEntity
  8
TRACK
  0
POLYLINE
  5
5247
100
AcDbEntity
  8
STUD
100
AcDb2dPolyline
 66
     1
 10
0.0
 20
0.0
 30
0.0
  0
VERTEX
  5
5248
100
AcDbEntity
  8
STUD
100
AcDbVertex
100
AcDb2dVertex
 10
85.437247
 20
114.024285
 30
0.0
  0
SEQEND
  5
5249
100
AcDbEntity
  8
STUD
  0
POLYLINE
  5
5254
100
AcDbEntity
  8
STUD
100
AcDb2dPolyline
 66
     1
 10
0.0
 20
0.0
 30
0.0
  0
VERTEX
  5
5255
100
AcDbEntity
  8
STUD
100
AcDbVertex
100
AcDb2dVertex
 10
40.715353
 20
136.385232
 30
0.0
  0
VERTEX
  5
5256
100
AcDbEntity
  8
STUD
100
AcDbVertex
100
AcDb2dVertex
 10
41.606683
 20
135.939567
 30
0.0
  0
VERTEX
  5
5257
100
AcDbEntity
  8
STUD
100
AcDbVertex
100
AcDb2dVertex
 10
85.257554
 20
114.114131
 30
0.0
  0
VERTEX
  5
5258
100
AcDbEntity
  8
STUD
100
AcDbVertex
100
AcDb2dVertex
 10
85.437247
 20
114.024285
 30
0.0
  0
SEQEND
  5
5259
100
AcDbEntity
  8
STUD
  0
ELLIPSE
  5
525A
100
AcDbEntity
  8
FASTENER
100
AcDbEllipse
 10
44.921804
 20
117.748197
 30
0.0
 11
0.0811898816047872
 21
-0.1406250000000069
 31
0.0
210
0.0
220
0.0
230
1.0
 40
0.57735
 41
0.0000000000000242
 42
6.283185307179624
  0
LINE
  5
525B
100
AcDbEntity
  8
FASTENER
100
AcDbLine
 10
45.084184
 20
117.654447
 30
0.0
 11
44.759425
 21
117.841947
 31
0.0
  0
LINE
  5
525C
100
AcDbEntity
  8
FASTENER
100
AcDbLine
 10
44.921804
 20
117.935697
 30
0.0
 11
44.921804
 21
117.560697
 31
0.0
  0
ELLIPSE
  5
525D
100
AcDbEntity
  8
FASTENER
100
AcDbEllipse
 10
54.81631
 20
109.784512
 30
0.0
 11
0.114819831692953
 21
-0.1988737822087213
 31
0.0
210
0.0
220
0.0
230
1.0
 40
0.57735
 41
0.0000000000000128
 42
6.283185307179612
  0
LINE
  5
525E
100
AcDbEntity
  8
FASTENER
100
AcDbLine
 10
54.97869
 20
109.690762
 30
0.0
 11
54.653931
 21
109.878262
 31
0.0
  0
LINE
  5
525F
100
AcDbEntity
  8
FASTENER
100
AcDbLine
 10
54.81631
 20
109.972012
 30
0.0
 11
54.81631
 21
109.597012
 31
0.0
  0
ELLIPSE
  5
5260
100
AcDbEntity
  8
FASTENER
100
AcDbEllipse
 10
54.907316
 20
127.738279
 30
0.0
 11
0.114819831692953
 21
-0.1988737822087213
 31
0.0
210
0.0
220
0.0
230
1.0
 40
0.57735
 41
0.0000000000000128
 42
6.283185307179612
  0
LINE
  5
5261
100
AcDbEntity
  8
FASTENER
100
AcDbLine
 10
55.069696
 20
127.644529
 30
0.0
 11
54.744937
 21
127.832029
 31
0.0
  0
LINE
  5
5262
100
AcDbEntity
  8
FASTENER
100
AcDbLine
 10
54.907316
 20
127.925779
 30
0.0
 11
54.907316
 21
127.550779
 31
0.0
  0
LINE
  5
5263
100
AcDbEntity
  8
FASTENER
100
AcDbLine
 10
69.819507
 20
120.299033
 30
0.0
 11
69.819507
 21
119.924033
 31
0.0
  0
LINE
  5
5264
100
AcDbEntity
  8
FASTENER
100
AcDbLine
 10
69.981887
 20
120.017783
 30
0.0
 11
69.657127
 21
120.205283
 31
0.0
  0
ELLIPSE
  5
5265
100
AcDbEntity
  8
FASTENER
100
AcDbEllipse
 10
69.819507
 20
120.111533
 30
0.0
 11
0.114819831692953
 21
-0.1988737822087213
 31
0.0
210
0.0
220
0.0
230
1.0
 40
0.57735
 41
0.0000000000000128
 42
6.283185307179612
  0
LINE
  5
5266
100
AcDbEntity
  8
FASTENER
100
AcDbLine
 10
69.728501
 20
102.345266
 30
0.0
 11
69.728501
 21
101.970266
 31
0.0
  0
LINE
  5
5267
100
AcDbEntity
  8
FASTENER
100
AcDbLine
 10
69.890881
 20
102.064016
 30
0.0
 11
69.566122
 21
102.251516
 31
0.0
  0
ELLIPSE
  5
5268
100
AcDbEntity
  8
FASTENER
100
AcDbEllipse
 10
69.728501
 20
102.157766
 30
0.0
 11
0.114819831692953
 21
-0.1988737822087213
 31
0.0
210
0.0
220
0.0
230
1.0
 40
0.57735
 41
0.0000000000000128
 42
6.283185307179612
  0
LINE
  5
5269
100
AcDbEntity
  8
FASTENER
100
AcDbLine
 10
84.213013
 20
113.292348
 30
0.0
 11
84.213013
 21
112.917348
 31
0.0
  0
LINE
  5
526A
100
AcDbEntity
  8
FASTENER
100
AcDbLine
 10
84.375393
 20
113.011098
 30
0.0
 11
84.050633
 21
113.198598
 31
0.0
  0
ELLIPSE
  5
526B
100
AcDbEntity
  8
FASTENER
100
AcDbEllipse
 10
84.213013
 20
113.104848
 30
0.0
 11
0.114819831692953
 21
-0.1988737822087213
 31
0.0
210
0.0
220
0.0
230
1.0
 40
0.57735
 41
0.0000000000000128
 42
6.283185307179612
  0
LINE
  5
526C
100
AcDbEntity
  8
FASTENER
100
AcDbLine
 10
84.122007
 20
95.338581
 30
0.0
 11
84.122007
 21
94.963581
 31
0.0
  0
LINE
  5
526D
100
AcDbEntity
  8
FASTENER
100
AcDbLine
 10
84.284387
 20
95.057331
 30
0.0
 11
83.959627
 21
95.244831
 31
0.0
  0
ELLIPSE
  5
526E
100
AcDbEntity
  8
FASTENER
100
AcDbEllipse
 10
84.122007
 20
95.151081
 30
0.0
 11
0.114819831692953
 21
-0.1988737822087213
 31
0.0
210
0.0
220
0.0
230
1.0
 40
0.57735
 41
0.0000000000000128
 42
6.283185307179612
  0
ELLIPSE
  5
526F
100
AcDbEntity
  8
FASTENER
100
AcDbEllipse
 10
75.137267
 20
124.864988
 30
0.0
 11
0.114819831692953
 21
-0.1988737822087213
 31
0.0
210
0.0
220
0.0
230
1.0
 40
0.57735
 41
0.0000000000000128
 42
6.283185307179612
  0
LINE
  5
5270
100
AcDbEntity
  8
FASTENER
100
AcDbLine
 10
75.299647
 20
124.771238
 30
0.0
 11
74.974887
 21
124.958738
 31
0.0
  0
LINE
  5
5271
100
AcDbEntity
  8
FASTENER
100
AcDbLine
 10
75.137267
 20
125.052488
 30
0.0
 11
75.137267
 21
124.677488
 31
0.0
  0
LINE
  5
5272
100
AcDbEntity
  8
FASTENER
100
AcDbLine
 10
52.88418
 20
136.128183
 30
0.0
 11
52.88418
 21
135.753183
 31
0.0
  0
LINE
  5
5273
100
AcDbEntity
  8
FASTENER
100
AcDbLine
 10
53.04656
 20
135.846933
 30
0.0
 11
52.721801
 21
136.034433
 31
0.0
  0
ELLIPSE
  5
5274
100
AcDbEntity
  8
FASTENER
100
AcDbEllipse
 10
52.88418
 20
135.940683
 30
0.0
 11
0.114819831692953
 21
-0.1988737822087213
 31
0.0
210
0.0
220
0.0
230
1.0
 40
0.57735
 41
0.0000000000000128
 42
6.283185307179612
  0
LINE
  5
5275
100
AcDbEntity
  8
FASTENER
100
AcDbLine
 10
75.137267
 20
125.052488
 30
0.0
 11
75.137267
 21
124.677488
 31
0.0
  0
LINE
  5
5276
100
AcDbEntity
  8
FASTENER
100
AcDbLine
 10
75.299647
 20
124.771238
 30
0.0
 11
74.974887
 21
124.958738
 31
0.0
  0
ELLIPSE
  5
5277
100
AcDbEntity
  8
FASTENER
100
AcDbEllipse
 10
75.137267
 20
124.864988
 30
0.0
 11
0.114819831692953
 21
-0.1988737822087213
 31
0.0
210
0.0
220
0.0
230
1.0
 40
0.57735
 41
0.0000000000000128
 42
6.283185307179612
  0
ELLIPSE
  5
527E
100
AcDbEntity
  8
FASTENER
100
AcDbEllipse
 10
81.448497
 20
123.141183
 30
0.0
 11
0.2296387847847052
 21
0.0006352342905005
 31
0.0
210
0.0
220
0.0
230
-1.0
 40
0.57735
 41
-0.0000000000000951
 42
6.283185307179505
  0
LINE
  5
527F
100
AcDbEntity
  8
FASTENER
100
AcDbLine
 10
81.611136
 20
123.047882
 30
0.0
 11
81.285859
 21
123.234483
 31
0.0
  0
LINE
  5
5280
100
AcDbEntity
  8
FASTENER
100
AcDbLine
 10
81.286378
 20
123.046984
 30
0.0
 11
81.610617
 21
123.235381
 31
0.0
  0
LINE
  5
5281
100
AcDbEntity
  8
FASTENER
100
AcDbLine
 10
81.286378
 20
123.046984
 30
0.0
 11
81.610617
 21
123.235381
 31
0.0
  0
LINE
  5
5282
100
AcDbEntity
  8
FASTENER
100
AcDbLine
 10
81.611136
 20
123.047882
 30
0.0
 11
81.285859
 21
123.234483
 31
0.0
  0
ELLIPSE
  5
5283
100
AcDbEntity
  8
FASTENER
100
AcDbEllipse
 10
81.448497
 20
123.141183
 30
0.0
 11
0.2296387847847052
 21
0.0006352342905005
 31
0.0
210
0.0
220
0.0
230
-1.0
 40
0.57735
 41
-0.0000000000000951
 42
6.283185307179505
  0
ELLIPSE
  5
528A
100
AcDbEntity
  8
FASTENER
100
AcDbEllipse
 10
82.689856
 20
124.35947
 30
0.0
 11
0.2296387847847052
 21
0.0006352342905005
 31
0.0
210
0.0
220
0.0
230
-1.0
 40
0.57735
 41
-0.0000000000000951
 42
6.283185307179505
  0
LINE
  5
528B
100
AcDbEntity
  8
FASTENER
100
AcDbLine
 10
82.852494
 20
124.26617
 30
0.0
 11
82.527217
 21
124.45277
 31
0.0
  0
LINE
  5
528C
100
AcDbEntity
  8
FASTENER
100
AcDbLine
 10
82.527736
 20
124.265271
 30
0.0
 11
82.851976
 21
124.453669
 31
0.0
  0
LINE
  5
528D
100
AcDbEntity
  8
FASTENER
100
AcDbLine
 10
82.527736
 20
124.265271
 30
0.0
 11
82.851976
 21
124.453669
 31
0.0
  0
LINE
  5
528E
100
AcDbEntity
  8
FASTENER
100
AcDbLine
 10
82.852494
 20
124.26617
 30
0.0
 11
82.527217
 21
124.45277
 31
0.0
  0
ELLIPSE
  5
528F
100
AcDbEntity
  8
FASTENER
100
AcDbEllipse
 10
82.689856
 20
124.35947
 30
0.0
 11
0.2296387847847052
 21
0.0006352342905005
 31
0.0
210
0.0
220
0.0
230
-1.0
 40
0.57735
 41
-0.0000000000000951
 42
6.283185307179505
  0
ELLIPSE
  5
5290
100
AcDbEntity
  8
FASTENER
100
AcDbEllipse
 10
71.309669
 20
130.358101
 30
0.0
 11
0.2296387847847052
 21
0.0006352342905005
 31
0.0
210
0.0
220
0.0
230
-1.0
 40
0.57735
 41
-0.0000000000000951
 42
6.283185307179505
  0
LINE
  5
5291
100
AcDbEntity
  8
FASTENER
100
AcDbLine
 10
71.472308
 20
130.2648
 30
0.0
 11
71.147031
 21
130.451401
 31
0.0
  0
LINE
  5
5292
100
AcDbEntity
  8
FASTENER
100
AcDbLine
 10
71.14755
 20
130.263902
 30
0.0
 11
71.471789
 21
130.4523
 31
0.0
  0
LINE
  5
5293
100
AcDbEntity
  8
FASTENER
100
AcDbLine
 10
71.14755
 20
130.263902
 30
0.0
 11
71.471789
 21
130.4523
 31
0.0
  0
LINE
  5
5294
100
AcDbEntity
  8
FASTENER
100
AcDbLine
 10
71.472308
 20
130.2648
 30
0.0
 11
71.147031
 21
130.451401
 31
0.0
  0
ELLIPSE
  5
5295
100
AcDbEntity
  8
FASTENER
100
AcDbEllipse
 10
71.309669
 20
130.358101
 30
0.0
 11
0.2296387847847052
 21
0.0006352342905005
 31
0.0
210
0.0
220
0.0
230
-1.0
 40
0.57735
 41
-0.0000000000000951
 42
6.283185307179505
  0
ELLIPSE
  5
5296
100
AcDbEntity
  8
FASTENER
100
AcDbEllipse
 10
69.53559
 20
129.376374
 30
0.0
 11
0.2296387847847052
 21
0.0006352342905005
 31
0.0
210
0.0
220
0.0
230
-1.0
 40
0.57735
 41
-0.0000000000000951
 42
6.283185307179505
  0
LINE
  5
5297
100
AcDbEntity
  8
FASTENER
100
AcDbLine
 10
69.698228
 20
129.283073
 30
0.0
 11
69.372951
 21
129.469674
 31
0.0
  0
LINE
  5
5298
100
AcDbEntity
  8
FASTENER
100
AcDbLine
 10
69.37347
 20
129.282175
 30
0.0
 11
69.69771
 21
129.470573
 31
0.0
  0
LINE
  5
5299
100
AcDbEntity
  8
FASTENER
100
AcDbLine
 10
69.37347
 20
129.282175
 30
0.0
 11
69.69771
 21
129.470573
 31
0.0
  0
LINE
  5
529A
100
AcDbEntity
  8
FASTENER
100
AcDbLine
 10
69.698228
 20
129.283073
 30
0.0
 11
69.372951
 21
129.469674
 31
0.0
  0
ELLIPSE
  5
529B
100
AcDbEntity
  8
FASTENER
100
AcDbEllipse
 10
69.53559
 20
129.376374
 30
0.0
 11
0.2296387847847052
 21
0.0006352342905005
 31
0.0
210
0.0
220
0.0
230
-1.0
 40
0.57735
 41
-0.0000000000000951
 42
6.283185307179505
  0
ELLIPSE
  5
529C
100
AcDbEntity
  8
FASTENER
100
AcDbEllipse
 10
60.800474
 20
135.626894
 30
0.0
 11
0.2296387847847052
 21
0.0006352342905005
 31
0.0
210
0.0
220
0.0
230
-1.0
 40
0.57735
 41
-0.0000000000000953
 42
6.283185307179505
  0
LINE
  5
529D
100
AcDbEntity
  8
FASTENER
100
AcDbLine
 10
60.963112
 20
135.533593
 30
0.0
 11
60.637836
 21
135.720194
 31
0.0
  0
LINE
  5
529E
100
AcDbEntity
  8
FASTENER
100
AcDbLine
 10
60.638354
 20
135.532695
 30
0.0
 11
60.962594
 21
135.721092
 31
0.0
  0
LINE
  5
529F
100
AcDbEntity
  8
FASTENER
100
AcDbLine
 10
60.638354
 20
135.532695
 30
0.0
 11
60.962594
 21
135.721092
 31
0.0
  0
LINE
  5
52A0
100
AcDbEntity
  8
FASTENER
100
AcDbLine
 10
60.963112
 20
135.533593
 30
0.0
 11
60.637836
 21
135.720194
 31
0.0
  0
ELLIPSE
  5
52A1
100
AcDbEntity
  8
FASTENER
100
AcDbEllipse
 10
60.800474
 20
135.626894
 30
0.0
 11
0.2296387847847052
 21
0.0006352342905005
 31
0.0
210
0.0
220
0.0
230
-1.0
 40
0.57735
 41
-0.0000000000000953
 42
6.283185307179505
  0
ELLIPSE
  5
52A8
100
AcDbEntity
  8
FASTENER
100
AcDbEllipse
 10
48.717213
 20
141.604096
 30
0.0
 11
0.2296387847847052
 21
0.0006352342905005
 31
0.0
210
0.0
220
0.0
230
-1.0
 40
0.57735
 41
-0.0000000000000953
 42
6.283185307179505
  0
LINE
  5
52A9
100
AcDbEntity
  8
FASTENER
100
AcDbLine
 10
48.879852
 20
141.510796
 30
0.0
 11
48.554575
 21
141.697396
 31
0.0
  0
LINE
  5
52AA
100
AcDbEntity
  8
FASTENER
100
AcDbLine
 10
48.555093
 20
141.509897
 30
0.0
 11
48.879333
 21
141.698295
 31
0.0
  0
LINE
  5
52AB
100
AcDbEntity
  8
FASTENER
100
AcDbLine
 10
48.555093
 20
141.509897
 30
0.0
 11
48.879333
 21
141.698295
 31
0.0
  0
LINE
  5
52AC
100
AcDbEntity
  8
FASTENER
100
AcDbLine
 10
48.879852
 20
141.510796
 30
0.0
 11
48.554575
 21
141.697396
 31
0.0
  0
ELLIPSE
  5
52AD
100
AcDbEntity
  8
FASTENER
100
AcDbEllipse
 10
48.717213
 20
141.604096
 30
0.0
 11
0.2296387847847052
 21
0.0006352342905005
 31
0.0
210
0.0
220
0.0
230
-1.0
 40
0.57735
 41
-0.0000000000000953
 42
6.283185307179505
  0
ELLIPSE
  5
52AE
100
AcDbEntity
  8
FASTENER
100
AcDbEllipse
 10
59.319001
 20
134.342902
 30
0.0
 11
0.2296387847847052
 21
0.0006352342905005
 31
0.0
210
0.0
220
0.0
230
-1.0
 40
0.57735
 41
-0.0000000000000953
 42
6.283185307179505
  0
LINE
  5
52AF
100
AcDbEntity
  8
FASTENER
100
AcDbLine
 10
59.481639
 20
134.249602
 30
0.0
 11
59.156362
 21
134.436203
 31
0.0
  0
LINE
  5
52B0
100
AcDbEntity
  8
FASTENER
100
AcDbLine
 10
59.156881
 20
134.248703
 30
0.0
 11
59.481121
 21
134.437101
 31
0.0
  0
LINE
  5
52B1
100
AcDbEntity
  8
FASTENER
100
AcDbLine
 10
59.156881
 20
134.248703
 30
0.0
 11
59.481121
 21
134.437101
 31
0.0
  0
LINE
  5
52B2
100
AcDbEntity
  8
FASTENER
100
AcDbLine
 10
59.481639
 20
134.249602
 30
0.0
 11
59.156362
 21
134.436203
 31
0.0
  0
ELLIPSE
  5
52B3
100
AcDbEntity
  8
FASTENER
100
AcDbEllipse
 10
59.319001
 20
134.342902
 30
0.0
 11
0.2296387847847052
 21
0.0006352342905005
 31
0.0
210
0.0
220
0.0
230
-1.0
 40
0.57735
 41
-0.0000000000000953
 42
6.283185307179505
  0
ELLIPSE
  5
52BA
100
AcDbEntity
  8
FASTENER
100
AcDbEllipse
 10
46.927879
 20
140.697951
 30
0.0
 11
0.2296387847847052
 21
0.0006352342905005
 31
0.0
210
0.0
220
0.0
230
-1.0
 40
0.57735
 41
-0.0000000000000953
 42
6.283185307179505
  0
LINE
  5
52BB
100
AcDbEntity
  8
FASTENER
100
AcDbLine
 10
47.090517
 20
140.604651
 30
0.0
 11
46.76524
 21
140.791252
 31
0.0
  0
LINE
  5
52BC
100
AcDbEntity
  8
FASTENER
100
AcDbLine
 10
46.765759
 20
140.603753
 30
0.0
 11
47.089999
 21
140.79215
 31
0.0
  0
LINE
  5
52BD
100
AcDbEntity
  8
FASTENER
100
AcDbLine
 10
46.765759
 20
140.603753
 30
0.0
 11
47.089999
 21
140.79215
 31
0.0
  0
LINE
  5
52BE
100
AcDbEntity
  8
FASTENER
100
AcDbLine
 10
47.090517
 20
140.604651
 30
0.0
 11
46.76524
 21
140.791252
 31
0.0
  0
ELLIPSE
  5
52BF
100
AcDbEntity
  8
FASTENER
100
AcDbEllipse
 10
46.927879
 20
140.697951
 30
0.0
 11
0.2296387847847052
 21
0.0006352342905005
 31
0.0
210
0.0
220
0.0
230
-1.0
 40
0.57735
 41
-0.0000000000000953
 42
6.283185307179505
  0
ELLIPSE
  5
52C6
100
AcDbEntity
  8
FASTENER
100
AcDbEllipse
 10
63.123909
 20
130.727857
 30
0.0
 11
0.114819831692953
 21
-0.1988737822087213
 31
0.0
210
0.0
220
0.0
230
1.0
 40
0.57735
 41
0.0000000000001055
 42
6.283185307179706
  0
LINE
  5
52C7
100
AcDbEntity
  8
FASTENER
100
AcDbLine
 10
63.286289
 20
130.634107
 30
0.0
 11
62.961529
 21
130.821607
 31
0.0
  0
LINE
  5
52C8
100
AcDbEntity
  8
FASTENER
100
AcDbLine
 10
63.123909
 20
130.915357
 30
0.0
 11
63.123909
 21
130.540357
 31
0.0
  0
LINE
  5
52C9
100
AcDbEntity
  8
FASTENER
100
AcDbLine
 10
63.123909
 20
130.915357
 30
0.0
 11
63.123909
 21
130.540357
 31
0.0
  0
LINE
  5
52CA
100
AcDbEntity
  8
FASTENER
100
AcDbLine
 10
63.286289
 20
130.634107
 30
0.0
 11
62.961529
 21
130.821607
 31
0.0
  0
ELLIPSE
  5
52CB
100
AcDbEntity
  8
FASTENER
100
AcDbEllipse
 10
63.123909
 20
130.727857
 30
0.0
 11
0.114819831692953
 21
-0.1988737822087213
 31
0.0
210
0.0
220
0.0
230
1.0
 40
0.57735
 41
0.0000000000001055
 42
6.283185307179706
  0
POLYLINE
  5
52EE
100
AcDbEntity
  8
_KTI_CONTROL
 60
     1
100
AcDb3dPolyline
 66
     1
 10
0.0
 20
0.0
 30
0.0
 70
     8
1001
_KTI_ARCHT
1070
 12000
1000
ENVIRONMENT
1070
 10003
1000
6020-017
1070
 20000
1000
standard
1070
 20001
1000
f:\archt
1070
 20003
1000
j:\archt
1070
 20002
1000
f:\archt\tmp
1070
 20004
1002
{
1000
f:\archt\blks
1000
f:\archt\blks3d
1000
h:\archt\blks
1000
h:\archt\blks3d
1000
j:\archt\blks
1000
j:\archt\blks3d
1002
}
1070
 20005
1002
{
1000
f:\archt\slds
1002
}
1070
 20006
1002
{
1000
f:\archt\dclswin
1002
}
1070
 20007
1002
{
1000
f:\archt\docs
1002
}
1070
 20008
1002
{
1000
f:\archt\help
1002
}
  0
VERTEX
  5
52EF
100
AcDbEntity
  8
_KTI_CONTROL
100
AcDbVertex
100
AcDb3dPolylineVertex
 10
0.0
 20
0.0
 30
0.0
 70
    32
  0
VERTEX
  5
52F0
100
AcDbEntity
  8
_KTI_CONTROL
100
AcDbVertex
100
AcDb3dPolylineVertex
 10
0.0
 20
0.0
 30
0.0
 70
    32
  0
SEQEND
  5
52F1
100
AcDbEntity
  8
_KTI_CONTROL
  0
POLYLINE
  5
52F2
100
AcDbEntity
  8
_KTI_CONTROL
 60
     1
100
AcDb3dPolyline
 66
     1
 10
0.0
 20
0.0
 30
0.0
 70
     8
1001
_KTI_ARCHT
1070
 12000
1000
ARCHTVARS
1070
 10003
1000
6020-017
1070
 12030
1000
in
1070
 12020
1070
     1
1070
 12021
1070
     0
1070
 12070
1070
     0
1070
 12071
1070
     1
1070
 12907
1070
     0
1070
 12072
1070
     2
1070
 12073
1070
    48
1070
 12074
1070
     0
1070
 12080
1070
     1
1070
 12092
1070
     1
1070
 12096
1070
     0
1070
 12095
1070
     0
1070
 12081
1070
     1
1070
 12082
1070
     1
1070
 12083
1070
     1
1070
 12084
1070
     1
1070
 12085
1070
     0
1070
 12086
1070
     1
1070
 12087
1070
     0
1070
 12088
1070
     0
1070
 12097
1070
     1
1070
 12089
1070
     4
1070
 12090
1070
     6
1070
 12091
1070
     1
1070
 12045
1000
standard
1070
 12046
1000

1070
 12047
1000
standard
1070
 12048
1000

1070
 12049
1000

1070
 12093
1070
     1
1070
 12094
1070
     1
1070
 12908
1070
     0
1070
 12909
1070
     0
1070
 12911
1070
     0
1070
 12910
1070
     0
1070
 12912
1070
     0
1070
 12098
1070
   640
1070
 12060
1002
{
1000

1000

1000

1000

1002
}
1070
 12904
1002
{
1070
     0
1070
     0
1070
     0
1070
     0
1070
     0
1002
}
1070
 12905
1002
{
1040
0.0
1040
0.0
1040
0.0
1040
0.0
1040
0.0
1002
}
1070
 12906
1002
{
1000

1000

1000

1000

1000

1002
}
1070
 12040
1002
{
1002
}
  0
VERTEX
  5
52F3
100
AcDbEntity
  8
_KTI_CONTROL
100
AcDbVertex
100
AcDb3dPolylineVertex
 10
0.0
 20
0.0
 30
0.0
 70
    32
  0
VERTEX
  5
52F4
100
AcDbEntity
  8
_KTI_CONTROL
100
AcDbVertex
100
AcDb3dPolylineVertex
 10
0.0
 20
0.0
 30
0.0
 70
    32
  0
SEQEND
  5
52F5
100
AcDbEntity
  8
_KTI_CONTROL
  0
ENDSEC
  0
SECTION
  2
OBJECTS
  0
DICTIONARY
  5
C
100
AcDbDictionary
  3
ACAD_GROUP
350
D
  3
ACAD_MLINESTYLE
350
E
  0
DICTIONARY
  5
D
102
{ACAD_REACTORS
330
C
102
}
100
AcDbDictionary
  0
DICTIONARY
  5
E
102
{ACAD_REACTORS
330
C
102
}
100
AcDbDictionary
  3
STANDARD
350
13
  0
MLINESTYLE
  5
13
102
{ACAD_REACTORS
330
E
102
}
100
AcDbMlineStyle
  2
STANDARD
 70
     0
  3

 62
     0
 51
90.0
 52
90.0
 71
     2
 49
0.5
 62
   256
  6
BYLAYER
 49
-0.5
 62
   256
  6
BYLAYER
  0
ENDSEC
  0
EOF
