  0
SECTION
  2
HEADER
  9
$ACADVER
  1
AC1012
  9
$DWGCODEPAGE
  3
ansi_1252
  9
$INSBASE
 10
0.0
 20
0.0
 30
0.0
  9
$EXTMIN
 10
-26.371285
 20
0.0
 30
0.0
  9
$EXTMAX
 10
95.16
 20
60.891509
 30
0.0
  9
$LIMMIN
 10
0.0
 20
0.0
  9
$LIMMAX
 10
94.44125
 20
84.092891
  9
$ORTHOMODE
 70
     0
  9
$REGENMODE
 70
     1
  9
$FILLMODE
 70
     1
  9
$QTEXTMODE
 70
     0
  9
$MIRRTEXT
 70
     1
  9
$DRAGMODE
 70
     2
  9
$LTSCALE
 40
2.0
  9
$OSMODE
 70
    39
  9
$ATTMODE
 70
     1
  9
$TEXTSIZE
 40
1.0
  9
$TRACEWID
 40
3.0
  9
$TEXTSTYLE
  7
ARCH
  9
$CLAYER
  8
STUD
  9
$CELTYPE
  6
BYLAYER
  9
$CECOLOR
 62
   256
  9
$CELTSCALE
 40
1.0
  9
$DELOBJ
 70
     1
  9
$DISPSILH
 70
     0
  9
$DIMSCALE
 40
12.0
  9
$DIMASZ
 40
0.1875
  9
$DIMEXO
 40
0.0625
  9
$DIMDLI
 40
0.375
  9
$DIMRND
 40
0.0
  9
$DIMDLE
 40
0.0
  9
$DIMEXE
 40
0.1875
  9
$DIMTP
 40
0.0
  9
$DIMTM
 40
0.0
  9
$DIMTXT
 40
0.125
  9
$DIMCEN
 40
0.1875
  9
$DIMTSZ
 40
0.0
  9
$DIMTOL
 70
     0
  9
$DIMLIM
 70
     0
  9
$DIMTIH
 70
     1
  9
$DIMTOH
 70
     1
  9
$DIMSE1
 70
     0
  9
$DIMSE2
 70
     0
  9
$DIMTAD
 70
     0
  9
$DIMZIN
 70
     0
  9
$DIMBLK
  1
OBLIQUE
  9
$DIMASO
 70
     1
  9
$DIMSHO
 70
     1
  9
$DIMPOST
  1

  9
$DIMAPOST
  1

  9
$DIMALT
 70
     0
  9
$DIMALTD
 70
     1
  9
$DIMALTF
 40
25.4
  9
$DIMLFAC
 40
1.0
  9
$DIMTOFL
 70
     0
  9
$DIMTVP
 40
0.0
  9
$DIMTIX
 70
     0
  9
$DIMSOXD
 70
     0
  9
$DIMSAH
 70
     1
  9
$DIMBLK1
  1
_OPEN90
  9
$DIMBLK2
  1
_OPEN90
  9
$DIMSTYLE
  2
LEADER
  9
$DIMCLRD
 70
     0
  9
$DIMCLRE
 70
     0
  9
$DIMCLRT
 70
     0
  9
$DIMTFAC
 40
1.0
  9
$DIMGAP
 40
0.125
  9
$DIMJUST
 70
     0
  9
$DIMSD1
 70
     0
  9
$DIMSD2
 70
     0
  9
$DIMTOLJ
 70
     0
  9
$DIMTZIN
 70
     0
  9
$DIMALTZ
 70
     0
  9
$DIMALTTZ
 70
     0
  9
$DIMFIT
 70
     1
  9
$DIMUPT
 70
     1
  9
$DIMUNIT
 70
     4
  9
$DIMDEC
 70
     4
  9
$DIMTDEC
 70
     2
  9
$DIMALTU
 70
     2
  9
$DIMALTTD
 70
     1
  9
$DIMTXSTY
  7
ARCH
  9
$DIMAUNIT
 70
     0
  9
$LUNITS
 70
     4
  9
$LUPREC
 70
     4
  9
$SKETCHINC
 40
12.0
  9
$FILLETRAD
 40
0.125
  9
$AUNITS
 70
     0
  9
$AUPREC
 70
     0
  9
$MENU
  1
.
  9
$ELEVATION
 40
0.0
  9
$PELEVATION
 40
0.0
  9
$THICKNESS
 40
0.0
  9
$LIMCHECK
 70
     0
  9
$BLIPMODE
 70
     0
  9
$CHAMFERA
 40
24.0
  9
$CHAMFERB
 40
24.0
  9
$CHAMFERC
 40
24.0
  9
$CHAMFERD
 40
0.785398
  9
$SKPOLY
 70
     0
  9
$TDCREATE
 40
2451085.521631944
  9
$TDUPDATE
 40
2451103.336723726
  9
$TDINDWG
 40
0.0605085648
  9
$TDUSRTIMER
 40
0.0605085648
  9
$USRTIMER
 70
     1
  9
$ANGBASE
 50
0.0
  9
$ANGDIR
 70
     0
  9
$PDMODE
 70
     0
  9
$PDSIZE
 40
0.0
  9
$PLINEWID
 40
0.0
  9
$COORDS
 70
     2
  9
$SPLFRAME
 70
     0
  9
$SPLINETYPE
 70
     6
  9
$SPLINESEGS
 70
     8
  9
$ATTDIA
 70
     0
  9
$ATTREQ
 70
     1
  9
$HANDLING
 70
     1
  9
$HANDSEED
  5
4D20
  9
$SURFTAB1
 70
     6
  9
$SURFTAB2
 70
     6
  9
$SURFTYPE
 70
     6
  9
$SURFU
 70
     6
  9
$SURFV
 70
     6
  9
$UCSNAME
  2

  9
$UCSORG
 10
0.0
 20
0.0
 30
0.0
  9
$UCSXDIR
 10
1.0
 20
0.0
 30
0.0
  9
$UCSYDIR
 10
0.0
 20
1.0
 30
0.0
  9
$PUCSNAME
  2

  9
$PUCSORG
 10
0.0
 20
0.0
 30
0.0
  9
$PUCSXDIR
 10
1.0
 20
0.0
 30
0.0
  9
$PUCSYDIR
 10
0.0
 20
1.0
 30
0.0
  9
$USERI1
 70
     0
  9
$USERI2
 70
     0
  9
$USERI3
 70
     0
  9
$USERI4
 70
     0
  9
$USERI5
 70
     0
  9
$USERR1
 40
0.0
  9
$USERR2
 40
0.0
  9
$USERR3
 40
0.0
  9
$USERR4
 40
0.0
  9
$USERR5
 40
0.0
  9
$WORLDVIEW
 70
     1
  9
$SHADEDGE
 70
     3
  9
$SHADEDIF
 70
    70
  9
$TILEMODE
 70
     1
  9
$MAXACTVP
 70
    16
  9
$PINSBASE
 10
0.0
 20
0.0
 30
0.0
  9
$PLIMCHECK
 70
     0
  9
$PEXTMIN
 10
-58.144176
 20
-115.517458
 30
0.0
  9
$PEXTMAX
 10
68.735824
 20
48.802542
 30
0.0
  9
$PLIMMIN
 10
0.0
 20
0.0
  9
$PLIMMAX
 10
12.0
 20
9.0
  9
$UNITMODE
 70
     0
  9
$VISRETAIN
 70
     0
  9
$PLINEGEN
 70
     0
  9
$PSLTSCALE
 70
     1
  9
$TREEDEPTH
 70
  3020
  9
$PICKSTYLE
 70
     1
  9
$CMLSTYLE
  2
STANDARD
  9
$CMLJUST
 70
     0
  9
$CMLSCALE
 40
1.0
  9
$SAVEIMAGES
 70
     0
  0
ENDSEC
  0
SECTION
  2
CLASSES
  0
ENDSEC
  0
SECTION
  2
TABLES
  0
TABLE
  2
VPORT
  5
8
100
AcDbSymbolTable
 70
     4
  0
VPORT
  5
4D1F
100
AcDbSymbolTableRecord
100
AcDbViewportTableRecord
  2
*ACTIVE
 70
     0
 10
0.0
 20
0.0
 11
1.0
 21
1.0
 12
34.394357
 22
41.212068
 13
0.0
 23
0.0
 14
0.0625
 24
0.0625
 15
1.0
 25
1.0
 16
0.0
 26
0.0
 36
1.0
 17
0.0
 27
0.0
 37
0.0
 40
82.424135
 41
1.474462
 42
50.0
 43
0.0
 44
0.0
 50
0.0
 51
0.0
 71
     0
 72
   100
 73
     1
 74
     1
 75
     0
 76
     1
 77
     0
 78
     0
  0
ENDTAB
  0
TABLE
  2
LTYPE
  5
5
100
AcDbSymbolTable
 70
     4
  0
LTYPE
  5
14
100
AcDbSymbolTableRecord
100
AcDbLinetypeTableRecord
  2
BYBLOCK
 70
     0
  3

 72
    65
 73
     0
 40
0.0
  0
LTYPE
  5
15
100
AcDbSymbolTableRecord
100
AcDbLinetypeTableRecord
  2
BYLAYER
 70
     0
  3

 72
    65
 73
     0
 40
0.0
  0
LTYPE
  5
16
100
AcDbSymbolTableRecord
100
AcDbLinetypeTableRecord
  2
CONTINUOUS
 70
    64
  3
Solid line
 72
    65
 73
     0
 40
0.0
  0
LTYPE
  5
1F
100
AcDbSymbolTableRecord
100
AcDbLinetypeTableRecord
  2
BORDER
 70
    64
  3
__ __ . __ __ . __ __ . __ __ . __ __ . __ __ .
 72
    65
 73
     6
 40
1.75
 49
0.5
 74
     0
 49
-0.25
 74
     0
 49
0.5
 74
     0
 49
-0.25
 74
     0
 49
0.0
 74
     0
 49
-0.25
 74
     0
  0
LTYPE
  5
20
100
AcDbSymbolTableRecord
100
AcDbLinetypeTableRecord
  2
CENTER
 70
    64
  3
____ _ ____ _ ____ _ ____ _ ____ _ ____ _ ____ 
 72
    65
 73
     4
 40
2.0
 49
1.25
 74
     0
 49
-0.25
 74
     0
 49
0.25
 74
     0
 49
-0.25
 74
     0
  0
LTYPE
  5
581
100
AcDbSymbolTableRecord
100
AcDbLinetypeTableRecord
  2
HIDDEN2
 70
    64
  3
_ _ _ _ _ _ _ _ _ _ _ _ _ _ _ _ _ _ _ _ _ _ _ _
 72
    65
 73
     2
 40
0.1875
 49
0.125
 74
     0
 49
-0.0625
 74
     0
  0
ENDTAB
  0
TABLE
  2
LAYER
  5
2
100
AcDbSymbolTable
 70
    14
  0
LAYER
  5
F
100
AcDbSymbolTableRecord
100
AcDbLayerTableRecord
  2
0
 70
     0
 62
     7
  6
CONTINUOUS
  0
LAYER
  5
2F
100
AcDbSymbolTableRecord
100
AcDbLayerTableRecord
  2
STUD
 70
    64
 62
     5
  6
CONTINUOUS
  0
LAYER
  5
30
100
AcDbSymbolTableRecord
100
AcDbLayerTableRecord
  2
TRACK
 70
    64
 62
     1
  6
CONTINUOUS
  0
LAYER
  5
37
100
AcDbSymbolTableRecord
100
AcDbLayerTableRecord
  2
FASTENER
 70
    64
 62
     7
  6
CONTINUOUS
  0
LAYER
  5
3B
100
AcDbSymbolTableRecord
100
AcDbLayerTableRecord
  2
_KTI_CONTROL
 70
     5
 62
     7
  6
CONTINUOUS
  0
LAYER
  5
1FD0
100
AcDbSymbolTableRecord
100
AcDbLayerTableRecord
  2
MARBLE_TILE
 70
    64
 62
     5
  6
CONTINUOUS
1001
AVE_FINISH
1002
{
1070
     0
1005
0
1002
}
  0
LAYER
  5
24B2
100
AcDbSymbolTableRecord
100
AcDbLayerTableRecord
  2
TRACK_H-2
 70
    64
 62
    38
  6
HIDDEN2
  0
LAYER
  5
27DD
100
AcDbSymbolTableRecord
100
AcDbLayerTableRecord
  2
TEXT
 70
    64
 62
    94
  6
CONTINUOUS
  0
LAYER
  5
45E6
100
AcDbSymbolTableRecord
100
AcDbLayerTableRecord
  2
VIEW
 70
    64
 62
     6
  6
CONTINUOUS
  0
LAYER
  5
460B
100
AcDbSymbolTableRecord
100
AcDbLayerTableRecord
  2
PAPER
 70
    64
 62
     7
  6
CONTINUOUS
  0
LAYER
  5
4703
100
AcDbSymbolTableRecord
100
AcDbLayerTableRecord
  2
LINK
 70
    64
 62
     7
  6
CONTINUOUS
  0
LAYER
  5
4AFF
100
AcDbSymbolTableRecord
100
AcDbLayerTableRecord
  2
D-TEXT
 70
    64
 62
    94
  6
CONTINUOUS
  0
LAYER
  5
4B00
100
AcDbSymbolTableRecord
100
AcDbLayerTableRecord
  2
LAYOUT
 70
    65
 62
    52
  6
CONTINUOUS
  0
LAYER
  5
4B8A
100
AcDbSymbolTableRecord
100
AcDbLayerTableRecord
  2
STEEL
 70
    64
 62
   144
  6
CONTINUOUS
  0
ENDTAB
  0
TABLE
  2
STYLE
  5
3
100
AcDbSymbolTable
 70
     4
  0
STYLE
  5
10
100
AcDbSymbolTableRecord
100
AcDbTextStyleTableRecord
  2
STANDARD
 70
     0
 40
0.0
 41
1.0
 50
0.0
 71
     0
 42
12.0
  3
txt
  4

  0
STYLE
  5
4E
100
AcDbSymbolTableRecord
100
AcDbTextStyleTableRecord
  2
ARCH
 70
    64
 40
1.0
 41
1.0
 50
0.0
 71
     0
 42
1.0
  3
F:\r13\com\fonts\Architxt.shx
  4

  0
STYLE
  5
4631
100
AcDbSymbolTableRecord
100
AcDbTextStyleTableRecord
  2
BLOCK
 70
    64
 40
1.0
 41
1.0
 50
0.0
 71
     0
 42
1.0
  3
F:\r13\com\fonts\monos.ttf
  4

  0
STYLE
  5
4B09
100
AcDbSymbolTableRecord
100
AcDbTextStyleTableRecord
  2
BLD
 70
    64
 40
0.0
 41
1.0
 50
0.0
 71
     0
 42
1.5
  3
F:\r13\com\fonts\monos.ttf
  4

  0
ENDTAB
  0
TABLE
  2
VIEW
  5
6
100
AcDbSymbolTable
 70
     1
  0
VIEW
  5
46C2
100
AcDbSymbolTableRecord
100
AcDbViewTableRecord
  2
ALL
 70
     0
 40
62.9375
 10
44.53125
 20
31.46875
 41
89.0625
 11
0.0
 21
0.0
 31
1.0
 12
0.0
 22
0.0
 32
0.0
 42
50.0
 43
0.0
 44
0.0
 50
0.0
 71
     0
  0
ENDTAB
  0
TABLE
  2
UCS
  5
7
100
AcDbSymbolTable
 70
     0
  0
ENDTAB
  0
TABLE
  2
APPID
  5
9
100
AcDbSymbolTable
 70
     5
  0
APPID
  5
11
100
AcDbSymbolTableRecord
100
AcDbRegAppTableRecord
  2
ACAD
 70
     0
  0
APPID
  5
3A
100
AcDbSymbolTableRecord
100
AcDbRegAppTableRecord
  2
_KTI_ARCHT
 70
     0
  0
APPID
  5
1FD3
100
AcDbSymbolTableRecord
100
AcDbRegAppTableRecord
  2
AVE_FINISH
 70
     0
  0
APPID
  5
4589
100
AcDbSymbolTableRecord
100
AcDbRegAppTableRecord
  2
ADE
 70
     0
  0
APPID
  5
46E7
100
AcDbSymbolTableRecord
100
AcDbRegAppTableRecord
  2
PE_URL
 70
     0
  0
ENDTAB
  0
TABLE
  2
DIMSTYLE
  5
A
100
AcDbSymbolTable
 70
     2
  0
DIMSTYLE
105
1D
100
AcDbSymbolTableRecord
100
AcDbDimStyleTableRecord
  2
STANDARD
 70
     0
  3

  4

  5

  6

  7

 40
1.0
 41
0.18
 42
0.0625
 43
0.38
 44
0.18
 45
0.0
 46
0.0
 47
0.0
 48
0.0
140
0.18
141
0.09
142
0.0
143
25.4
144
1.0
145
0.0
146
1.0
147
0.09
 71
     0
 72
     0
 73
     1
 74
     1
 75
     0
 76
     0
 77
     0
 78
     0
170
     0
171
     2
172
     0
173
     0
174
     0
175
     0
176
     0
177
     0
178
     0
270
     2
271
     4
272
     4
273
     2
274
     2
340
10
275
     0
280
     0
281
     0
282
     0
283
     1
284
     0
285
     0
286
     0
287
     3
288
     0
  0
DIMSTYLE
105
4664
100
AcDbSymbolTableRecord
100
AcDbDimStyleTableRecord
  2
LEADER
 70
     0
  3

  4

  5
OBLIQUE
  6
_OPEN90
  7
_OPEN90
 40
12.0
 41
0.1875
 42
0.0625
 43
0.375
 44
0.1875
 45
0.0
 46
0.0
 47
0.0
 48
0.0
140
0.125
141
0.1875
142
0.0
143
25.4
144
1.0
145
0.0
146
1.0
147
0.125
 71
     0
 72
     0
 73
     1
 74
     1
 75
     0
 76
     0
 77
     0
 78
     0
170
     0
171
     1
172
     0
173
     1
174
     0
175
     0
176
     0
177
     0
178
     0
270
     4
271
     4
272
     2
273
     2
274
     1
340
4E
275
     0
280
     0
281
     0
282
     0
283
     0
284
     0
285
     0
286
     0
287
     1
288
     1
  0
ENDTAB
  0
TABLE
  2
BLOCK_RECORD
  5
1
100
AcDbSymbolTable
 70
     3
  0
BLOCK_RECORD
  5
1A
100
AcDbSymbolTableRecord
100
AcDbBlockTableRecord
  2
*MODEL_SPACE
  0
BLOCK_RECORD
  5
17
100
AcDbSymbolTableRecord
100
AcDbBlockTableRecord
  2
*PAPER_SPACE
  0
BLOCK_RECORD
  5
460D
100
AcDbSymbolTableRecord
100
AcDbBlockTableRecord
  2
A$CC250
  0
BLOCK_RECORD
  5
4AE5
100
AcDbSymbolTableRecord
100
AcDbBlockTableRecord
  2
01PARE02
  0
BLOCK_RECORD
  5
4AEA
100
AcDbSymbolTableRecord
100
AcDbBlockTableRecord
  2
DETAIL_TITLE
  0
ENDTAB
  0
ENDSEC
  0
SECTION
  2
BLOCKS
  0
BLOCK
  5
1B
100
AcDbEntity
  8
0
100
AcDbBlockBegin
  2
*MODEL_SPACE
 70
     0
 10
0.0
 20
0.0
 30
0.0
  3
*MODEL_SPACE
  1

  0
ENDBLK
  5
1C
100
AcDbEntity
  8
0
100
AcDbBlockEnd
  0
BLOCK
  5
18
100
AcDbEntity
 67
     1
  8
0
100
AcDbBlockBegin
  2
*PAPER_SPACE
 70
     0
 10
0.0
 20
0.0
 30
0.0
  3
*PAPER_SPACE
  1

  0
ENDBLK
  5
19
100
AcDbEntity
 67
     1
  8
0
100
AcDbBlockEnd
  0
BLOCK
  5
461A
100
AcDbEntity
  8
STUD
100
AcDbBlockBegin
  2
A$CC250
 70
     0
 10
0.0
 20
0.0
 30
0.0
  3
A$CC250
  1

  0
POLYLINE
  5
460E
100
AcDbEntity
  8
PAPER
  6
BORDER
100
AcDb2dPolyline
 66
     1
 10
0.0
 20
0.0
 30
0.0
 70
     1
  0
VERTEX
  5
460F
100
AcDbEntity
  8
PAPER
  6
BORDER
100
AcDbVertex
100
AcDb2dVertex
 10
-54.141676
 20
-112.794958
 30
0.0
  0
VERTEX
  5
4610
100
AcDbEntity
  8
PAPER
  6
BORDER
100
AcDbVertex
100
AcDb2dVertex
 10
-54.141676
 20
47.205042
 30
0.0
  0
VERTEX
  5
4611
100
AcDbEntity
  8
PAPER
  6
BORDER
100
AcDbVertex
100
AcDb2dVertex
 10
65.858324
 20
47.205042
 30
0.0
  0
VERTEX
  5
4612
100
AcDbEntity
  8
PAPER
  6
BORDER
100
AcDbVertex
100
AcDb2dVertex
 10
65.858324
 20
-112.794958
 30
0.0
  0
SEQEND
  5
4613
100
AcDbEntity
  8
PAPER
  0
POLYLINE
  5
4614
100
AcDbEntity
  8
PAPER
100
AcDb2dPolyline
 66
     1
 10
0.0
 20
0.0
 30
0.0
 70
     1
  0
VERTEX
  5
4615
100
AcDbEntity
  8
PAPER
100
AcDbVertex
100
AcDb2dVertex
 10
69.298324
 20
-114.954958
 30
0.0
  0
VERTEX
  5
4616
100
AcDbEntity
  8
PAPER
100
AcDbVertex
100
AcDb2dVertex
 10
69.298324
 20
49.365042
 30
0.0
  0
VERTEX
  5
4617
100
AcDbEntity
  8
PAPER
100
AcDbVertex
100
AcDb2dVertex
 10
-57.581676
 20
49.365042
 30
0.0
  0
VERTEX
  5
4618
100
AcDbEntity
  8
PAPER
100
AcDbVertex
100
AcDb2dVertex
 10
-57.581676
 20
-114.954958
 30
0.0
  0
SEQEND
  5
4619
100
AcDbEntity
  8
PAPER
  0
ENDBLK
  5
461B
100
AcDbEntity
  8
STUD
100
AcDbBlockEnd
  0
BLOCK
  5
4AE8
100
AcDbEntity
  8
LAYOUT
100
AcDbBlockBegin
  2
01PARE02
 70
     2
 10
0.0
 20
0.0
 30
0.0
  3
01PARE02
  1

  0
ATTDEF
  5
4AE6
100
AcDbEntity
  8
0
  6
BYBLOCK
 62
     0
100
AcDbText
 10
-4.5
 20
-0.452381
 30
0.0
 40
1.0
  1

 72
     4
 11
0.0
 21
0.0
 31
0.0
100
AcDbAttributeDefinition
  3
Area Name
  2
AREA_NAME
 70
     0
  0
ATTDEF
  5
4AE7
100
AcDbEntity
  8
0
  6
BYBLOCK
 62
     0
100
AcDbText
 10
-2.428571
 20
-2.166667
 30
0.0
 40
1.0
  1

 72
     4
 11
0.0
 21
-1.714286
 31
0.0
100
AcDbAttributeDefinition
  3
Area
  2
_AREA
 70
     0
  0
ENDBLK
  5
4AE9
100
AcDbEntity
  8
LAYOUT
100
AcDbBlockEnd
  0
BLOCK
  5
4AF3
100
AcDbEntity
  8
0
100
AcDbBlockBegin
  2
DETAIL_TITLE
 70
    66
 10
0.0
 20
0.0
 30
0.0
  3
DETAIL_TITLE
  1

  0
ATTDEF
  5
4AEB
100
AcDbEntity
  8
D-TEXT
100
AcDbText
 10
1.163519
 20
0.650143
 30
0.0
 40
0.25
  1
TYP. 
  7
BLOCK
100
AcDbAttributeDefinition
  3
Enter the title of the detail
  2
DETAIL_DISCRIPTION
 70
     0
  0
POLYLINE
  5
4AEC
100
AcDbEntity
  8
D-TEXT
100
AcDb2dPolyline
 66
     1
 10
0.0
 20
0.0
 30
0.0
 40
0.05
 41
0.05
  0
VERTEX
  5
4AED
100
AcDbEntity
  8
D-TEXT
100
AcDbVertex
100
AcDb2dVertex
 10
1.038519
 20
0.51926
 30
0.0
  0
VERTEX
  5
4AEE
100
AcDbEntity
  8
D-TEXT
100
AcDbVertex
100
AcDb2dVertex
 10
7.93
 20
0.51926
 30
0.0
  0
SEQEND
  5
4AEF
100
AcDbEntity
  8
D-TEXT
  0
ATTDEF
  5
4AF0
100
AcDbEntity
  8
D-TEXT
100
AcDbText
 10
0.189467
 20
0.39426
 30
0.0
 40
0.25
  1
D-#
  7
BLD
 72
     1
 11
0.51926
 21
0.51926
 31
0.0
100
AcDbAttributeDefinition
  3
Enter the Detail number
  2
DETAIL_NO
 70
     0
 74
     2
  0
ATTDEF
  5
4AF1
100
AcDbEntity
  8
D-TEXT
100
AcDbText
 10
1.163519
 20
0.172049
 30
0.0
 40
0.1875
  1
N. T. Scale 1-1/2" = 1'0"
  7
BLOCK
100
AcDbAttributeDefinition
  3
Type the defanition of scale
  2
SCALE
 70
     0
  0
CIRCLE
  5
4AF2
100
AcDbEntity
  8
D-TEXT
100
AcDbCircle
 10
0.51926
 20
0.51926
 30
0.0
 40
0.51926
  0
ENDBLK
  5
4AF4
100
AcDbEntity
  8
0
100
AcDbBlockEnd
  0
ENDSEC
  0
SECTION
  2
ENTITIES
  0
LINE
  5
352D
100
AcDbEntity
  8
0
  6
CENTER
100
AcDbLine
 10
42.216256
 20
21.378859
 30
0.0
 11
30.244276
 21
28.290885
 31
0.0
  0
LINE
  5
352E
100
AcDbEntity
  8
0
  6
CENTER
100
AcDbLine
 10
22.520058
 20
32.750464
 30
0.0
 11
22.520058
 21
21.378859
 31
0.0
  0
POLYLINE
  5
3BD0
100
AcDbEntity
  8
STUD
100
AcDb2dPolyline
 66
     1
 10
0.0
 20
0.0
 30
0.0
  0
VERTEX
  5
3BD1
100
AcDbEntity
  8
STUD
100
AcDbVertex
100
AcDb2dVertex
 10
28.858186
 20
33.649139
 30
0.0
  0
VERTEX
  5
3BD2
100
AcDbEntity
  8
STUD
100
AcDbVertex
100
AcDb2dVertex
 10
28.695253
 20
33.743208
 30
0.0
 42
-0.57735
  0
VERTEX
  5
3BD3
100
AcDbEntity
  8
STUD
100
AcDbVertex
100
AcDb2dVertex
 10
28.695253
 20
33.851462
 30
0.0
  0
VERTEX
  5
3BD4
100
AcDbEntity
  8
STUD
100
AcDbVertex
100
AcDb2dVertex
 10
28.858186
 20
33.945531
 30
0.0
 42
-0.267949
  0
SEQEND
  5
3BD5
100
AcDbEntity
  8
STUD
  0
POLYLINE
  5
3BED
100
AcDbEntity
  8
TRACK
100
AcDb2dPolyline
 66
     1
 10
0.0
 20
0.0
 30
0.0
  0
VERTEX
  5
3BEE
100
AcDbEntity
  8
TRACK
100
AcDbVertex
100
AcDb2dVertex
 10
27.528321
 20
54.530822
 30
0.0
  0
VERTEX
  5
3BEF
100
AcDbEntity
  8
TRACK
100
AcDbVertex
100
AcDb2dVertex
 10
27.328139
 20
54.415247
 30
0.0
 42
0.067152
  0
VERTEX
  5
3BF0
100
AcDbEntity
  8
TRACK
100
AcDbVertex
100
AcDb2dVertex
 10
27.314203
 20
54.404483
 30
0.0
  0
SEQEND
  5
3BF1
100
AcDbEntity
  8
TRACK
  0
POLYLINE
  5
3BFC
100
AcDbEntity
  8
TRACK
100
AcDb2dPolyline
 66
     1
 10
0.0
 20
0.0
 30
0.0
  0
VERTEX
  5
3BFD
100
AcDbEntity
  8
TRACK
100
AcDbVertex
100
AcDb2dVertex
 10
27.346444
 20
54.385863
 30
0.0
  0
VERTEX
  5
3BFE
100
AcDbEntity
  8
TRACK
100
AcDbVertex
100
AcDb2dVertex
 10
27.562915
 20
54.510843
 30
0.0
 42
-0.267949
  0
SEQEND
  5
3BFF
100
AcDbEntity
  8
TRACK
  0
LINE
  5
3C00
100
AcDbEntity
  8
STUD
100
AcDbLine
 10
28.737105
 20
49.313125
 30
0.0
 11
28.737105
 21
49.63916
 31
0.0
  0
POLYLINE
  5
3C01
100
AcDbEntity
  8
STUD
100
AcDb2dPolyline
 66
     1
 10
0.0
 20
0.0
 30
0.0
  0
VERTEX
  5
3C02
100
AcDbEntity
  8
STUD
100
AcDbVertex
100
AcDb2dVertex
 10
28.858186
 20
49.086639
 30
0.0
  0
VERTEX
  5
3C03
100
AcDbEntity
  8
STUD
100
AcDbVertex
100
AcDb2dVertex
 10
28.695253
 20
49.180708
 30
0.0
 42
-0.57735
  0
VERTEX
  5
3C04
100
AcDbEntity
  8
STUD
100
AcDbVertex
100
AcDb2dVertex
 10
28.695253
 20
49.288962
 30
0.0
  0
VERTEX
  5
3C05
100
AcDbEntity
  8
STUD
100
AcDbVertex
100
AcDb2dVertex
 10
28.857624
 20
49.382707
 30
0.0
 42
-0.267949
  0
SEQEND
  5
3C06
100
AcDbEntity
  8
STUD
  0
POLYLINE
  5
3C0D
100
AcDbEntity
  8
STUD
100
AcDb2dPolyline
 66
     1
 10
0.0
 20
0.0
 30
0.0
  0
VERTEX
  5
3C0E
100
AcDbEntity
  8
STUD
100
AcDbVertex
100
AcDb2dVertex
 10
28.858186
 20
49.343078
 30
0.0
  0
VERTEX
  5
3C0F
100
AcDbEntity
  8
STUD
100
AcDbVertex
100
AcDb2dVertex
 10
28.712553
 20
49.258997
 30
0.0
 42
0.57735
  0
VERTEX
  5
3C10
100
AcDbEntity
  8
STUD
100
AcDbVertex
100
AcDb2dVertex
 10
28.712553
 20
49.210673
 30
0.0
  0
VERTEX
  5
3C11
100
AcDbEntity
  8
STUD
100
AcDbVertex
100
AcDb2dVertex
 10
28.858186
 20
49.126592
 30
0.0
 42
0.267949
  0
SEQEND
  5
3C12
100
AcDbEntity
  8
STUD
  0
LINE
  5
3C28
100
AcDbEntity
  8
STUD
100
AcDbLine
 10
27.575895
 20
54.503347
 30
0.0
 11
27.575895
 21
54.198102
 31
0.0
  0
LINE
  5
3C29
100
AcDbEntity
  8
STUD
100
AcDbLine
 10
27.359389
 20
54.683289
 30
0.0
 11
27.359389
 21
54.433289
 31
0.0
  0
LINE
  5
3C2A
100
AcDbEntity
  8
STUD
100
AcDbLine
 10
27.295981
 20
54.665007
 30
0.0
 11
27.295805
 21
54.349415
 31
0.0
  0
POLYLINE
  5
3C2B
100
AcDbEntity
  8
STUD
100
AcDb2dPolyline
 66
     1
 10
0.0
 20
0.0
 30
0.0
  0
VERTEX
  5
3C2C
100
AcDbEntity
  8
STUD
100
AcDbVertex
100
AcDb2dVertex
 10
31.782697
 20
29.215206
 30
0.0
 42
-0.268075
  0
VERTEX
  5
3C2D
100
AcDbEntity
  8
STUD
100
AcDbVertex
100
AcDb2dVertex
 10
31.751447
 20
29.16105
 30
0.0
  0
VERTEX
  5
3C2E
100
AcDbEntity
  8
STUD
100
AcDbVertex
100
AcDb2dVertex
 10
28.737105
 20
27.420719
 30
0.0
 42
-0.267949
  0
VERTEX
  5
3C2F
100
AcDbEntity
  8
STUD
100
AcDbVertex
100
AcDb2dVertex
 10
28.674605
 20
27.420719
 30
0.0
  0
VERTEX
  5
3C30
100
AcDbEntity
  8
STUD
100
AcDbVertex
100
AcDb2dVertex
 10
27.328139
 20
28.198102
 30
0.0
 42
-0.57735
  0
SEQEND
  5
3C31
100
AcDbEntity
  8
STUD
  0
LINE
  5
3C8B
100
AcDbEntity
  8
STUD
100
AcDbLine
 10
31.782111
 20
31.763462
 30
0.0
 11
31.782697
 21
29.215177
 31
0.0
  0
LINE
  5
3C8F
100
AcDbEntity
  8
TRACK
100
AcDbLine
 10
28.858186
 20
49.381734
 30
0.0
 11
39.033985
 21
43.506734
 31
0.0
  0
LINE
  5
3C90
100
AcDbEntity
  8
TRACK
100
AcDbLine
 10
28.891111
 20
49.438761
 30
0.0
 11
39.06691
 21
43.563761
 31
0.0
  0
LINE
  5
3C91
100
AcDbEntity
  8
TRACK
100
AcDbLine
 10
28.858186
 20
47.756694
 30
0.0
 11
39.033985
 21
41.8798
 31
0.0
  0
POLYLINE
  5
3C92
100
AcDbEntity
  8
TRACK
100
AcDb2dPolyline
 66
     1
 10
0.0
 20
0.0
 30
0.0
 70
     1
  0
VERTEX
  5
3C93
100
AcDbEntity
  8
TRACK
100
AcDbVertex
100
AcDb2dVertex
 10
42.207927
 20
43.712276
 30
0.0
  0
VERTEX
  5
3C94
100
AcDbEntity
  8
TRACK
100
AcDbVertex
100
AcDb2dVertex
 10
42.207927
 20
45.283149
 30
0.0
 42
0.57735
  0
VERTEX
  5
3C95
100
AcDbEntity
  8
TRACK
100
AcDbVertex
100
AcDb2dVertex
 10
42.161052
 20
45.310213
 30
0.0
  0
VERTEX
  5
3C96
100
AcDbEntity
  8
TRACK
100
AcDbVertex
100
AcDb2dVertex
 10
39.08421
 20
43.533797
 30
0.0
 42
0.267949
  0
VERTEX
  5
3C97
100
AcDbEntity
  8
TRACK
100
AcDbVertex
100
AcDb2dVertex
 10
39.068585
 20
43.506734
 30
0.0
  0
VERTEX
  5
3C98
100
AcDbEntity
  8
TRACK
100
AcDbVertex
100
AcDb2dVertex
 10
39.068585
 20
41.899776
 30
0.0
  0
VERTEX
  5
3C99
100
AcDbEntity
  8
TRACK
100
AcDbVertex
100
AcDb2dVertex
 10
39.033985
 20
41.8798
 30
0.0
  0
VERTEX
  5
3C9A
100
AcDbEntity
  8
TRACK
100
AcDbVertex
100
AcDb2dVertex
 10
39.033985
 20
43.506734
 30
0.0
 42
-0.267949
  0
VERTEX
  5
3C9B
100
AcDbEntity
  8
TRACK
100
AcDbVertex
100
AcDb2dVertex
 10
39.06691
 20
43.563761
 30
0.0
  0
VERTEX
  5
3C9C
100
AcDbEntity
  8
TRACK
100
AcDbVertex
100
AcDb2dVertex
 10
42.143752
 20
45.340177
 30
0.0
 42
-0.57735
  0
VERTEX
  5
3C9D
100
AcDbEntity
  8
TRACK
100
AcDbVertex
100
AcDb2dVertex
 10
42.242527
 20
45.283149
 30
0.0
  0
VERTEX
  5
3C9E
100
AcDbEntity
  8
TRACK
100
AcDbVertex
100
AcDb2dVertex
 10
42.242527
 20
43.732252
 30
0.0
  0
SEQEND
  5
3C9F
100
AcDbEntity
  8
TRACK
  0
LINE
  5
3CA6
100
AcDbEntity
  8
STUD
100
AcDbLine
 10
25.98392
 20
29.093147
 30
0.0
 11
25.98392
 21
55.42277
 31
0.0
  0
LINE
  5
3CA7
100
AcDbEntity
  8
STUD
100
AcDbLine
 10
26.014597
 20
29.030578
 30
0.0
 11
26.014597
 21
55.405053
 31
0.0
  0
LINE
  5
3CA8
100
AcDbEntity
  8
STUD
100
AcDbLine
 10
31.751447
 20
29.16105
 30
0.0
 11
31.751447
 21
31.781166
 31
0.0
  0
LINE
  5
3CAA
100
AcDbEntity
  8
STUD
100
AcDbLine
 10
27.328139
 20
28.198102
 30
0.0
 11
27.328139
 21
30.800393
 31
0.0
  0
LINE
  5
3CAB
100
AcDbEntity
  8
STUD
100
AcDbLine
 10
28.468271
 20
27.539846
 30
0.0
 11
28.468271
 21
49.643887
 31
0.0
  0
LINE
  5
3CAD
100
AcDbEntity
  8
STUD
100
AcDbLine
 10
28.674605
 20
27.420719
 30
0.0
 11
28.674605
 21
33.76251
 31
0.0
  0
LINE
  5
3CC4
100
AcDbEntity
  8
TRACK
100
AcDbLine
 10
22.520058
 20
57.423276
 30
0.0
 11
32.910688
 21
51.422309
 31
0.0
  0
LINE
  5
3CC5
100
AcDbEntity
  8
TRACK
100
AcDbLine
 10
22.551308
 20
59.106271
 30
0.0
 11
32.943613
 21
53.106271
 31
0.0
  0
LINE
  5
3CC6
100
AcDbEntity
  8
TRACK
100
AcDbLine
 10
22.518383
 20
59.049243
 30
0.0
 11
32.910688
 21
53.049243
 31
0.0
  0
LINE
  5
3CC7
100
AcDbEntity
  8
TRACK
100
AcDbLine
 10
25.628151
 20
60.882687
 30
0.0
 11
36.020455
 21
54.882687
 31
0.0
  0
LINE
  5
3CC8
100
AcDbEntity
  8
TRACK
100
AcDbLine
 10
25.694001
 20
60.882687
 30
0.0
 11
36.086305
 21
54.882687
 31
0.0
  0
LINE
  5
3CC9
100
AcDbEntity
  8
TRACK_H-2
100
AcDbLine
 10
36.08463
 20
53.254785
 30
0.0
 11
34.677339
 21
54.067285
 31
0.0
  0
POLYLINE
  5
3CCB
100
AcDbEntity
  8
TRACK
100
AcDb2dPolyline
 66
     1
 10
0.0
 20
0.0
 30
0.0
  0
VERTEX
  5
3CCC
100
AcDbEntity
  8
TRACK
100
AcDbVertex
100
AcDb2dVertex
 10
22.518383
 20
57.422309
 30
0.0
  0
VERTEX
  5
3CCD
100
AcDbEntity
  8
TRACK
100
AcDbVertex
100
AcDb2dVertex
 10
22.518383
 20
59.049243
 30
0.0
 42
-0.267949
  0
VERTEX
  5
3CCE
100
AcDbEntity
  8
TRACK
100
AcDbVertex
100
AcDb2dVertex
 10
22.551308
 20
59.106271
 30
0.0
  0
VERTEX
  5
3CCF
100
AcDbEntity
  8
TRACK
100
AcDbVertex
100
AcDb2dVertex
 10
25.628151
 20
60.882687
 30
0.0
 42
-0.267949
  0
VERTEX
  5
3CD0
100
AcDbEntity
  8
TRACK
100
AcDbVertex
100
AcDb2dVertex
 10
25.694001
 20
60.882687
 30
0.0
  0
SEQEND
  5
3CD1
100
AcDbEntity
  8
TRACK
  0
LINE
  5
3CD6
100
AcDbEntity
  8
FASTENER
100
AcDbLine
 10
26.549109
 20
55.909278
 30
0.0
 11
26.765615
 21
55.784278
 31
0.0
  0
LINE
  5
3CD7
100
AcDbEntity
  8
FASTENER
100
AcDbLine
 10
26.656132
 20
55.721784
 30
0.0
 11
26.658592
 21
55.971771
 31
0.0
  0
ELLIPSE
  5
3CD8
100
AcDbEntity
  8
FASTENER
100
AcDbEllipse
 10
26.657362
 20
55.846778
 30
0.0
 11
0.0765465544619843
 21
-0.13258252147249
 31
0.0
210
0.0
220
0.0
230
1.0
 40
0.57735
 41
-0.0000000000000169
 42
6.283185307179583
  0
LINE
  5
3CDC
100
AcDbEntity
  8
STUD
100
AcDbLine
 10
41.307301
 20
45.862416
 30
0.0
 11
38.327559
 21
47.582771
 31
0.0
  0
LINE
  5
3CDD
100
AcDbEntity
  8
STUD
100
AcDbLine
 10
39.93461
 20
50.977747
 30
0.0
 11
34.630356
 21
54.04016
 31
0.0
  0
POLYLINE
  5
3CF4
100
AcDbEntity
  8
STUD
100
AcDb2dPolyline
 66
     1
 10
0.0
 20
0.0
 30
0.0
 70
     1
  0
VERTEX
  5
3CF5
100
AcDbEntity
  8
STUD
100
AcDbVertex
100
AcDb2dVertex
 10
39.93461
 20
50.451331
 30
0.0
  0
VERTEX
  5
3CF6
100
AcDbEntity
  8
STUD
100
AcDbVertex
100
AcDb2dVertex
 10
39.93461
 20
50.977747
 30
0.0
 42
-0.267949
  0
VERTEX
  5
3CF7
100
AcDbEntity
  8
STUD
100
AcDbVertex
100
AcDb2dVertex
 10
39.96586
 20
51.031874
 30
0.0
  0
VERTEX
  5
3CF8
100
AcDbEntity
  8
STUD
100
AcDbVertex
100
AcDb2dVertex
 10
41.248151
 20
51.772205
 30
0.0
 42
-0.57735
  0
VERTEX
  5
3CF9
100
AcDbEntity
  8
STUD
100
AcDbVertex
100
AcDb2dVertex
 10
41.341901
 20
51.718078
 30
0.0
  0
VERTEX
  5
3CFA
100
AcDbEntity
  8
STUD
100
AcDbVertex
100
AcDb2dVertex
 10
41.341901
 20
45.862416
 30
0.0
 42
-0.267949
  0
VERTEX
  5
3CFB
100
AcDbEntity
  8
STUD
100
AcDbVertex
100
AcDb2dVertex
 10
41.310651
 20
45.808289
 30
0.0
  0
VERTEX
  5
3CFC
100
AcDbEntity
  8
STUD
100
AcDbVertex
100
AcDb2dVertex
 10
40.02836
 20
45.067958
 30
0.0
 42
-0.57735
  0
VERTEX
  5
3CFD
100
AcDbEntity
  8
STUD
100
AcDbVertex
100
AcDb2dVertex
 10
39.93461
 20
45.122085
 30
0.0
  0
VERTEX
  5
3CFE
100
AcDbEntity
  8
STUD
100
AcDbVertex
100
AcDb2dVertex
 10
39.93461
 20
45.576331
 30
0.0
  0
VERTEX
  5
3CFF
100
AcDbEntity
  8
STUD
100
AcDbVertex
100
AcDb2dVertex
 10
39.96921
 20
45.596308
 30
0.0
  0
VERTEX
  5
3D00
100
AcDbEntity
  8
STUD
100
AcDbVertex
100
AcDb2dVertex
 10
39.96921
 20
45.122085
 30
0.0
 42
0.57735
  0
VERTEX
  5
3D01
100
AcDbEntity
  8
STUD
100
AcDbVertex
100
AcDb2dVertex
 10
40.01106
 20
45.097922
 30
0.0
  0
VERTEX
  5
3D02
100
AcDbEntity
  8
STUD
100
AcDbVertex
100
AcDb2dVertex
 10
41.293351
 20
45.838254
 30
0.0
 42
0.267949
  0
VERTEX
  5
3D03
100
AcDbEntity
  8
STUD
100
AcDbVertex
100
AcDb2dVertex
 10
41.307301
 20
45.862416
 30
0.0
  0
VERTEX
  5
3D04
100
AcDbEntity
  8
STUD
100
AcDbVertex
100
AcDb2dVertex
 10
41.307301
 20
51.718078
 30
0.0
 42
0.57735
  0
VERTEX
  5
3D05
100
AcDbEntity
  8
STUD
100
AcDbVertex
100
AcDb2dVertex
 10
41.265451
 20
51.74224
 30
0.0
  0
VERTEX
  5
3D06
100
AcDbEntity
  8
STUD
100
AcDbVertex
100
AcDb2dVertex
 10
39.98316
 20
51.001909
 30
0.0
 42
0.267949
  0
VERTEX
  5
3D07
100
AcDbEntity
  8
STUD
100
AcDbVertex
100
AcDb2dVertex
 10
39.96921
 20
50.977747
 30
0.0
  0
VERTEX
  5
3D08
100
AcDbEntity
  8
STUD
100
AcDbVertex
100
AcDb2dVertex
 10
39.96921
 20
50.471308
 30
0.0
  0
SEQEND
  5
3D09
100
AcDbEntity
  8
STUD
  0
LINE
  5
3D0A
100
AcDbEntity
  8
STUD
100
AcDbLine
 10
41.248151
 20
51.772205
 30
0.0
 11
35.975147
 21
54.816575
 31
0.0
  0
LINE
  5
3D0C
100
AcDbEntity
  8
STUD
100
AcDbLine
 10
39.96586
 20
51.031874
 30
0.0
 11
34.692856
 21
54.076244
 31
0.0
  0
LINE
  5
3D0E
100
AcDbEntity
  8
STUD
100
AcDbLine
 10
39.96921
 20
45.596308
 30
0.0
 11
38.327559
 21
46.544115
 31
0.0
  0
LINE
  5
3D0F
100
AcDbEntity
  8
STUD
100
AcDbLine
 10
38.292959
 20
49.977747
 30
0.0
 11
32.948627
 21
53.063298
 31
0.0
  0
LINE
  5
3D10
100
AcDbEntity
  8
STUD
100
AcDbLine
 10
38.292959
 20
44.122085
 30
0.0
 11
28.563002
 21
49.739678
 31
0.0
  0
LINE
  5
3D11
100
AcDbEntity
  8
STUD
100
AcDbLine
 10
39.665651
 20
44.862416
 30
0.0
 11
38.327559
 21
45.634963
 31
0.0
  0
POLYLINE
  5
3D28
100
AcDbEntity
  8
STUD
100
AcDb2dPolyline
 66
     1
 10
0.0
 20
0.0
 30
0.0
 70
     1
  0
VERTEX
  5
3D29
100
AcDbEntity
  8
STUD
100
AcDbVertex
100
AcDb2dVertex
 10
39.700251
 20
45.388831
 30
0.0
  0
VERTEX
  5
3D2A
100
AcDbEntity
  8
STUD
100
AcDbVertex
100
AcDb2dVertex
 10
39.700251
 20
44.862416
 30
0.0
 42
-0.267949
  0
VERTEX
  5
3D2B
100
AcDbEntity
  8
STUD
100
AcDbVertex
100
AcDb2dVertex
 10
39.669001
 20
44.808289
 30
0.0
  0
VERTEX
  5
3D2C
100
AcDbEntity
  8
STUD
100
AcDbVertex
100
AcDb2dVertex
 10
38.386709
 20
44.067958
 30
0.0
 42
-0.57735
  0
VERTEX
  5
3D2D
100
AcDbEntity
  8
STUD
100
AcDbVertex
100
AcDb2dVertex
 10
38.292959
 20
44.122085
 30
0.0
  0
VERTEX
  5
3D2E
100
AcDbEntity
  8
STUD
100
AcDbVertex
100
AcDb2dVertex
 10
38.292959
 20
49.977747
 30
0.0
 42
-0.267949
  0
VERTEX
  5
3D2F
100
AcDbEntity
  8
STUD
100
AcDbVertex
100
AcDb2dVertex
 10
38.324209
 20
50.031874
 30
0.0
  0
VERTEX
  5
3D30
100
AcDbEntity
  8
STUD
100
AcDbVertex
100
AcDb2dVertex
 10
39.606501
 20
50.772205
 30
0.0
 42
-0.57735
  0
VERTEX
  5
3D31
100
AcDbEntity
  8
STUD
100
AcDbVertex
100
AcDb2dVertex
 10
39.700251
 20
50.718078
 30
0.0
  0
VERTEX
  5
3D32
100
AcDbEntity
  8
STUD
100
AcDbVertex
100
AcDb2dVertex
 10
39.700251
 20
50.263831
 30
0.0
  0
VERTEX
  5
3D33
100
AcDbEntity
  8
STUD
100
AcDbVertex
100
AcDb2dVertex
 10
39.665651
 20
50.243855
 30
0.0
  0
VERTEX
  5
3D34
100
AcDbEntity
  8
STUD
100
AcDbVertex
100
AcDb2dVertex
 10
39.665651
 20
50.718078
 30
0.0
 42
0.57735
  0
VERTEX
  5
3D35
100
AcDbEntity
  8
STUD
100
AcDbVertex
100
AcDb2dVertex
 10
39.623801
 20
50.74224
 30
0.0
  0
VERTEX
  5
3D36
100
AcDbEntity
  8
STUD
100
AcDbVertex
100
AcDb2dVertex
 10
38.341509
 20
50.001909
 30
0.0
 42
0.267949
  0
VERTEX
  5
3D37
100
AcDbEntity
  8
STUD
100
AcDbVertex
100
AcDb2dVertex
 10
38.327559
 20
49.977747
 30
0.0
  0
VERTEX
  5
3D38
100
AcDbEntity
  8
STUD
100
AcDbVertex
100
AcDb2dVertex
 10
38.327559
 20
44.122085
 30
0.0
 42
0.57735
  0
VERTEX
  5
3D39
100
AcDbEntity
  8
STUD
100
AcDbVertex
100
AcDb2dVertex
 10
38.369409
 20
44.097922
 30
0.0
  0
VERTEX
  5
3D3A
100
AcDbEntity
  8
STUD
100
AcDbVertex
100
AcDb2dVertex
 10
39.651701
 20
44.838254
 30
0.0
 42
0.267949
  0
VERTEX
  5
3D3B
100
AcDbEntity
  8
STUD
100
AcDbVertex
100
AcDb2dVertex
 10
39.665651
 20
44.862416
 30
0.0
  0
VERTEX
  5
3D3C
100
AcDbEntity
  8
STUD
100
AcDbVertex
100
AcDb2dVertex
 10
39.665651
 20
45.368855
 30
0.0
  0
SEQEND
  5
3D3D
100
AcDbEntity
  8
STUD
  0
LINE
  5
3D3F
100
AcDbEntity
  8
STUD
100
AcDbLine
 10
38.324209
 20
50.031874
 30
0.0
 11
33.006005
 21
53.10234
 31
0.0
  0
LINE
  5
3D40
100
AcDbEntity
  8
STUD
100
AcDbLine
 10
39.700251
 20
45.388831
 30
0.0
 11
38.327559
 21
46.181355
 31
0.0
  0
LINE
  5
3D41
100
AcDbEntity
  8
STUD
100
AcDbLine
 10
39.665651
 20
45.368855
 30
0.0
 11
38.327559
 21
46.141402
 31
0.0
  0
LINE
  5
3D42
100
AcDbEntity
  8
STUD
100
AcDbLine
 10
39.665651
 20
50.243855
 30
0.0
 11
39.213111
 21
50.505129
 31
0.0
  0
ELLIPSE
  5
3D43
100
AcDbEntity
  8
FASTENER
100
AcDbEllipse
 10
27.929889
 20
53.39107
 30
0.0
 11
0.0765465544619843
 21
-0.13258252147249
 31
0.0
210
0.0
220
0.0
230
1.0
 40
0.57735
 41
-0.0000000000000169
 42
6.283185307179583
  0
LINE
  5
3D44
100
AcDbEntity
  8
FASTENER
100
AcDbLine
 10
27.92866
 20
53.266076
 30
0.0
 11
27.931119
 21
53.516064
 31
0.0
  0
LINE
  5
3D45
100
AcDbEntity
  8
FASTENER
100
AcDbLine
 10
27.821636
 20
53.45357
 30
0.0
 11
28.038143
 21
53.32857
 31
0.0
  0
LINE
  5
3D46
100
AcDbEntity
  8
FASTENER
100
AcDbLine
 10
32.203923
 20
52.644594
 30
0.0
 11
32.420429
 21
52.519594
 31
0.0
  0
LINE
  5
3D47
100
AcDbEntity
  8
FASTENER
100
AcDbLine
 10
32.310946
 20
52.4571
 30
0.0
 11
32.313406
 21
52.707088
 31
0.0
  0
ELLIPSE
  5
3D48
100
AcDbEntity
  8
FASTENER
100
AcDbEllipse
 10
32.312176
 20
52.582094
 30
0.0
 11
0.0765465544619843
 21
-0.13258252147249
 31
0.0
210
0.0
220
0.0
230
1.0
 40
0.57735
 41
-0.0000000000000169
 42
6.283185307179583
  0
LINE
  5
3D49
100
AcDbEntity
  8
FASTENER
100
AcDbLine
 10
27.823255
 20
52.639935
 30
0.0
 11
28.039762
 21
52.514935
 31
0.0
  0
LINE
  5
3D4A
100
AcDbEntity
  8
FASTENER
100
AcDbLine
 10
27.930279
 20
52.452441
 30
0.0
 11
27.932738
 21
52.702429
 31
0.0
  0
ELLIPSE
  5
3D4B
100
AcDbEntity
  8
FASTENER
100
AcDbEllipse
 10
27.931509
 20
52.577435
 30
0.0
 11
0.0765465544619843
 21
-0.13258252147249
 31
0.0
210
0.0
220
0.0
230
1.0
 40
0.57735
 41
-0.0000000000000169
 42
6.283185307179583
  0
LINE
  5
3D4C
100
AcDbEntity
  8
FASTENER
100
AcDbLine
 10
27.824875
 20
51.8263
 30
0.0
 11
28.041381
 21
51.7013
 31
0.0
  0
LINE
  5
3D4D
100
AcDbEntity
  8
FASTENER
100
AcDbLine
 10
27.931898
 20
51.638806
 30
0.0
 11
27.934358
 21
51.888794
 31
0.0
  0
ELLIPSE
  5
3D4E
100
AcDbEntity
  8
FASTENER
100
AcDbEllipse
 10
27.933128
 20
51.7638
 30
0.0
 11
0.0765465544619843
 21
-0.13258252147249
 31
0.0
210
0.0
220
0.0
230
1.0
 40
0.57735
 41
-0.0000000000000169
 42
6.283185307179583
  0
LINE
  5
3D4F
100
AcDbEntity
  8
FASTENER
100
AcDbLine
 10
27.826494
 20
51.012665
 30
0.0
 11
28.043
 21
50.887665
 31
0.0
  0
LINE
  5
3D50
100
AcDbEntity
  8
FASTENER
100
AcDbLine
 10
27.933517
 20
50.825171
 30
0.0
 11
27.935977
 21
51.075159
 31
0.0
  0
ELLIPSE
  5
3D51
100
AcDbEntity
  8
FASTENER
100
AcDbEllipse
 10
27.934747
 20
50.950165
 30
0.0
 11
0.0765465544619843
 21
-0.13258252147249
 31
0.0
210
0.0
220
0.0
230
1.0
 40
0.57735
 41
-0.0000000000000169
 42
6.283185307179583
  0
ELLIPSE
  5
3D52
100
AcDbEntity
  8
FASTENER
100
AcDbEllipse
 10
27.967607
 20
55.090308
 30
0.0
 11
0.0765465544619843
 21
-0.13258252147249
 31
0.0
210
0.0
220
0.0
230
1.0
 40
0.57735
 41
-0.0000000000000169
 42
6.283185307179583
  0
LINE
  5
3D53
100
AcDbEntity
  8
FASTENER
100
AcDbLine
 10
27.966377
 20
54.965314
 30
0.0
 11
27.968836
 21
55.215302
 31
0.0
  0
LINE
  5
3D54
100
AcDbEntity
  8
FASTENER
100
AcDbLine
 10
27.859353
 20
55.152808
 30
0.0
 11
28.07586
 21
55.027808
 31
0.0
  0
LINE
  5
3D58
100
AcDbEntity
  8
FASTENER
100
AcDbLine
 10
27.826494
 20
31.012665
 30
0.0
 11
28.043
 21
30.887665
 31
0.0
  0
LINE
  5
3D59
100
AcDbEntity
  8
FASTENER
100
AcDbLine
 10
27.933517
 20
30.825171
 30
0.0
 11
27.935977
 21
31.075159
 31
0.0
  0
ELLIPSE
  5
3D5A
100
AcDbEntity
  8
FASTENER
100
AcDbEllipse
 10
27.934747
 20
30.950165
 30
0.0
 11
0.0765465544619843
 21
-0.13258252147249
 31
0.0
210
0.0
220
0.0
230
1.0
 40
0.57735
 41
0.0000000000000031
 42
6.283185307179603
  0
LINE
  5
3D5B
100
AcDbEntity
  8
TRACK
100
AcDbLine
 10
42.166031
 20
29.341111
 30
0.0
 11
39.816331
 21
30.69771
 31
0.0
  0
LINE
  5
3D5C
100
AcDbEntity
  8
TRACK
100
AcDbLine
 10
39.007714
 20
27.591758
 30
0.0
 11
28.858186
 21
33.451591
 31
0.0
  0
LINE
  5
3D5D
100
AcDbEntity
  8
TRACK
100
AcDbLine
 10
39.007714
 20
29.142655
 30
0.0
 11
28.858186
 21
35.002488
 31
0.0
  0
LINE
  5
3D5E
100
AcDbEntity
  8
TRACK
100
AcDbLine
 10
39.042314
 20
29.162632
 30
0.0
 11
28.892786
 21
35.022464
 31
0.0
  0
LINE
  5
3D5F
100
AcDbEntity
  8
TRACK
100
AcDbLine
 10
42.216256
 20
30.995108
 30
0.0
 11
40.072991
 21
32.232522
 31
0.0
  0
LINE
  5
3D60
100
AcDbEntity
  8
TRACK
100
AcDbLine
 10
42.181656
 20
30.975132
 30
0.0
 11
40.072991
 21
32.19257
 31
0.0
  0
POLYLINE
  5
3D61
100
AcDbEntity
  8
TRACK
100
AcDb2dPolyline
 66
     1
 10
0.0
 20
0.0
 30
0.0
 70
     1
  0
VERTEX
  5
3D62
100
AcDbEntity
  8
TRACK
100
AcDbVertex
100
AcDb2dVertex
 10
39.042314
 20
29.162632
 30
0.0
  0
VERTEX
  5
3D63
100
AcDbEntity
  8
TRACK
100
AcDbVertex
100
AcDb2dVertex
 10
39.042314
 20
27.591758
 30
0.0
 42
0.57735
  0
VERTEX
  5
3D64
100
AcDbEntity
  8
TRACK
100
AcDbVertex
100
AcDb2dVertex
 10
39.089189
 20
27.564695
 30
0.0
  0
VERTEX
  5
3D65
100
AcDbEntity
  8
TRACK
100
AcDbVertex
100
AcDb2dVertex
 10
42.166031
 20
29.341111
 30
0.0
 42
0.267949
  0
VERTEX
  5
3D66
100
AcDbEntity
  8
TRACK
100
AcDbVertex
100
AcDb2dVertex
 10
42.181656
 20
29.368174
 30
0.0
  0
VERTEX
  5
3D67
100
AcDbEntity
  8
TRACK
100
AcDbVertex
100
AcDb2dVertex
 10
42.181656
 20
30.975132
 30
0.0
  0
VERTEX
  5
3D68
100
AcDbEntity
  8
TRACK
100
AcDbVertex
100
AcDb2dVertex
 10
42.216256
 20
30.995108
 30
0.0
  0
VERTEX
  5
3D69
100
AcDbEntity
  8
TRACK
100
AcDbVertex
100
AcDb2dVertex
 10
42.216256
 20
29.368174
 30
0.0
 42
-0.267949
  0
VERTEX
  5
3D6A
100
AcDbEntity
  8
TRACK
100
AcDbVertex
100
AcDb2dVertex
 10
42.183331
 20
29.311146
 30
0.0
  0
VERTEX
  5
3D6B
100
AcDbEntity
  8
TRACK
100
AcDbVertex
100
AcDb2dVertex
 10
39.106489
 20
27.53473
 30
0.0
 42
-0.57735
  0
VERTEX
  5
3D6C
100
AcDbEntity
  8
TRACK
100
AcDbVertex
100
AcDb2dVertex
 10
39.007714
 20
27.591758
 30
0.0
  0
VERTEX
  5
3D6D
100
AcDbEntity
  8
TRACK
100
AcDbVertex
100
AcDb2dVertex
 10
39.007714
 20
29.142655
 30
0.0
  0
SEQEND
  5
3D6E
100
AcDbEntity
  8
TRACK
  0
LINE
  5
3D6F
100
AcDbEntity
  8
FASTENER
100
AcDbLine
 10
38.577542
 20
44.718088
 30
0.0
 11
38.361036
 21
44.843088
 31
0.0
  0
LINE
  5
3D70
100
AcDbEntity
  8
FASTENER
100
AcDbLine
 10
38.584109
 20
44.846879
 30
0.0
 11
38.354469
 21
44.714297
 31
0.0
  0
LINE
  5
3D71
100
AcDbEntity
  8
FASTENER
100
AcDbLine
 10
40.22576
 20
45.846879
 30
0.0
 11
39.99612
 21
45.714297
 31
0.0
  0
ELLIPSE
  5
3D72
100
AcDbEntity
  8
FASTENER
100
AcDbEllipse
 10
40.117706
 20
45.776682
 30
0.0
 11
-0.1626614282316899
 21
0.0
 31
0.0
210
0.0
220
0.0
230
1.0
 40
0.57735
 41
0.0
 42
6.2831853071796
  0
LINE
  5
3D73
100
AcDbEntity
  8
FASTENER
100
AcDbLine
 10
40.219193
 20
45.718088
 30
0.0
 11
40.002687
 21
45.843088
 31
0.0
  0
LINE
  5
3D97
100
AcDbEntity
  8
STUD
100
AcDbLine
 10
31.726895
 20
35.561828
 30
0.0
 11
31.726895
 21
46.09991
 31
0.0
  0
LINE
  5
3D99
100
AcDbEntity
  8
TRACK
100
AcDbLine
 10
40.800635
 20
44.524776
 30
0.0
 11
42.207927
 21
43.712276
 31
0.0
  0
LINE
  5
3D9B
100
AcDbEntity
  8
STUD
100
AcDbLine
 10
39.700251
 20
50.586639
 30
0.0
 11
39.93461
 21
50.451331
 31
0.0
  0
LINE
  5
3DA0
100
AcDbEntity
  8
STUD
100
AcDbLine
 10
34.278446
 20
53.836984
 30
0.0
 11
39.606501
 21
50.772205
 31
0.0
  0
POLYLINE
  5
3DA3
100
AcDbEntity
  8
TRACK
100
AcDb2dPolyline
 66
     1
 10
0.0
 20
0.0
 30
0.0
  0
VERTEX
  5
3DA4
100
AcDbEntity
  8
TRACK
100
AcDbVertex
100
AcDb2dVertex
 10
36.08463
 20
54.753365
 30
0.0
  0
VERTEX
  5
3DA5
100
AcDbEntity
  8
TRACK
100
AcDbVertex
100
AcDb2dVertex
 10
36.08463
 20
54.825659
 30
0.0
 42
0.57735
  0
VERTEX
  5
3DA6
100
AcDbEntity
  8
TRACK
100
AcDbVertex
100
AcDb2dVertex
 10
36.037755
 20
54.852722
 30
0.0
  0
VERTEX
  5
3DA7
100
AcDbEntity
  8
TRACK
100
AcDbVertex
100
AcDb2dVertex
 10
32.960913
 20
53.076307
 30
0.0
 42
0.267949
  0
VERTEX
  5
3DA8
100
AcDbEntity
  8
TRACK
100
AcDbVertex
100
AcDb2dVertex
 10
32.945288
 20
53.049243
 30
0.0
  0
VERTEX
  5
3DA9
100
AcDbEntity
  8
TRACK
100
AcDbVertex
100
AcDb2dVertex
 10
32.945288
 20
51.442285
 30
0.0
  0
VERTEX
  5
3DAA
100
AcDbEntity
  8
TRACK
100
AcDbVertex
100
AcDb2dVertex
 10
32.910688
 20
51.422309
 30
0.0
  0
VERTEX
  5
3DAB
100
AcDbEntity
  8
TRACK
100
AcDbVertex
100
AcDb2dVertex
 10
32.910688
 20
53.049243
 30
0.0
 42
-0.267949
  0
VERTEX
  5
3DAC
100
AcDbEntity
  8
TRACK
100
AcDbVertex
100
AcDb2dVertex
 10
32.943613
 20
53.106271
 30
0.0
  0
VERTEX
  5
3DAD
100
AcDbEntity
  8
TRACK
100
AcDbVertex
100
AcDb2dVertex
 10
36.020455
 20
54.882687
 30
0.0
 42
-0.57735
  0
VERTEX
  5
3DAE
100
AcDbEntity
  8
TRACK
100
AcDbVertex
100
AcDb2dVertex
 10
36.11923
 20
54.825659
 30
0.0
  0
VERTEX
  5
3DAF
100
AcDbEntity
  8
TRACK
100
AcDbVertex
100
AcDb2dVertex
 10
36.11923
 20
54.733389
 30
0.0
  0
SEQEND
  5
3DB0
100
AcDbEntity
  8
TRACK
  0
POLYLINE
  5
3DB8
100
AcDbEntity
  8
TRACK
100
AcDb2dPolyline
 66
     1
 10
0.0
 20
0.0
 30
0.0
  0
VERTEX
  5
3DB9
100
AcDbEntity
  8
TRACK
100
AcDbVertex
100
AcDb2dVertex
 10
27.314203
 20
54.404483
 30
0.0
 42
0.491156
  0
VERTEX
  5
3DBA
100
AcDbEntity
  8
TRACK
100
AcDbVertex
100
AcDb2dVertex
 10
27.328139
 20
54.301191
 30
0.0
  0
VERTEX
  5
3DBB
100
AcDbEntity
  8
TRACK
100
AcDbVertex
100
AcDb2dVertex
 10
28.528402
 20
53.608219
 30
0.0
  0
VERTEX
  5
3DBC
100
AcDbEntity
  8
TRACK
100
AcDbVertex
100
AcDb2dVertex
 10
28.563002
 20
53.628196
 30
0.0
  0
VERTEX
  5
3DBD
100
AcDbEntity
  8
TRACK
100
AcDbVertex
100
AcDb2dVertex
 10
27.345439
 20
54.331156
 30
0.0
 42
-0.57735
  0
VERTEX
  5
3DBE
100
AcDbEntity
  8
TRACK
100
AcDbVertex
100
AcDb2dVertex
 10
27.345439
 20
54.385283
 30
0.0
  0
VERTEX
  5
3DBF
100
AcDbEntity
  8
TRACK
100
AcDbVertex
100
AcDb2dVertex
 10
27.346444
 20
54.385863
 30
0.0
 42
-0.267949
  0
SEQEND
  5
3DC0
100
AcDbEntity
  8
TRACK
  0
POLYLINE
  5
3DC3
100
AcDbEntity
  8
TRACK
100
AcDb2dPolyline
 66
     1
 10
0.0
 20
0.0
 30
0.0
  0
VERTEX
  5
3DC4
100
AcDbEntity
  8
TRACK
100
AcDbVertex
100
AcDb2dVertex
 10
28.858186
 20
47.7548
 30
0.0
  0
VERTEX
  5
3DC5
100
AcDbEntity
  8
TRACK
100
AcDbVertex
100
AcDb2dVertex
 10
28.858186
 20
49.381734
 30
0.0
 42
-0.267949
  0
VERTEX
  5
3DC6
100
AcDbEntity
  8
TRACK
100
AcDbVertex
100
AcDb2dVertex
 10
28.891111
 20
49.438761
 30
0.0
  0
VERTEX
  5
3DC7
100
AcDbEntity
  8
TRACK
100
AcDbVertex
100
AcDb2dVertex
 10
28.987658
 20
49.494503
 30
0.0
 42
-0.267949
  0
SEQEND
  5
3DC8
100
AcDbEntity
  8
TRACK
  0
LINE
  5
3DCB
100
AcDbEntity
  8
STUD
100
AcDbLine
 10
38.306911
 20
42.127169
 30
0.0
 11
38.306911
 21
38.933499
 31
0.0
  0
LINE
  5
3DD0
100
AcDbEntity
  8
STUD
100
AcDbLine
 10
38.272311
 20
42.107193
 30
0.0
 11
38.272311
 21
38.913523
 31
0.0
  0
LINE
  5
3DD3
100
AcDbEntity
  8
STUD
100
AcDbLine
 10
38.7734
 20
42.030297
 30
0.0
 11
38.7734
 21
39.202827
 31
0.0
  0
LINE
  5
3DD5
100
AcDbEntity
  8
STUD
100
AcDbLine
 10
38.327559
 20
46.504163
 30
0.0
 11
39.93461
 21
45.576331
 31
0.0
  0
LINE
  5
3DD7
100
AcDbEntity
  8
STUD
100
AcDbLine
 10
39.700251
 20
45.257392
 30
0.0
 11
39.93461
 21
45.122085
 31
0.0
  0
LINE
  5
3DD8
100
AcDbEntity
  8
TRACK
100
AcDbLine
 10
41.33879
 20
45.842941
 30
0.0
 11
42.209602
 21
45.340177
 31
0.0
  0
LINE
  5
3DD9
100
AcDbEntity
  8
TRACK
100
AcDbLine
 10
41.320605
 20
45.815421
 30
0.0
 11
42.143752
 21
45.340177
 31
0.0
  0
LINE
  5
3DDD
100
AcDbEntity
  8
STUD
100
AcDbLine
 10
30.040045
 20
47.074127
 30
0.0
 11
30.040045
 21
34.360094
 31
0.0
  0
LINE
  5
3DDE
100
AcDbEntity
  8
STUD
100
AcDbLine
 10
30.495934
 20
46.810835
 30
0.0
 11
30.495934
 21
34.096887
 31
0.0
  0
LINE
  5
3DDF
100
AcDbEntity
  8
STUD
100
AcDbLine
 10
28.695253
 20
49.180708
 30
0.0
 11
28.695253
 21
33.851462
 31
0.0
  0
LINE
  5
3DE2
100
AcDbEntity
  8
STUD
100
AcDbLine
 10
37.058649
 20
43.020628
 30
0.0
 11
37.058649
 21
30.307901
 31
0.0
  0
LINE
  5
3DE3
100
AcDbEntity
  8
STUD
100
AcDbLine
 10
40.072991
 20
44.10467
 30
0.0
 11
40.072991
 21
30.845893
 31
0.0
  0
LINE
  5
3DE7
100
AcDbEntity
  8
FASTENER
100
AcDbLine
 10
29.202535
 20
48.347075
 30
0.0
 11
29.419042
 21
48.222075
 31
0.0
  0
LINE
  5
3DE8
100
AcDbEntity
  8
FASTENER
100
AcDbLine
 10
29.309559
 20
48.159581
 30
0.0
 11
29.312018
 21
48.409569
 31
0.0
  0
ELLIPSE
  5
3DE9
100
AcDbEntity
  8
FASTENER
100
AcDbEllipse
 10
29.310788
 20
48.284575
 30
0.0
 11
0.0765465544619843
 21
-0.13258252147249
 31
0.0
210
0.0
220
0.0
230
1.0
 40
0.57735
 41
0.0000000000000928
 42
6.283185307179693
  0
LINE
  5
3DEA
100
AcDbEntity
  8
FASTENER
100
AcDbLine
 10
36.22114
 20
44.271037
 30
0.0
 11
36.437646
 21
44.146037
 31
0.0
  0
LINE
  5
3DEB
100
AcDbEntity
  8
FASTENER
100
AcDbLine
 10
36.328163
 20
44.083543
 30
0.0
 11
36.330623
 21
44.333531
 31
0.0
  0
ELLIPSE
  5
3DEC
100
AcDbEntity
  8
FASTENER
100
AcDbEllipse
 10
36.329393
 20
44.208537
 30
0.0
 11
0.0765465544619843
 21
-0.13258252147249
 31
0.0
210
0.0
220
0.0
230
1.0
 40
0.57735
 41
-0.0000000000000169
 42
6.283185307179583
  0
LINE
  5
3DED
100
AcDbEntity
  8
FASTENER
100
AcDbLine
 10
36.22114
 20
30.01226
 30
0.0
 11
36.437646
 21
29.88726
 31
0.0
  0
LINE
  5
3DEE
100
AcDbEntity
  8
FASTENER
100
AcDbLine
 10
36.328163
 20
29.824766
 30
0.0
 11
36.330623
 21
30.074754
 31
0.0
  0
ELLIPSE
  5
3DEF
100
AcDbEntity
  8
FASTENER
100
AcDbEllipse
 10
36.329393
 20
29.94976
 30
0.0
 11
0.0765465544619843
 21
-0.13258252147249
 31
0.0
210
0.0
220
0.0
230
1.0
 40
0.57735
 41
0.0000000000000031
 42
6.283185307179603
  0
LINE
  5
3DF7
100
AcDbEntity
  8
TRACK
100
AcDbLine
 10
35.713858
 20
33.066274
 30
0.0
 11
32.931855
 21
34.672465
 31
0.0
  0
LINE
  5
3DF8
100
AcDbEntity
  8
TRACK
100
AcDbLine
 10
39.847581
 20
30.715753
 30
0.0
 11
42.181656
 21
29.368174
 31
0.0
  0
LINE
  5
3DFC
100
AcDbEntity
  8
TRACK
100
AcDbLine
 10
35.713858
 20
34.709317
 30
0.0
 11
33.054387
 21
36.244763
 31
0.0
  0
LINE
  5
3DFE
100
AcDbEntity
  8
TRACK
100
AcDbLine
 10
35.713858
 20
34.749269
 30
0.0
 11
33.054387
 21
36.284716
 31
0.0
  0
ARC
  5
3E01
100
AcDbEntity
  8
TRACK
100
AcDbCircle
 10
32.000878
 20
35.228007
 30
0.0
 40
0.03125
100
AcDbArc
 50
300.0
 51
0.0
  0
LINE
  5
3E02
100
AcDbEntity
  8
TRACK
100
AcDbLine
 10
32.032128
 20
35.228007
 30
0.0
 11
32.032128
 21
35.40171
 31
0.0
  0
LINE
  5
3E03
100
AcDbEntity
  8
TRACK
100
AcDbLine
 10
28.858186
 20
35.002488
 30
0.0
 11
28.892786
 21
35.022464
 31
0.0
  0
LINE
  5
3E0A
100
AcDbEntity
  8
TRACK
100
AcDbLine
 10
30.495934
 20
34.323042
 30
0.0
 11
32.016503
 21
35.200943
 31
0.0
  0
POLYLINE
  5
3E12
100
AcDbEntity
  8
TRACK
100
AcDb2dPolyline
 66
     1
 10
0.0
 20
0.0
 30
0.0
  0
VERTEX
  5
3E13
100
AcDbEntity
  8
TRACK
100
AcDbVertex
100
AcDb2dVertex
 10
28.956961
 20
33.394563
 30
0.0
 42
-0.57735
  0
VERTEX
  5
3E14
100
AcDbEntity
  8
TRACK
100
AcDbVertex
100
AcDb2dVertex
 10
28.858186
 20
33.451591
 30
0.0
  0
VERTEX
  5
3E15
100
AcDbEntity
  8
TRACK
100
AcDbVertex
100
AcDb2dVertex
 10
28.858186
 20
35.002488
 30
0.0
  0
SEQEND
  5
3E16
100
AcDbEntity
  8
TRACK
  0
LINE
  5
3E1F
100
AcDbEntity
  8
STUD
100
AcDbLine
 10
33.054387
 20
45.333235
 30
0.0
 11
33.054387
 21
34.743208
 31
0.0
  0
LINE
  5
3E20
100
AcDbEntity
  8
STUD
100
AcDbLine
 10
32.660997
 20
45.560432
 30
0.0
 11
32.660997
 21
34.516085
 31
0.0
  0
LINE
  5
3E21
100
AcDbEntity
  8
STUD
100
AcDbLine
 10
31.781066
 20
46.068624
 30
0.0
 11
31.781773
 21
35.546253
 31
0.0
  0
POLYLINE
  5
3E24
100
AcDbEntity
  8
STUD
100
AcDb2dPolyline
 66
     1
 10
0.0
 20
0.0
 30
0.0
  0
VERTEX
  5
3E25
100
AcDbEntity
  8
STUD
100
AcDbVertex
100
AcDb2dVertex
 10
33.054387
 20
34.851462
 30
0.0
 42
-0.57735
  0
VERTEX
  5
3E26
100
AcDbEntity
  8
STUD
100
AcDbVertex
100
AcDb2dVertex
 10
33.054387
 20
34.743208
 30
0.0
  0
VERTEX
  5
3E27
100
AcDbEntity
  8
STUD
100
AcDbVertex
100
AcDb2dVertex
 10
32.660997
 20
34.516085
 30
0.0
  0
VERTEX
  5
3E28
100
AcDbEntity
  8
STUD
100
AcDbVertex
100
AcDb2dVertex
 10
32.626397
 20
34.536061
 30
0.0
  0
SEQEND
  5
3E29
100
AcDbEntity
  8
STUD
  0
POLYLINE
  5
3E30
100
AcDbEntity
  8
STUD
100
AcDb2dPolyline
 66
     1
 10
0.0
 20
0.0
 30
0.0
  0
VERTEX
  5
3E31
100
AcDbEntity
  8
STUD
100
AcDbVertex
100
AcDb2dVertex
 10
32.660997
 20
35.038632
 30
0.0
  0
VERTEX
  5
3E32
100
AcDbEntity
  8
STUD
100
AcDbVertex
100
AcDb2dVertex
 10
31.754795
 20
35.561828
 30
0.0
 42
0.267949
  0
VERTEX
  5
3E33
100
AcDbEntity
  8
STUD
100
AcDbVertex
100
AcDb2dVertex
 10
31.726895
 20
35.561828
 30
0.0
  0
VERTEX
  5
3E34
100
AcDbEntity
  8
STUD
100
AcDbVertex
100
AcDb2dVertex
 10
30.495934
 20
34.851132
 30
0.0
 42
0.57735
  0
SEQEND
  5
3E35
100
AcDbEntity
  8
STUD
  0
LINE
  5
3E38
100
AcDbEntity
  8
STUD
100
AcDbLine
 10
29.977545
 20
34.396179
 30
0.0
 11
29.977545
 21
47.110224
 31
0.0
  0
POLYLINE
  5
3E39
100
AcDbEntity
  8
STUD
100
AcDb2dPolyline
 66
     1
 10
0.0
 20
0.0
 30
0.0
  0
VERTEX
  5
3E3A
100
AcDbEntity
  8
STUD
100
AcDbVertex
100
AcDb2dVertex
 10
40.072991
 20
30.954147
 30
0.0
 42
-0.57735
  0
VERTEX
  5
3E3B
100
AcDbEntity
  8
STUD
100
AcDbVertex
100
AcDb2dVertex
 10
40.072991
 20
30.845893
 30
0.0
  0
VERTEX
  5
3E3C
100
AcDbEntity
  8
STUD
100
AcDbVertex
100
AcDb2dVertex
 10
38.099905
 20
29.706732
 30
0.0
 42
-0.267949
  0
SEQEND
  5
3E3D
100
AcDbEntity
  8
STUD
  0
LINE
  5
3E55
100
AcDbEntity
  8
STUD
100
AcDbLine
 10
36.996149
 20
30.343985
 30
0.0
 11
36.996149
 21
43.056724
 31
0.0
  0
LINE
  5
3E56
100
AcDbEntity
  8
STUD
100
AcDbLine
 10
35.713858
 20
31.084317
 30
0.0
 11
35.713858
 21
43.797294
 31
0.0
  0
LINE
  5
3E64
100
AcDbEntity
  8
TRACK
100
AcDbLine
 10
35.729483
 20
33.093338
 30
0.0
 11
32.963105
 21
34.690507
 31
0.0
  0
LINE
  5
3E67
100
AcDbEntity
  8
TRACK
100
AcDbLine
 10
32.626397
 20
34.848821
 30
0.0
 11
32.016503
 21
35.200943
 31
0.0
  0
LINE
  5
3E69
100
AcDbEntity
  8
TRACK
100
AcDbLine
 10
32.626397
 20
34.884905
 30
0.0
 11
32.032128
 21
35.228007
 31
0.0
  0
LINE
  5
3E6A
100
AcDbEntity
  8
STUD
100
AcDbLine
 10
32.626397
 20
45.580408
 30
0.0
 11
32.626397
 21
34.536061
 31
0.0
  0
ELLIPSE
  5
3E9A
100
AcDbEntity
  8
FASTENER
100
AcDbEllipse
 10
38.476055
 20
44.776682
 30
0.0
 11
-0.1626614282316899
 21
0.0
 31
0.0
210
0.0
220
0.0
230
1.0
 40
0.57735
 41
0.420433470107724
 42
5.862751837071876
  0
LINE
  5
3EA5
100
AcDbEntity
  8
FASTENER
100
AcDbLine
 10
31.090627
 20
42.269759
 30
0.0
 11
31.090627
 21
42.019759
 31
0.0
  0
LINE
  5
3EA6
100
AcDbEntity
  8
FASTENER
100
AcDbLine
 10
30.981764
 20
42.083327
 30
0.0
 11
31.19949
 21
42.206191
 31
0.0
  0
ELLIPSE
  5
3EA7
100
AcDbEntity
  8
FASTENER
100
AcDbEllipse
 10
31.090627
 20
42.144759
 30
0.0
 11
-0.076546554461966
 21
-0.1325825214724824
 31
0.0
210
0.0
220
0.0
230
1.0
 40
0.57735
 41
0.0000000000002282
 42
6.283185307179828
  0
ELLIPSE
  5
3EA8
100
AcDbEntity
  8
FASTENER
100
AcDbEllipse
 10
31.090627
 20
36.144759
 30
0.0
 11
-0.076546554461966
 21
-0.1325825214724824
 31
0.0
210
0.0
220
0.0
230
1.0
 40
0.57735
 41
0.0000000000002282
 42
6.283185307179828
  0
LINE
  5
3EA9
100
AcDbEntity
  8
FASTENER
100
AcDbLine
 10
30.981764
 20
36.083327
 30
0.0
 11
31.19949
 21
36.206191
 31
0.0
  0
LINE
  5
3EAA
100
AcDbEntity
  8
FASTENER
100
AcDbLine
 10
31.090627
 20
36.269759
 30
0.0
 11
31.090627
 21
36.019759
 31
0.0
  0
LINE
  5
3ECE
100
AcDbEntity
  8
0
  6
CENTER
100
AcDbLine
 10
25.98392
 20
30.750602
 30
0.0
 11
22.520058
 21
32.750464
 31
0.0
  0
POLYLINE
  5
3EE9
100
AcDbEntity
  8
STUD
100
AcDb2dPolyline
 66
     1
 10
0.0
 20
0.0
 30
0.0
  0
VERTEX
  5
3EEA
100
AcDbEntity
  8
STUD
100
AcDbVertex
100
AcDb2dVertex
 10
27.296889
 20
28.290247
 30
0.0
  0
VERTEX
  5
3EEB
100
AcDbEntity
  8
STUD
100
AcDbVertex
100
AcDb2dVertex
 10
26.014597
 20
29.030578
 30
0.0
 42
-0.3046
  0
VERTEX
  5
3EEC
100
AcDbEntity
  8
STUD
100
AcDbVertex
100
AcDb2dVertex
 10
25.98392
 20
29.093147
 30
0.0
  0
SEQEND
  5
3EED
100
AcDbEntity
  8
STUD
  0
LINE
  5
4523
100
AcDbEntity
  8
FASTENER
100
AcDbLine
 10
29.615845
 20
33.670951
 30
0.0
 11
29.832351
 21
33.545951
 31
0.0
  0
LINE
  5
4524
100
AcDbEntity
  8
FASTENER
100
AcDbLine
 10
29.722868
 20
33.483457
 30
0.0
 11
29.725328
 21
33.733445
 31
0.0
  0
ELLIPSE
  5
4525
100
AcDbEntity
  8
FASTENER
100
AcDbEllipse
 10
29.724098
 20
33.608451
 30
0.0
 11
0.0765465544619843
 21
-0.13258252147249
 31
0.0
210
0.0
220
0.0
230
1.0
 40
0.57735
 41
0.0000000000000928
 42
6.283185307179693
  0
ELLIPSE
  5
4526
100
AcDbEntity
  8
FASTENER
100
AcDbEllipse
 10
29.148409
 20
33.940825
 30
0.0
 11
0.0765465544619843
 21
-0.13258252147249
 31
0.0
210
0.0
220
0.0
230
1.0
 40
0.57735
 41
0.0000000000000928
 42
6.283185307179693
  0
LINE
  5
4527
100
AcDbEntity
  8
FASTENER
100
AcDbLine
 10
29.147179
 20
33.815831
 30
0.0
 11
29.149638
 21
34.065819
 31
0.0
  0
LINE
  5
4528
100
AcDbEntity
  8
FASTENER
100
AcDbLine
 10
29.040155
 20
34.003325
 30
0.0
 11
29.256662
 21
33.878325
 31
0.0
  0
ELLIPSE
  5
452C
100
AcDbEntity
  8
FASTENER
100
AcDbEllipse
 10
32.207951
 20
35.759445
 30
0.0
 11
0.0382732772309918
 21
-0.0662912607362352
 31
0.0
210
0.0
220
0.0
230
1.0
 40
0.57735
 41
-0.0000000000000006
 42
6.283185307179599
  0
LINE
  5
452D
100
AcDbEntity
  8
FASTENER
100
AcDbLine
 10
32.206721
 20
35.634451
 30
0.0
 11
32.209181
 21
35.884439
 31
0.0
  0
LINE
  5
452E
100
AcDbEntity
  8
FASTENER
100
AcDbLine
 10
32.099698
 20
35.821945
 30
0.0
 11
32.316204
 21
35.696945
 31
0.0
  0
ELLIPSE
  5
4626
100
AcDbEntity
  8
FASTENER
100
AcDbEllipse
 10
2.021192
 20
20.308948
 30
0.0
 11
-0.3444594950788471
 21
-0.596621346626171
 31
0.0
210
0.0
220
0.0
230
1.0
 40
0.57735
 41
0.0000000000000053
 42
6.283185307179605
  0
LINE
  5
4627
100
AcDbEntity
  8
FASTENER
100
AcDbLine
 10
1.531309
 20
20.032504
 30
0.0
 11
2.511075
 21
20.585392
 31
0.0
  0
LINE
  5
4628
100
AcDbEntity
  8
FASTENER
100
AcDbLine
 10
2.021192
 20
20.871448
 30
0.0
 11
2.021192
 21
19.746448
 31
0.0
  0
LINE
  5
4629
100
AcDbEntity
  8
FASTENER
100
AcDbLine
 10
1.564324
 20
15.038679
 30
0.0
 11
2.544089
 21
15.591567
 31
0.0
  0
LINE
  5
462A
100
AcDbEntity
  8
FASTENER
100
AcDbLine
 10
2.054207
 20
15.877623
 30
0.0
 11
2.054207
 21
14.752623
 31
0.0
  0
TEXT
  5
462B
100
AcDbEntity
  8
D-TEXT
100
AcDbText
 10
2.828827
 20
19.522268
 30
0.0
 40
1.5
  1
fastener
  7
ARCH
 11
2.828827
 21
18.79813
 31
0.0
100
AcDbText
 73
     1
  0
TEXT
  5
462C
100
AcDbEntity
  8
D-TEXT
100
AcDbText
 10
2.828827
 20
17.039509
 30
0.0
 40
1.5
  1
Fastener hidden
  7
ARCH
 11
2.828827
 21
16.315371
 31
0.0
100
AcDbText
 73
     1
  0
TEXT
  5
462D
100
AcDbEntity
  8
D-TEXT
100
AcDbText
 10
2.828827
 20
14.556751
 30
0.0
 40
1.5
  1
Fastener back side & hidden
  7
ARCH
 11
2.828827
 21
13.832613
 31
0.0
100
AcDbText
 73
     1
  0
LINE
  5
462E
100
AcDbEntity
  8
FASTENER
100
AcDbLine
 10
2.054207
 20
18.348883
 30
0.0
 11
2.054207
 21
17.223883
 31
0.0
  0
LINE
  5
462F
100
AcDbEntity
  8
FASTENER
100
AcDbLine
 10
1.564324
 20
17.509939
 30
0.0
 11
2.544089
 21
18.062827
 31
0.0
  0
ELLIPSE
  5
4630
100
AcDbEntity
  8
FASTENER
100
AcDbEllipse
 10
2.054207
 20
15.315123
 30
0.0
 11
-0.172229747539444
 21
-0.2983106733130727
 31
0.0
210
0.0
220
0.0
230
1.0
 40
0.57735
 41
0.0000000000000205
 42
6.28318530717962
  0
MTEXT
  5
4666
100
AcDbEntity
  8
D-TEXT
100
AcDbMText
 10
51.84525
 20
49.7001
 30
0.0
 40
1.5
 41
0.0
 71
     7
 72
     1
  1
{HEADER BEAM CONTINUOUS}
  7
ARCH
  0
MTEXT
  5
4667
100
AcDbEntity
  8
D-TEXT
100
AcDbMText
 10
40.692063
 20
57.791883
 30
0.0
 40
1.5
 41
0.0
 71
     7
 72
     1
  1
{TOP TRACK}
  7
ARCH
  0
LEADER
  5
4668
100
AcDbEntity
  8
TEXT
100
AcDbLeader
  3
LEADER
 73
     0
 40
1.0
 41
11.758621
 76
     2
 10
30.845967
 20
58.526549
 30
0.0
 10
40.037015
 20
58.526549
 30
0.0
 77
   256
  0
MTEXT
  5
4669
100
AcDbEntity
  8
D-TEXT
100
AcDbMText
 10
49.922287
 20
39.585371
 30
0.0
 40
1.5
 41
0.0
 71
     7
 72
     1
  1
{CRIPPLE}
  7
ARCH
  0
LEADER
  5
466A
100
AcDbEntity
  8
D-TEXT
100
AcDbLeader
  3
LEADER
 73
     0
 40
1.0
 41
11.758621
 76
     2
 10
40.182301
 20
40.102747
 30
0.0
 10
49.37335
 20
40.102747
 30
0.0
 77
   256
  0
LEADER
  5
466B
100
AcDbEntity
  8
D-TEXT
100
AcDbLeader
  3
LEADER
 73
     0
 40
1.0
 41
11.758621
 76
     2
 10
42.494801
 20
30.102747
 30
0.0
 10
51.68585
 20
30.102747
 30
0.0
 77
   256
  0
MTEXT
  5
466C
100
AcDbEntity
  8
D-TEXT
100
AcDbMText
 10
52.806732
 20
29.930402
 30
0.0
 40
1.5
 41
0.0
 71
     7
 72
     1
  1
{CONTINUOUS TRACK}
  7
ARCH
  0
MTEXT
  5
466D
100
AcDbEntity
  8
D-TEXT
100
AcDbMText
 10
52.229843
 20
44.458831
 30
0.0
 40
1.5
 41
0.0
 71
     7
 72
     1
  1
{CONTINUOUS TRACK}
  7
ARCH
  0
LEADER
  5
466E
100
AcDbEntity
  8
D-TEXT
100
AcDbLeader
  3
LEADER
 73
     0
 40
1.0
 41
11.758621
 76
     2
 10
42.494801
 20
44.665247
 30
0.0
 10
51.68585
 20
44.665247
 30
0.0
 77
   256
  0
LEADER
  5
466F
100
AcDbEntity
  8
D-TEXT
100
AcDbLeader
  3
LEADER
 73
     0
 40
4.942529
 41
17.586207
 76
     4
 10
30.74835
 20
29.92167
 30
0.0
 10
39.81085
 20
25.10917
 30
0.0
 10
42.31085
 20
25.10917
 30
0.0
 10
50.31085
 20
25.10917
 30
0.0
 77
   256
  0
MTEXT
  5
4670
100
AcDbEntity
  8
D-TEXT
100
AcDbMText
 10
51.24835
 20
23.73417
 30
0.0
 40
1.5
 41
0.0
 71
     7
 72
     1
  1
{SHOULDER STUD TO }\P{UNDERSIDE OF HEADER}
  7
ARCH
  0
LEADER
  5
4671
100
AcDbEntity
  8
D-TEXT
100
AcDbLeader
  3
LEADER
 73
     0
 40
2.666667
 41
12.034483
 76
     3
 10
27.414075
 20
43.883064
 30
0.0
 10
36.208658
 20
37.644305
 30
0.0
 10
51.941399
 20
36.183144
 30
0.0
 77
   256
1001
ACAD
1000
DSTYLE
1002
{
1070
    77
1070
     0
1002
}
  0
MTEXT
  5
4672
100
AcDbEntity
  8
D-TEXT
100
AcDbMText
 10
52.710584
 20
35.263623
 30
0.0
 40
1.5
 41
0.0
 71
     4
 72
     1
  1
FULL HEIGHT \PSTUD & TRACK
  7
ARCH
  0
INSERT
  5
4B4F
100
AcDbEntity
  8
D-TEXT
100
AcDbBlockReference
 66
     1
  2
DETAIL_TITLE
 10
0.0
 20
0.0
 30
0.0
 41
12.0
 42
12.0
 43
12.0
1001
PE_URL
1000
6020-010.dwf
  0
ATTRIB
  5
4B50
100
AcDbEntity
  8
D-TEXT
100
AcDbText
 10
13.962231
 20
7.801712
 30
0.0
 40
3.0
  1
HEADER TO JAMB STUD DETAIL
  7
BLOCK
100
AcDbAttribute
  2
DETAIL_DISCRIPTION
 70
     0
  0
ATTRIB
  5
4B51
100
AcDbEntity
  8
D-TEXT
100
AcDbText
 10
1.002709
 20
4.731115
 30
0.0
 40
3.0
  1
D-18
  7
BLD
 72
     1
 11
6.231115
 21
6.231115
 31
0.0
100
AcDbAttribute
  2
DETAIL_NO
 70
     0
 74
     2
  0
ATTRIB
  5
4B52
100
AcDbEntity
  8
D-TEXT
100
AcDbText
 10
13.962231
 20
2.064588
 30
0.0
 40
2.25
  1
N. T. Scale 1" = 1'0"
  7
BLOCK
100
AcDbAttribute
  2
SCALE
 70
     0
  0
SEQEND
  5
4B53
100
AcDbEntity
  8
D-TEXT
  0
TEXT
  5
4BC2
100
AcDbEntity
  8
LINK
 62
     1
100
AcDbText
 10
-21.82204
 20
23.008004
 30
0.0
 40
1.5
  1
drawing list
  7
BLOCK
 72
     1
 11
-14.04
 21
23.008004
 31
0.0
100
AcDbText
1001
PE_URL
1000
Cemco_drawings.htm
  0
TEXT
  5
4BC3
100
AcDbEntity
  8
LINK
 62
     1
100
AcDbText
 10
-16.66263
 20
11.008004
 30
0.0
 40
1.5
  1
home
  7
BLOCK
 72
     1
 11
-14.04
 21
11.008004
 31
0.0
100
AcDbText
1001
PE_URL
1000
Cemco_drawings.htm
  0
TEXT
  5
4BC4
100
AcDbEntity
  8
LINK
 62
     1
100
AcDbText
 10
-26.371285
 20
17.008004
 30
0.0
 40
1.5
  1
Assembly drawing 10
  7
BLOCK
 72
     1
 11
-14.04
 21
17.008004
 31
0.0
100
AcDbText
1001
PE_URL
1000
6020-010.dwf
  0
TEXT
  5
4BC5
100
AcDbEntity
  8
LINK
 62
     1
100
AcDbText
 10
-25.718985
 20
14.008004
 30
0.0
 40
1.5
  1
Cemco drawing list
  7
BLOCK
 72
     1
 11
-14.04
 21
14.008004
 31
0.0
100
AcDbText
1001
PE_URL
1000
Cemco_drawings.htm
  0
TEXT
  5
4BC6
100
AcDbEntity
  8
LINK
 62
     1
100
AcDbText
 10
-25.727412
 20
20.008004
 30
0.0
 40
1.5
  1
Assembly drawing 9
  7
BLOCK
 72
     1
 11
-14.04
 21
20.008004
 31
0.0
100
AcDbText
1001
PE_URL
1000
Cemco_drawings.htm
  0
INSERT
  5
4BC7
100
AcDbEntity
  8
LAYOUT
100
AcDbBlockReference
 66
     1
  2
01PARE02
 10
111.844506
 20
100.467948
 30
0.0
 41
0.104159
 42
0.104159
 43
0.104159
1001
_KTI_ARCHT
1070
 12000
1000
TAG
1070
 10025
1005
0
  0
ATTRIB
  5
4BC8
100
AcDbEntity
  8
0
  6
BYBLOCK
 62
     0
100
AcDbText
 10
96.644497
 20
99.922012
 30
0.0
 40
1.666542
  1
10.27_7.93 (x,y) or (y,x)
  7
ARCH
 72
     4
 11
111.844506
 21
100.467948
 31
0.0
100
AcDbAttribute
  2
AREA_NAME
 70
     0
  0
ATTRIB
  5
4BC9
100
AcDbEntity
  8
0
  6
BYBLOCK
 62
     0
100
AcDbText
 10
103.799133
 20
96.777749
 30
0.0
 40
1.666542
  1
0.57 SQ. FT.
  7
ARCH
 72
     4
 11
111.844506
 21
97.61102
 31
0.0
100
AcDbAttribute
  2
_AREA
 70
     0
  0
SEQEND
  5
4BCA
100
AcDbEntity
  8
LAYOUT
  0
MTEXT
  5
4BCB
100
AcDbEntity
  8
LINK
100
AcDbMText
 10
-8.502297
 20
2.198246
 30
0.0
 40
1.5
 41
0.0
 71
     7
 72
     1
  1
{Back}\P{Button}
  7
ARCH
1001
PE_URL
1000
6020-010.dwf
  0
LEADER
  5
4BCC
100
AcDbEntity
  8
LINK
100
AcDbLeader
  3
LEADER
 72
     1
 73
     0
 74
     0
 40
0.125
 41
0.556034
 76
     7
 10
-0.333038
 20
6.676278
 30
0.0
 10
-7.608734
 20
9.43932
 30
0.0
 10
-9.996674
 20
9.820429
 30
0.0
 10
-14.131116
 20
8.438908
 30
0.0
 10
-13.284303
 20
3.389212
 30
0.0
 10
-11.341613
 20
2.906332
 30
0.0
 10
-8.900798
 20
3.001431
 30
0.0
 77
   256
1001
PE_URL
1000
6020-010.dwf
  0
POLYLINE
  5
4BD2
100
AcDbEntity
  8
LAYOUT
100
AcDb2dPolyline
 66
     1
 10
0.0
 20
0.0
 30
0.0
 70
     1
  0
VERTEX
  5
4BD3
100
AcDbEntity
  8
LAYOUT
100
AcDbVertex
100
AcDb2dVertex
 10
0.071087
 20
0.092891
 30
0.0
  0
VERTEX
  5
4BD4
100
AcDbEntity
  8
LAYOUT
100
AcDbVertex
100
AcDb2dVertex
 10
123.24
 20
0.0
 30
0.0
  0
VERTEX
  5
4BD5
100
AcDbEntity
  8
LAYOUT
100
AcDbVertex
100
AcDb2dVertex
 10
123.24
 20
95.16
 30
0.0
  0
VERTEX
  5
4BD6
100
AcDbEntity
  8
LAYOUT
100
AcDbVertex
100
AcDb2dVertex
 10
95.16
 20
95.16
 30
0.0
  0
VERTEX
  5
4BD7
100
AcDbEntity
  8
LAYOUT
100
AcDbVertex
100
AcDb2dVertex
 10
95.16
 20
123.24
 30
0.0
  0
VERTEX
  5
4BD8
100
AcDbEntity
  8
LAYOUT
100
AcDbVertex
100
AcDb2dVertex
 10
0.0
 20
123.24
 30
0.0
  0
SEQEND
  5
4BD9
100
AcDbEntity
  8
LAYOUT
  0
LINE
  5
4BDA
100
AcDbEntity
  8
LAYOUT
100
AcDbLine
 10
95.16
 20
95.16
 30
0.0
 11
0.016241
 21
95.105078
 31
0.0
  0
LINE
  5
4BDB
100
AcDbEntity
  8
LAYOUT
100
AcDbLine
 10
95.16
 20
95.16
 30
0.0
 11
95.088249
 21
0.021231
 31
0.0
  0
POLYLINE
  5
4BDC
100
AcDbEntity
  8
LAYOUT
 62
   210
100
AcDb2dPolyline
 66
     1
 10
0.0
 20
0.0
 30
0.0
  0
VERTEX
  5
4BDD
100
AcDbEntity
  8
LAYOUT
 62
   210
100
AcDbVertex
100
AcDb2dVertex
 10
0.071087
 20
0.092891
 30
0.0
  0
VERTEX
  5
4BDE
100
AcDbEntity
  8
LAYOUT
 62
   210
100
AcDbVertex
100
AcDb2dVertex
 10
94.513867
 20
0.292626
 30
0.0
  0
VERTEX
  5
4BDF
100
AcDbEntity
  8
LAYOUT
 62
   210
100
AcDbVertex
100
AcDb2dVertex
 10
94.44125
 20
84.092891
 30
0.0
  0
VERTEX
  5
4BE0
100
AcDbEntity
  8
LAYOUT
 62
   210
100
AcDbVertex
100
AcDb2dVertex
 10
0.046668
 20
84.092891
 30
0.0
  0
VERTEX
  5
4BE1
100
AcDbEntity
  8
LAYOUT
 62
   210
100
AcDbVertex
100
AcDb2dVertex
 10
0.071087
 20
0.092891
 30
0.0
  0
VERTEX
  5
4BE2
100
AcDbEntity
  8
LAYOUT
 62
   210
100
AcDbVertex
100
AcDb2dVertex
 10
94.44125
 20
84.092891
 30
0.0
  0
SEQEND
  5
4BE3
100
AcDbEntity
  8
LAYOUT
  0
TEXT
  5
4BE4
100
AcDbEntity
  8
LINK
100
AcDbText
 10
-24.225973
 20
0.092891
 30
0.0
 40
3.0
  1
12
  7
BLD
 11
-24.225973
 21
0.092891
 31
0.0
100
AcDbText
 73
     1
  0
POLYLINE
  5
4C06
100
AcDbEntity
  8
TRACK
100
AcDb2dPolyline
 66
     1
 10
0.0
 20
0.0
 30
0.0
  0
VERTEX
  5
4C0A
100
AcDbEntity
  8
TRACK
100
AcDbVertex
100
AcDb2dVertex
 10
28.563002
 20
49.629147
 30
0.0
  0
VERTEX
  5
4C07
100
AcDbEntity
  8
TRACK
100
AcDbVertex
100
AcDb2dVertex
 10
28.528402
 20
49.60917
 30
0.0
  0
VERTEX
  5
4C08
100
AcDbEntity
  8
TRACK
100
AcDbVertex
100
AcDb2dVertex
 10
27.295974
 20
50.276039
 30
0.0
  0
SEQEND
  5
4C09
100
AcDbEntity
  8
TRACK
  0
LINE
  5
4C0B
100
AcDbEntity
  8
TRACK
100
AcDbLine
 10
28.563002
 20
49.629147
 30
0.0
 11
28.563002
 21
53.628196
 31
0.0
  0
LINE
  5
4C0C
100
AcDbEntity
  8
TRACK
100
AcDbLine
 10
28.528402
 20
49.60917
 30
0.0
 11
28.528402
 21
53.608219
 31
0.0
  0
LINE
  5
4C0D
100
AcDbEntity
  8
TRACK
100
AcDbLine
 10
27.328139
 20
50.258634
 30
0.0
 11
27.328139
 21
54.301191
 31
0.0
  0
LINE
  5
4C0E
100
AcDbEntity
  8
TRACK
100
AcDbLine
 10
27.295974
 20
50.276039
 30
0.0
 11
27.295805
 21
54.349415
 31
0.0
  0
ELLIPSE
  5
4C1C
100
AcDbEntity
  8
FASTENER
100
AcDbEllipse
 10
33.015995
 20
53.801145
 30
0.0
 11
0.1530931089239643
 21
-0.0000000000000023
 31
0.0
210
0.0
220
0.0
230
-1.0
 40
0.57735
 41
-0.0000000000000256
 42
6.283185307179574
  0
LINE
  5
4C1D
100
AcDbEntity
  8
FASTENER
100
AcDbLine
 10
33.123628
 20
53.864707
 30
0.0
 11
32.908362
 21
53.737583
 31
0.0
  0
LINE
  5
4C1E
100
AcDbEntity
  8
FASTENER
100
AcDbLine
 10
32.907742
 20
53.863645
 30
0.0
 11
33.124248
 21
53.738645
 31
0.0
  0
LINE
  5
4C1F
100
AcDbEntity
  8
FASTENER
100
AcDbLine
 10
34.515199
 20
54.79171
 30
0.0
 11
34.731705
 21
54.66671
 31
0.0
  0
LINE
  5
4C20
100
AcDbEntity
  8
FASTENER
100
AcDbLine
 10
34.731085
 20
54.792772
 30
0.0
 11
34.515819
 21
54.665648
 31
0.0
  0
ELLIPSE
  5
4C21
100
AcDbEntity
  8
FASTENER
100
AcDbEllipse
 10
34.623452
 20
54.72921
 30
0.0
 11
0.1530931089239643
 21
-0.0000000000000023
 31
0.0
210
0.0
220
0.0
230
-1.0
 40
0.57735
 41
-0.0000000000000256
 42
6.283185307179574
  0
LINE
  5
4C2E
100
AcDbEntity
  8
STUD
100
AcDbLine
 10
37.978801
 20
41.937735
 30
0.0
 11
38.456313
 21
42.213426
 31
0.0
  0
LINE
  5
4C2F
100
AcDbEntity
  8
STUD
100
AcDbLine
 10
38.103801
 20
38.759904
 30
0.0
 11
39.152839
 21
39.365566
 31
0.0
  0
LINE
  5
4C30
100
AcDbEntity
  8
STUD
100
AcDbLine
 10
39.215339
 20
42.435144
 30
0.0
 11
39.215339
 21
39.473819
 31
0.0
  0
LINE
  5
4C31
100
AcDbEntity
  8
STUD
100
AcDbLine
 10
37.916301
 20
41.829482
 30
0.0
 11
37.916301
 21
38.868157
 31
0.0
  0
ARC
  5
4C32
100
AcDbEntity
  8
STUD
100
AcDbCircle
 10
39.090339
 20
39.473819
 30
0.0
 40
0.125
100
AcDbArc
 50
300.0
 51
0.0
  0
ARC
  5
4C33
100
AcDbEntity
  8
STUD
100
AcDbCircle
 10
38.041301
 20
41.829482
 30
0.0
 40
0.125
100
AcDbArc
 50
120.0
 51
180.0
  0
ARC
  5
4C34
100
AcDbEntity
  8
STUD
100
AcDbCircle
 10
39.090339
 20
42.435144
 30
0.0
 40
0.125
100
AcDbArc
 50
0.0
 51
100.022688
  0
ARC
  5
4C35
100
AcDbEntity
  8
STUD
100
AcDbCircle
 10
38.041301
 20
38.868157
 30
0.0
 40
0.125
100
AcDbArc
 50
180.0
 51
300.0
  0
LINE
  5
4C36
100
AcDbEntity
  8
STUD
100
AcDbLine
 10
39.166556
 20
42.463309
 30
0.0
 11
39.166556
 21
39.501984
 31
0.0
  0
LINE
  5
4C37
100
AcDbEntity
  8
STUD
100
AcDbLine
 10
37.993608
 20
38.752613
 30
0.0
 11
39.104056
 21
39.393731
 31
0.0
  0
ARC
  5
4C38
100
AcDbEntity
  8
STUD
100
AcDbCircle
 10
39.041556
 20
42.463309
 30
0.0
 40
0.125
100
AcDbArc
 50
0.0
 51
46.978304
  0
ARC
  5
4C39
100
AcDbEntity
  8
STUD
100
AcDbCircle
 10
39.041556
 20
39.501984
 30
0.0
 40
0.125
100
AcDbArc
 50
300.0
 51
0.0
  0
ARC
  5
4C3B
100
AcDbEntity
  8
STUD
100
AcDbCircle
 10
30.602252
 20
44.374658
 30
0.0
 40
0.125
100
AcDbArc
 50
300.0
 51
0.0
  0
LINE
  5
4C3D
100
AcDbEntity
  8
STUD
100
AcDbLine
 10
30.495934
 20
44.168937
 30
0.0
 11
30.664752
 21
44.266404
 31
0.0
  0
LINE
  5
4C3E
100
AcDbEntity
  8
STUD
100
AcDbLine
 10
30.727252
 20
46.67724
 30
0.0
 11
30.727252
 21
44.374658
 31
0.0
  0
ARC
  5
4C42
100
AcDbEntity
  8
STUD
100
AcDbCircle
 10
30.651035
 20
44.346493
 30
0.0
 40
0.125
100
AcDbArc
 50
300.0
 51
0.0
  0
LINE
  5
4C44
100
AcDbEntity
  8
STUD
100
AcDbLine
 10
30.776035
 20
46.649066
 30
0.0
 11
30.776035
 21
44.346493
 31
0.0
  0
LINE
  5
4C45
100
AcDbEntity
  8
STUD
100
AcDbLine
 10
30.495934
 20
44.112607
 30
0.0
 11
30.713535
 21
44.238239
 31
0.0
  0
ELLIPSE
  5
4C53
100
AcDbEntity
  8
FASTENER
100
AcDbEllipse
 10
26.593629
 20
31.72446
 30
0.0
 11
0.0765465544619843
 21
-0.13258252147249
 31
0.0
210
0.0
220
0.0
230
1.0
 40
0.57735
 41
0.0000000000000031
 42
6.283185307179603
  0
LINE
  5
4C54
100
AcDbEntity
  8
FASTENER
100
AcDbLine
 10
26.592399
 20
31.599466
 30
0.0
 11
26.594859
 21
31.849454
 31
0.0
  0
LINE
  5
4C55
100
AcDbEntity
  8
FASTENER
100
AcDbLine
 10
26.485376
 20
31.78696
 30
0.0
 11
26.701882
 21
31.66196
 31
0.0
  0
POLYLINE
  5
4C5B
100
AcDbEntity
  8
STEEL
100
AcDb2dPolyline
 66
     1
 10
0.0
 20
0.0
 30
0.0
  0
VERTEX
  5
4C64
100
AcDbEntity
  8
STEEL
100
AcDbVertex
100
AcDb2dVertex
 10
26.160616
 20
32.257952
 30
0.0
  0
VERTEX
  5
4C63
100
AcDbEntity
  8
STEEL
100
AcDbVertex
100
AcDb2dVertex
 10
26.160616
 20
31.546631
 30
0.0
 42
0.267949
  0
VERTEX
  5
4C5C
100
AcDbEntity
  8
STEEL
100
AcDbVertex
100
AcDb2dVertex
 10
26.223116
 20
31.438378
 30
0.0
  0
VERTEX
  5
4C5D
100
AcDbEntity
  8
STEEL
100
AcDbVertex
100
AcDb2dVertex
 10
28.18026
 20
30.30842
 30
0.0
 42
0.57735
  0
VERTEX
  5
4C65
100
AcDbEntity
  8
STEEL
100
AcDbVertex
100
AcDb2dVertex
 10
28.36776
 20
30.416673
 30
0.0
  0
VERTEX
  5
4C66
100
AcDbEntity
  8
STEEL
100
AcDbVertex
100
AcDb2dVertex
 10
28.36776
 20
31.127994
 30
0.0
 42
0.267949
  0
VERTEX
  5
4C67
100
AcDbEntity
  8
STEEL
100
AcDbVertex
100
AcDb2dVertex
 10
28.30526
 20
31.236247
 30
0.0
  0
VERTEX
  5
4C68
100
AcDbEntity
  8
STEEL
100
AcDbVertex
100
AcDb2dVertex
 10
26.348116
 20
32.366205
 30
0.0
  0
SEQEND
  5
4C5E
100
AcDbEntity
  8
STEEL
  0
ARC
  5
4C62
100
AcDbEntity
  8
STUD
100
AcDbCircle
 10
26.285616
 20
32.257952
 30
0.0
 40
0.125
100
AcDbArc
 50
60.0
 51
180.0
  0
ARC
  5
4C72
100
AcDbEntity
  8
STUD
100
AcDbCircle
 10
26.285616
 20
42.149436
 30
0.0
 40
0.125
100
AcDbArc
 50
60.0
 51
180.0
  0
POLYLINE
  5
4C73
100
AcDbEntity
  8
STEEL
100
AcDb2dPolyline
 66
     1
 10
0.0
 20
0.0
 30
0.0
  0
VERTEX
  5
4C74
100
AcDbEntity
  8
STEEL
100
AcDbVertex
100
AcDb2dVertex
 10
26.160616
 20
42.149436
 30
0.0
  0
VERTEX
  5
4C75
100
AcDbEntity
  8
STEEL
100
AcDbVertex
100
AcDb2dVertex
 10
26.160616
 20
41.438115
 30
0.0
 42
0.267949
  0
VERTEX
  5
4C76
100
AcDbEntity
  8
STEEL
100
AcDbVertex
100
AcDb2dVertex
 10
26.223116
 20
41.329862
 30
0.0
  0
VERTEX
  5
4C77
100
AcDbEntity
  8
STEEL
100
AcDbVertex
100
AcDb2dVertex
 10
28.18026
 20
40.199905
 30
0.0
 42
0.57735
  0
VERTEX
  5
4C78
100
AcDbEntity
  8
STEEL
100
AcDbVertex
100
AcDb2dVertex
 10
28.36776
 20
40.308158
 30
0.0
  0
VERTEX
  5
4C79
100
AcDbEntity
  8
STEEL
100
AcDbVertex
100
AcDb2dVertex
 10
28.36776
 20
41.019479
 30
0.0
 42
0.267949
  0
VERTEX
  5
4C7A
100
AcDbEntity
  8
STEEL
100
AcDbVertex
100
AcDb2dVertex
 10
28.30526
 20
41.127732
 30
0.0
  0
VERTEX
  5
4C7B
100
AcDbEntity
  8
STEEL
100
AcDbVertex
100
AcDb2dVertex
 10
26.348116
 20
42.257689
 30
0.0
  0
SEQEND
  5
4C7C
100
AcDbEntity
  8
STEEL
  0
LINE
  5
4C7D
100
AcDbEntity
  8
FASTENER
100
AcDbLine
 10
26.485376
 20
41.678444
 30
0.0
 11
26.701882
 21
41.553444
 31
0.0
  0
LINE
  5
4C7E
100
AcDbEntity
  8
FASTENER
100
AcDbLine
 10
26.592399
 20
41.49095
 30
0.0
 11
26.594859
 21
41.740938
 31
0.0
  0
ELLIPSE
  5
4C7F
100
AcDbEntity
  8
FASTENER
100
AcDbEllipse
 10
26.593629
 20
41.615944
 30
0.0
 11
0.0765465544619843
 21
-0.13258252147249
 31
0.0
210
0.0
220
0.0
230
1.0
 40
0.57735
 41
-0.0000000000000169
 42
6.283185307179583
  0
ELLIPSE
  5
4C80
100
AcDbEntity
  8
FASTENER
100
AcDbEllipse
 10
27.934747
 20
40.841649
 30
0.0
 11
0.0765465544619843
 21
-0.13258252147249
 31
0.0
210
0.0
220
0.0
230
1.0
 40
0.57735
 41
-0.0000000000000169
 42
6.283185307179583
  0
LINE
  5
4C81
100
AcDbEntity
  8
FASTENER
100
AcDbLine
 10
27.933517
 20
40.716655
 30
0.0
 11
27.935977
 21
40.966643
 31
0.0
  0
LINE
  5
4C82
100
AcDbEntity
  8
FASTENER
100
AcDbLine
 10
27.826494
 20
40.904149
 30
0.0
 11
28.043
 21
40.779149
 31
0.0
  0
LINE
  5
4C83
100
AcDbEntity
  8
FASTENER
100
AcDbLine
 10
27.826494
 20
49.043696
 30
0.0
 11
28.043
 21
48.918696
 31
0.0
  0
LINE
  5
4C84
100
AcDbEntity
  8
FASTENER
100
AcDbLine
 10
27.933517
 20
48.856202
 30
0.0
 11
27.935977
 21
49.10619
 31
0.0
  0
ELLIPSE
  5
4C85
100
AcDbEntity
  8
FASTENER
100
AcDbEllipse
 10
27.934747
 20
48.981196
 30
0.0
 11
0.0765465544619843
 21
-0.13258252147249
 31
0.0
210
0.0
220
0.0
230
1.0
 40
0.57735
 41
-0.0000000000000169
 42
6.283185307179583
  0
ELLIPSE
  5
4C86
100
AcDbEntity
  8
FASTENER
100
AcDbEllipse
 10
26.593629
 20
49.755491
 30
0.0
 11
0.0765465544619843
 21
-0.13258252147249
 31
0.0
210
0.0
220
0.0
230
1.0
 40
0.57735
 41
-0.0000000000000169
 42
6.283185307179583
  0
LINE
  5
4C87
100
AcDbEntity
  8
FASTENER
100
AcDbLine
 10
26.592399
 20
49.630497
 30
0.0
 11
26.594859
 21
49.880485
 31
0.0
  0
LINE
  5
4C88
100
AcDbEntity
  8
FASTENER
100
AcDbLine
 10
26.485376
 20
49.817991
 30
0.0
 11
26.701882
 21
49.692991
 31
0.0
  0
POLYLINE
  5
4C89
100
AcDbEntity
  8
STEEL
100
AcDb2dPolyline
 66
     1
 10
0.0
 20
0.0
 30
0.0
  0
VERTEX
  5
4C8A
100
AcDbEntity
  8
STEEL
100
AcDbVertex
100
AcDb2dVertex
 10
26.160616
 20
50.288982
 30
0.0
  0
VERTEX
  5
4C8B
100
AcDbEntity
  8
STEEL
100
AcDbVertex
100
AcDb2dVertex
 10
26.160616
 20
49.577661
 30
0.0
 42
0.267949
  0
VERTEX
  5
4C8C
100
AcDbEntity
  8
STEEL
100
AcDbVertex
100
AcDb2dVertex
 10
26.223116
 20
49.469408
 30
0.0
  0
VERTEX
  5
4C8D
100
AcDbEntity
  8
STEEL
100
AcDbVertex
100
AcDb2dVertex
 10
28.18026
 20
48.339451
 30
0.0
 42
0.57735
  0
VERTEX
  5
4C8E
100
AcDbEntity
  8
STEEL
100
AcDbVertex
100
AcDb2dVertex
 10
28.36776
 20
48.447704
 30
0.0
  0
VERTEX
  5
4C8F
100
AcDbEntity
  8
STEEL
100
AcDbVertex
100
AcDb2dVertex
 10
28.36776
 20
49.159025
 30
0.0
 42
0.267949
  0
VERTEX
  5
4C90
100
AcDbEntity
  8
STEEL
100
AcDbVertex
100
AcDb2dVertex
 10
28.30526
 20
49.267278
 30
0.0
  0
VERTEX
  5
4C91
100
AcDbEntity
  8
STEEL
100
AcDbVertex
100
AcDb2dVertex
 10
26.348116
 20
50.397235
 30
0.0
  0
SEQEND
  5
4C92
100
AcDbEntity
  8
STEEL
  0
ARC
  5
4C93
100
AcDbEntity
  8
STUD
100
AcDbCircle
 10
26.285616
 20
50.288982
 30
0.0
 40
0.125
100
AcDbArc
 50
60.0
 51
180.0
  0
LINE
  5
4C94
100
AcDbEntity
  8
STUD
100
AcDbLine
 10
27.328139
 20
49.831419
 30
0.0
 11
27.328139
 21
50.258634
 31
0.0
  0
LINE
  5
4C95
100
AcDbEntity
  8
STUD
100
AcDbLine
 10
27.328139
 20
41.691873
 30
0.0
 11
27.328139
 21
48.831423
 31
0.0
  0
LINE
  5
4C96
100
AcDbEntity
  8
STUD
100
AcDbLine
 10
27.328139
 20
31.800389
 30
0.0
 11
27.328139
 21
40.691877
 31
0.0
  0
LEADER
  5
4CAA
100
AcDbEntity
  8
D-TEXT
100
AcDbLeader
  3
LEADER
 73
     0
 40
1.0
 41
11.758621
 76
     2
 10
42.494801
 20
44.665247
 30
0.0
 10
51.68585
 20
44.665247
 30
0.0
 77
   256
  0
LEADER
  5
4CAB
100
AcDbEntity
  8
D-TEXT
100
AcDbLeader
  3
LEADER
 73
     0
 40
1.0
 41
11.758621
 76
     2
 10
41.917913
 20
50.366276
 30
0.0
 10
51.108961
 20
50.366276
 30
0.0
 77
   256
  0
LEADER
  5
4CAC
100
AcDbEntity
  8
D-TEXT
100
AcDbLeader
  3
LEADER
 73
     0
 40
1.5
 41
15.155172
 76
     3
 10
26.160616
 20
41.438115
 30
0.0
 10
22.039318
 20
43.631262
 30
0.0
 10
18.77028
 20
43.815167
 30
0.0
 77
   256
  0
MTEXT
  5
4CAD
100
AcDbEntity
  8
D-TEXT
100
AcDbMText
 10
17.27028
 20
43.815167
 30
0.0
 40
1.5
 41
0.0
 71
     6
 72
     1
  1
FLAT STRAP
  7
ARCH
  0
MTEXT
  5
4CB7
100
AcDbEntity
  8
D-TEXT
100
AcDbMText
 10
17.174132
 20
41.516364
 30
0.0
 40
1.5
 41
0.0
 71
     6
 72
     1
  1
{or WELD}
  7
ARCH
  0
LINE
  5
4CD0
100
AcDbEntity
  8
STEEL
100
AcDbLine
 10
18.985319
 20
37.302876
 30
0.0
 11
18.985319
 21
39.063393
 31
0.0
  0
LINE
  5
4CD1
100
AcDbEntity
  8
STEEL
100
AcDbLine
 10
14.453022
 20
39.076909
 30
0.0
 11
13.328022
 21
37.951909
 31
0.0
  0
LINE
  5
4CD2
100
AcDbEntity
  8
STEEL
100
AcDbLine
 10
13.328022
 20
40.201909
 30
0.0
 11
14.453022
 21
39.076909
 31
0.0
  0
LINE
  5
4CD3
100
AcDbEntity
  8
STEEL
100
AcDbLine
 10
18.985319
 20
37.302876
 30
0.0
 11
20.745835
 21
39.063393
 31
0.0
  0
TEXT
  5
4CD4
100
AcDbEntity
  8
STEEL
100
AcDbText
 10
2.697352
 20
38.17765
 30
0.0
 40
1.5
  1
EA. STUD
  7
ARCH
 72
     2
 11
13.352524
 21
38.17765
 31
0.0
100
AcDbText
  0
TEXT
  5
4CD5
100
AcDbEntity
  8
STEEL
100
AcDbText
 10
14.293425
 20
36.989212
 30
0.0
 40
1.5
  1
1/8"  1"
  7
ARCH
 11
14.293425
 21
36.265074
 31
0.0
100
AcDbText
 73
     1
  0
LEADER
  5
4CD6
100
AcDbEntity
  8
STEEL
100
AcDbLeader
  3
LEADER
 73
     0
 40
1.489655
 41
6.107586
 76
     3
 10
27.133029
 20
36.975471
 30
0.0
 10
22.098667
 20
39.076909
 30
0.0
 10
14.453022
 20
39.076909
 30
0.0
 77
   256
  0
TEXT
  5
4D0C
100
AcDbEntity
  8
LINK
 62
     1
100
AcDbText
 10
-21.872602
 20
29.008004
 30
0.0
 40
1.5
  1
drawing D-17
  7
BLOCK
 72
     1
 11
-14.04
 21
29.008004
 31
0.0
100
AcDbText
1001
PE_URL
1000
6020-017.dwf
  0
POLYLINE
  5
4D16
100
AcDbEntity
  8
_KTI_CONTROL
 60
     1
100
AcDb3dPolyline
 66
     1
 10
0.0
 20
0.0
 30
0.0
 70
     8
1001
_KTI_ARCHT
1070
 12000
1000
ENVIRONMENT
1070
 10003
1000
6020-018
1070
 20000
1000
standard
1070
 20001
1000
f:\archt
1070
 20003
1000
j:\archt
1070
 20002
1000
f:\archt\tmp
1070
 20004
1002
{
1000
f:\archt\blks
1000
f:\archt\blks3d
1000
h:\archt\blks
1000
h:\archt\blks3d
1000
j:\archt\blks
1000
j:\archt\blks3d
1002
}
1070
 20005
1002
{
1000
f:\archt\slds
1002
}
1070
 20006
1002
{
1000
f:\archt\dclswin
1002
}
1070
 20007
1002
{
1000
f:\archt\docs
1002
}
1070
 20008
1002
{
1000
f:\archt\help
1002
}
  0
VERTEX
  5
4D17
100
AcDbEntity
  8
_KTI_CONTROL
100
AcDbVertex
100
AcDb3dPolylineVertex
 10
0.0
 20
0.0
 30
0.0
 70
    32
  0
VERTEX
  5
4D18
100
AcDbEntity
  8
_KTI_CONTROL
100
AcDbVertex
100
AcDb3dPolylineVertex
 10
0.0
 20
0.0
 30
0.0
 70
    32
  0
SEQEND
  5
4D19
100
AcDbEntity
  8
_KTI_CONTROL
  0
POLYLINE
  5
4D1A
100
AcDbEntity
  8
_KTI_CONTROL
 60
     1
100
AcDb3dPolyline
 66
     1
 10
0.0
 20
0.0
 30
0.0
 70
     8
1001
_KTI_ARCHT
1070
 12000
1000
ARCHTVARS
1070
 10003
1000
6020-018
1070
 12030
1000
in
1070
 12020
1070
     1
1070
 12021
1070
     0
1070
 12070
1070
     0
1070
 12071
1070
     1
1070
 12907
1070
     0
1070
 12072
1070
     2
1070
 12073
1070
    48
1070
 12074
1070
     0
1070
 12080
1070
     1
1070
 12092
1070
     1
1070
 12096
1070
     0
1070
 12095
1070
     0
1070
 12081
1070
     1
1070
 12082
1070
     1
1070
 12083
1070
     1
1070
 12084
1070
     1
1070
 12085
1070
     0
1070
 12086
1070
     1
1070
 12087
1070
     0
1070
 12088
1070
     0
1070
 12097
1070
     1
1070
 12089
1070
     4
1070
 12090
1070
     6
1070
 12091
1070
     1
1070
 12045
1000
standard
1070
 12046
1000

1070
 12047
1000
standard
1070
 12048
1000

1070
 12049
1000

1070
 12093
1070
     1
1070
 12094
1070
     1
1070
 12908
1070
     0
1070
 12909
1070
     0
1070
 12911
1070
     0
1070
 12910
1070
     0
1070
 12912
1070
     0
1070
 12098
1070
   640
1070
 12060
1002
{
1000

1000

1000

1000

1002
}
1070
 12904
1002
{
1070
     0
1070
     0
1070
     0
1070
     0
1070
     0
1002
}
1070
 12905
1002
{
1040
0.0
1040
0.0
1040
0.0
1040
0.0
1040
0.0
1002
}
1070
 12906
1002
{
1000

1000

1000

1000

1000

1002
}
1070
 12040
1002
{
1002
}
  0
VERTEX
  5
4D1B
100
AcDbEntity
  8
_KTI_CONTROL
100
AcDbVertex
100
AcDb3dPolylineVertex
 10
0.0
 20
0.0
 30
0.0
 70
    32
  0
VERTEX
  5
4D1C
100
AcDbEntity
  8
_KTI_CONTROL
100
AcDbVertex
100
AcDb3dPolylineVertex
 10
0.0
 20
0.0
 30
0.0
 70
    32
  0
SEQEND
  5
4D1D
100
AcDbEntity
  8
_KTI_CONTROL
  0
VIEWPORT
  5
4564
100
AcDbEntity
 67
     1
  8
0
100
AcDbViewport
 10
73.661279
 20
-33.357458
 30
0.0
 40
263.610909
 41
164.32
 68
    -1
 69
     1
1001
ACAD
1000
MVIEW
1002
{
1070
    16
1010
0.0
1020
0.0
1030
0.0
1010
0.0
1020
0.0
1030
1.0
1040
0.0
1040
164.32
1040
73.661279
1040
-33.357458
1040
50.0
1040
0.0
1040
0.0
1070
     0
1070
   100
1070
     1
1070
     1
1070
     1
1070
     0
1070
     0
1070
     0
1040
0.0
1040
0.0
1040
0.0
1040
0.0625
1040
0.0625
1040
1.0
1040
1.0
1070
     0
1002
{
1002
}
1002
}
  0
MTEXT
  5
4565
100
AcDbEntity
 67
     1
  8
TEXT
100
AcDbMText
 10
2.498122
 20
0.355675
 30
0.0
 40
0.25
 41
3.884674
 71
     1
 72
     1
  1
{Scale: 1-1/2"=1'-0" }
  7
ARCH
  0
VIEWPORT
  5
4567
100
AcDbEntity
 67
     1
  8
VIEW
100
AcDbViewport
 10
5.110521
 20
4.5275
 30
0.0
 40
10.318958
 41
6.805
 68
     1
 69
     2
1001
ACAD
1000
MVIEW
1002
{
1070
    16
1010
0.0
1020
0.0
1030
0.0
1010
0.0
1020
0.0
1030
1.0
1040
0.0
1040
54.44
1040
5.75
1040
92.897304
1040
50.0
1040
0.0
1040
0.0
1070
     0
1070
   100
1070
     1
1070
     1
1070
     1
1070
     0
1070
     0
1070
     0
1040
0.0
1040
0.0
1040
0.0
1040
0.0625
1040
0.0625
1040
1.0
1040
1.0
1070
     0
1002
{
1002
}
1002
}
  0
POLYLINE
  5
4568
100
AcDbEntity
 67
     1
  8
MARBLE_TILE
100
AcDb2dPolyline
 66
     1
 10
0.0
 20
0.0
 30
0.0
 70
     1
  0
VERTEX
  5
4569
100
AcDbEntity
 67
     1
  8
MARBLE_TILE
100
AcDbVertex
100
AcDb2dVertex
 10
-0.048958
 20
0.0
 30
0.0
  0
VERTEX
  5
456A
100
AcDbEntity
 67
     1
  8
MARBLE_TILE
100
AcDbVertex
100
AcDb2dVertex
 10
10.27
 20
0.0
 30
0.0
  0
VERTEX
  5
456B
100
AcDbEntity
 67
     1
  8
MARBLE_TILE
100
AcDbVertex
100
AcDb2dVertex
 10
10.27
 20
7.93
 30
0.0
  0
VERTEX
  5
456C
100
AcDbEntity
 67
     1
  8
MARBLE_TILE
100
AcDbVertex
100
AcDb2dVertex
 10
-0.048958
 20
7.899909
 30
0.0
  0
SEQEND
  5
456D
100
AcDbEntity
 67
     1
  8
MARBLE_TILE
  0
INSERT
  5
461C
100
AcDbEntity
 67
     1
  8
STUD
100
AcDbBlockReference
  2
A$CC250
 10
-0.5625
 20
-0.5625
 30
0.0
  0
ENDSEC
  0
SECTION
  2
OBJECTS
  0
DICTIONARY
  5
C
100
AcDbDictionary
  3
ACAD_GROUP
350
D
  3
ACAD_MLINESTYLE
350
E
  0
DICTIONARY
  5
D
102
{ACAD_REACTORS
330
C
102
}
100
AcDbDictionary
  0
DICTIONARY
  5
E
102
{ACAD_REACTORS
330
C
102
}
100
AcDbDictionary
  3
STANDARD
350
13
  0
MLINESTYLE
  5
13
102
{ACAD_REACTORS
330
E
102
}
100
AcDbMlineStyle
  2
STANDARD
 70
     0
  3

 62
     0
 51
90.0
 52
90.0
 71
     2
 49
0.5
 62
   256
  6
BYLAYER
 49
-0.5
 62
   256
  6
BYLAYER
  0
ENDSEC
  0
EOF
