  0
SECTION
  2
HEADER
  9
$ACADVER
  1
AC1012
  9
$DWGCODEPAGE
  3
ansi_1252
  9
$INSBASE
 10
0.0
 20
0.0
 30
0.0
  9
$EXTMIN
 10
-23.714431
 20
0.0
 30
0.0
  9
$EXTMAX
 10
95.16
 20
69.346064
 30
0.0
  9
$LIMMIN
 10
0.0
 20
0.0
  9
$LIMMAX
 10
94.447174
 20
84.100632
  9
$ORTHOMODE
 70
     0
  9
$REGENMODE
 70
     1
  9
$FILLMODE
 70
     1
  9
$QTEXTMODE
 70
     0
  9
$MIRRTEXT
 70
     1
  9
$DRAGMODE
 70
     2
  9
$LTSCALE
 40
1.0
  9
$OSMODE
 70
    39
  9
$ATTMODE
 70
     1
  9
$TEXTSIZE
 40
1.0
  9
$TRACEWID
 40
3.0
  9
$TEXTSTYLE
  7
ARCH
  9
$CLAYER
  8
TEXT
  9
$CELTYPE
  6
BYLAYER
  9
$CECOLOR
 62
   256
  9
$CELTSCALE
 40
1.0
  9
$DELOBJ
 70
     1
  9
$DISPSILH
 70
     0
  9
$DIMSCALE
 40
8.0
  9
$DIMASZ
 40
0.1875
  9
$DIMEXO
 40
0.0625
  9
$DIMDLI
 40
0.375
  9
$DIMRND
 40
0.0
  9
$DIMDLE
 40
0.0
  9
$DIMEXE
 40
0.1875
  9
$DIMTP
 40
0.0
  9
$DIMTM
 40
0.0
  9
$DIMTXT
 40
0.125
  9
$DIMCEN
 40
0.1875
  9
$DIMTSZ
 40
0.0
  9
$DIMTOL
 70
     0
  9
$DIMLIM
 70
     0
  9
$DIMTIH
 70
     1
  9
$DIMTOH
 70
     1
  9
$DIMSE1
 70
     0
  9
$DIMSE2
 70
     0
  9
$DIMTAD
 70
     0
  9
$DIMZIN
 70
     0
  9
$DIMBLK
  1
OBLIQUE
  9
$DIMASO
 70
     1
  9
$DIMSHO
 70
     1
  9
$DIMPOST
  1

  9
$DIMAPOST
  1

  9
$DIMALT
 70
     0
  9
$DIMALTD
 70
     1
  9
$DIMALTF
 40
25.4
  9
$DIMLFAC
 40
1.0
  9
$DIMTOFL
 70
     0
  9
$DIMTVP
 40
0.0
  9
$DIMTIX
 70
     0
  9
$DIMSOXD
 70
     0
  9
$DIMSAH
 70
     1
  9
$DIMBLK1
  1
_OPEN90
  9
$DIMBLK2
  1
_OPEN90
  9
$DIMSTYLE
  2
LEADER
  9
$DIMCLRD
 70
     0
  9
$DIMCLRE
 70
     0
  9
$DIMCLRT
 70
     0
  9
$DIMTFAC
 40
1.0
  9
$DIMGAP
 40
0.125
  9
$DIMJUST
 70
     0
  9
$DIMSD1
 70
     0
  9
$DIMSD2
 70
     0
  9
$DIMTOLJ
 70
     0
  9
$DIMTZIN
 70
     0
  9
$DIMALTZ
 70
     0
  9
$DIMALTTZ
 70
     0
  9
$DIMFIT
 70
     1
  9
$DIMUPT
 70
     1
  9
$DIMUNIT
 70
     4
  9
$DIMDEC
 70
     4
  9
$DIMTDEC
 70
     2
  9
$DIMALTU
 70
     2
  9
$DIMALTTD
 70
     1
  9
$DIMTXSTY
  7
ARCH
  9
$DIMAUNIT
 70
     0
  9
$LUNITS
 70
     4
  9
$LUPREC
 70
     4
  9
$SKETCHINC
 40
12.0
  9
$FILLETRAD
 40
0.125
  9
$AUNITS
 70
     0
  9
$AUPREC
 70
     0
  9
$MENU
  1
.
  9
$ELEVATION
 40
0.0
  9
$PELEVATION
 40
0.0
  9
$THICKNESS
 40
0.0
  9
$LIMCHECK
 70
     0
  9
$BLIPMODE
 70
     0
  9
$CHAMFERA
 40
24.0
  9
$CHAMFERB
 40
24.0
  9
$CHAMFERC
 40
24.0
  9
$CHAMFERD
 40
0.785398
  9
$SKPOLY
 70
     0
  9
$TDCREATE
 40
2451019.405903819
  9
$TDUPDATE
 40
2451103.338082291
  9
$TDINDWG
 40
0.2614236111
  9
$TDUSRTIMER
 40
0.2614236111
  9
$USRTIMER
 70
     1
  9
$ANGBASE
 50
0.0
  9
$ANGDIR
 70
     0
  9
$PDMODE
 70
     0
  9
$PDSIZE
 40
0.0
  9
$PLINEWID
 40
0.125
  9
$COORDS
 70
     2
  9
$SPLFRAME
 70
     0
  9
$SPLINETYPE
 70
     6
  9
$SPLINESEGS
 70
     8
  9
$ATTDIA
 70
     0
  9
$ATTREQ
 70
     1
  9
$HANDLING
 70
     1
  9
$HANDSEED
  5
1543
  9
$SURFTAB1
 70
     6
  9
$SURFTAB2
 70
     6
  9
$SURFTYPE
 70
     6
  9
$SURFU
 70
     6
  9
$SURFV
 70
     6
  9
$UCSNAME
  2

  9
$UCSORG
 10
0.0
 20
0.0
 30
0.0
  9
$UCSXDIR
 10
1.0
 20
0.0
 30
0.0
  9
$UCSYDIR
 10
0.0
 20
1.0
 30
0.0
  9
$PUCSNAME
  2

  9
$PUCSORG
 10
0.0
 20
0.0
 30
0.0
  9
$PUCSXDIR
 10
1.0
 20
0.0
 30
0.0
  9
$PUCSYDIR
 10
0.0
 20
1.0
 30
0.0
  9
$USERI1
 70
     0
  9
$USERI2
 70
     0
  9
$USERI3
 70
     0
  9
$USERI4
 70
     0
  9
$USERI5
 70
     0
  9
$USERR1
 40
0.0
  9
$USERR2
 40
0.0
  9
$USERR3
 40
0.0
  9
$USERR4
 40
0.0
  9
$USERR5
 40
0.0
  9
$WORLDVIEW
 70
     1
  9
$SHADEDGE
 70
     3
  9
$SHADEDIF
 70
    70
  9
$TILEMODE
 70
     1
  9
$MAXACTVP
 70
    16
  9
$PINSBASE
 10
0.0
 20
0.0
 30
0.0
  9
$PLIMCHECK
 70
     0
  9
$PEXTMIN
 10
1.000000E+20
 20
1.000000E+20
 30
1.000000E+20
  9
$PEXTMAX
 10
-1.000000E+20
 20
-1.000000E+20
 30
-1.000000E+20
  9
$PLIMMIN
 10
0.0
 20
0.0
  9
$PLIMMAX
 10
12.0
 20
9.0
  9
$UNITMODE
 70
     0
  9
$VISRETAIN
 70
     0
  9
$PLINEGEN
 70
     0
  9
$PSLTSCALE
 70
     1
  9
$TREEDEPTH
 70
  3020
  9
$PICKSTYLE
 70
     1
  9
$CMLSTYLE
  2
STANDARD
  9
$CMLJUST
 70
     0
  9
$CMLSCALE
 40
1.0
  9
$SAVEIMAGES
 70
     0
  0
ENDSEC
  0
SECTION
  2
CLASSES
  0
ENDSEC
  0
SECTION
  2
TABLES
  0
TABLE
  2
VPORT
  5
8
100
AcDbSymbolTable
 70
     4
  0
VPORT
  5
1542
100
AcDbSymbolTableRecord
100
AcDbViewportTableRecord
  2
*ACTIVE
 70
     0
 10
0.0
 20
0.0
 11
1.0
 21
1.0
 12
35.722784
 22
40.311111
 13
0.0
 23
0.0
 14
0.108253
 24
0.03125
 15
1.732051
 25
0.5
 16
0.0
 26
0.0
 36
1.0
 17
0.0
 27
0.0
 37
0.0
 40
80.622221
 41
1.474462
 42
50.0
 43
0.0
 44
0.0
 50
0.0
 51
0.0
 71
     0
 72
   100
 73
     1
 74
     1
 75
     0
 76
     1
 77
     1
 78
     0
  0
ENDTAB
  0
TABLE
  2
LTYPE
  5
5
100
AcDbSymbolTable
 70
     3
  0
LTYPE
  5
14
100
AcDbSymbolTableRecord
100
AcDbLinetypeTableRecord
  2
BYBLOCK
 70
     0
  3

 72
    65
 73
     0
 40
0.0
  0
LTYPE
  5
15
100
AcDbSymbolTableRecord
100
AcDbLinetypeTableRecord
  2
BYLAYER
 70
     0
  3

 72
    65
 73
     0
 40
0.0
  0
LTYPE
  5
16
100
AcDbSymbolTableRecord
100
AcDbLinetypeTableRecord
  2
CONTINUOUS
 70
    64
  3
Solid line
 72
    65
 73
     0
 40
0.0
  0
LTYPE
  5
25
100
AcDbSymbolTableRecord
100
AcDbLinetypeTableRecord
  2
HIDDEN
 70
    64
  3
__ __ __ __ __ __ __ __ __ __ __ __ __ __ __ __
 72
    65
 73
     2
 40
0.375
 49
0.25
 74
     0
 49
-0.125
 74
     0
  0
LTYPE
  5
581
100
AcDbSymbolTableRecord
100
AcDbLinetypeTableRecord
  2
HIDDEN2
 70
    64
  3
_ _ _ _ _ _ _ _ _ _ _ _ _ _ _ _ _ _ _ _ _ _ _ _
 72
    65
 73
     2
 40
0.1875
 49
0.125
 74
     0
 49
-0.0625
 74
     0
  0
ENDTAB
  0
TABLE
  2
LAYER
  5
2
100
AcDbSymbolTable
 70
    11
  0
LAYER
  5
F
100
AcDbSymbolTableRecord
100
AcDbLayerTableRecord
  2
0
 70
    64
 62
     7
  6
CONTINUOUS
  0
LAYER
  5
2F
100
AcDbSymbolTableRecord
100
AcDbLayerTableRecord
  2
STUD
 70
    64
 62
     5
  6
CONTINUOUS
  0
LAYER
  5
30
100
AcDbSymbolTableRecord
100
AcDbLayerTableRecord
  2
TRACK
 70
    64
 62
     1
  6
CONTINUOUS
  0
LAYER
  5
34
100
AcDbSymbolTableRecord
100
AcDbLayerTableRecord
  2
STEEL
 70
    64
 62
   142
  6
CONTINUOUS
  0
LAYER
  5
37
100
AcDbSymbolTableRecord
100
AcDbLayerTableRecord
  2
FASTENER
 70
    64
 62
     7
  6
CONTINUOUS
  0
LAYER
  5
39
100
AcDbSymbolTableRecord
100
AcDbLayerTableRecord
  2
CLIP
 70
    64
 62
     6
  6
CONTINUOUS
  0
LAYER
  5
3B
100
AcDbSymbolTableRecord
100
AcDbLayerTableRecord
  2
_KTI_CONTROL
 70
    69
 62
     7
  6
CONTINUOUS
  0
LAYER
  5
668
100
AcDbSymbolTableRecord
100
AcDbLayerTableRecord
  2
TEXT
 70
    64
 62
   211
  6
CONTINUOUS
  0
LAYER
  5
895
100
AcDbSymbolTableRecord
100
AcDbLayerTableRecord
  2
LINK
 70
    64
 62
     7
  6
CONTINUOUS
  0
LAYER
  5
C7A
100
AcDbSymbolTableRecord
100
AcDbLayerTableRecord
  2
D-TEXT
 70
    64
 62
    94
  6
CONTINUOUS
  0
LAYER
  5
C7B
100
AcDbSymbolTableRecord
100
AcDbLayerTableRecord
  2
LAYOUT
 70
    65
 62
    52
  6
CONTINUOUS
  0
ENDTAB
  0
TABLE
  2
STYLE
  5
3
100
AcDbSymbolTable
 70
     4
  0
STYLE
  5
10
100
AcDbSymbolTableRecord
100
AcDbTextStyleTableRecord
  2
STANDARD
 70
     0
 40
0.0
 41
1.0
 50
0.0
 71
     0
 42
12.0
  3
txt
  4

  0
STYLE
  5
4E
100
AcDbSymbolTableRecord
100
AcDbTextStyleTableRecord
  2
ARCH
 70
    64
 40
1.0
 41
1.0
 50
0.0
 71
     0
 42
12.0
  3
F:\r13\com\fonts\Architxt.shx
  4

  0
STYLE
  5
84B
100
AcDbSymbolTableRecord
100
AcDbTextStyleTableRecord
  2
BLOCK
 70
    64
 40
0.0
 41
1.0
 50
0.0
 71
     0
 42
3.0
  3
D:\Customers\Paul Singer\6005\Arialn.ttf
  4

  0
STYLE
  5
C84
100
AcDbSymbolTableRecord
100
AcDbTextStyleTableRecord
  2
BLD
 70
    64
 40
0.0
 41
1.0
 50
0.0
 71
     0
 42
1.5
  3
F:\r13\com\fonts\monos.ttf
  4

  0
ENDTAB
  0
TABLE
  2
VIEW
  5
6
100
AcDbSymbolTable
 70
     1
  0
VIEW
  5
85D
100
AcDbSymbolTableRecord
100
AcDbViewTableRecord
  2
ALL
 70
     0
 40
46.3125
 10
31.1875
 20
22.71875
 41
63.125
 11
0.0
 21
0.0
 31
1.0
 12
0.0
 22
0.0
 32
0.0
 42
50.0
 43
0.0
 44
0.0
 50
0.0
 71
     0
  0
ENDTAB
  0
TABLE
  2
UCS
  5
7
100
AcDbSymbolTable
 70
     0
  0
ENDTAB
  0
TABLE
  2
APPID
  5
9
100
AcDbSymbolTable
 70
     4
  0
APPID
  5
11
100
AcDbSymbolTableRecord
100
AcDbRegAppTableRecord
  2
ACAD
 70
     0
  0
APPID
  5
3A
100
AcDbSymbolTableRecord
100
AcDbRegAppTableRecord
  2
_KTI_ARCHT
 70
     0
  0
APPID
  5
87E
100
AcDbSymbolTableRecord
100
AcDbRegAppTableRecord
  2
PE_URL
 70
     0
  0
APPID
  5
C87
100
AcDbSymbolTableRecord
100
AcDbRegAppTableRecord
  2
ADE
 70
     0
  0
ENDTAB
  0
TABLE
  2
DIMSTYLE
  5
A
100
AcDbSymbolTable
 70
     2
  0
DIMSTYLE
105
1D
100
AcDbSymbolTableRecord
100
AcDbDimStyleTableRecord
  2
STANDARD
 70
     0
  3

  4

  5

  6
_CLOSED
  7
_CLOSED
 40
12.0
 41
0.1875
 42
0.0625
 43
0.375
 44
0.1875
 45
0.0
 46
0.0
 47
0.0
 48
0.0
140
0.18
141
0.0625
142
0.0
143
25.4
144
1.0
145
0.0
146
1.0
147
0.09
 71
     0
 72
     0
 73
     1
 74
     1
 75
     0
 76
     0
 77
     0
 78
     0
170
     0
171
     2
172
     0
173
     1
174
     0
175
     0
176
     0
177
     0
178
     0
270
     2
271
     4
272
     4
273
     2
274
     2
340
10
275
     0
280
     0
281
     0
282
     0
283
     1
284
     0
285
     0
286
     0
287
     3
288
     0
  0
DIMSTYLE
105
7EE
100
AcDbSymbolTableRecord
100
AcDbDimStyleTableRecord
  2
LEADER
 70
     0
  3

  4

  5
OBLIQUE
  6
_OPEN90
  7
_OPEN90
 40
8.0
 41
0.1875
 42
0.0625
 43
0.375
 44
0.1875
 45
0.0
 46
0.0
 47
0.0
 48
0.0
140
0.125
141
0.1875
142
0.0
143
25.4
144
1.0
145
0.0
146
1.0
147
0.125
 71
     0
 72
     0
 73
     1
 74
     1
 75
     0
 76
     0
 77
     0
 78
     0
170
     0
171
     1
172
     0
173
     1
174
     0
175
     0
176
     0
177
     0
178
     0
270
     4
271
     4
272
     2
273
     2
274
     1
340
4E
275
     0
280
     0
281
     0
282
     0
283
     0
284
     0
285
     0
286
     0
287
     1
288
     1
  0
ENDTAB
  0
TABLE
  2
BLOCK_RECORD
  5
1
100
AcDbSymbolTable
 70
     2
  0
BLOCK_RECORD
  5
1A
100
AcDbSymbolTableRecord
100
AcDbBlockTableRecord
  2
*MODEL_SPACE
  0
BLOCK_RECORD
  5
17
100
AcDbSymbolTableRecord
100
AcDbBlockTableRecord
  2
*PAPER_SPACE
  0
BLOCK_RECORD
  5
C65
100
AcDbSymbolTableRecord
100
AcDbBlockTableRecord
  2
DETAIL_TITLE
  0
BLOCK_RECORD
  5
1459
100
AcDbSymbolTableRecord
100
AcDbBlockTableRecord
  2
01PARE02
  0
ENDTAB
  0
ENDSEC
  0
SECTION
  2
BLOCKS
  0
BLOCK
  5
1B
100
AcDbEntity
  8
0
100
AcDbBlockBegin
  2
*MODEL_SPACE
 70
     0
 10
0.0
 20
0.0
 30
0.0
  3
*MODEL_SPACE
  1

  0
ENDBLK
  5
1C
100
AcDbEntity
  8
0
100
AcDbBlockEnd
  0
BLOCK
  5
18
100
AcDbEntity
 67
     1
  8
0
100
AcDbBlockBegin
  2
*PAPER_SPACE
 70
     0
 10
0.0
 20
0.0
 30
0.0
  3
*PAPER_SPACE
  1

  0
ENDBLK
  5
19
100
AcDbEntity
 67
     1
  8
0
100
AcDbBlockEnd
  0
BLOCK
  5
C6E
100
AcDbEntity
  8
0
100
AcDbBlockBegin
  2
DETAIL_TITLE
 70
    66
 10
0.0
 20
0.0
 30
0.0
  3
DETAIL_TITLE
  1

  0
ATTDEF
  5
C66
100
AcDbEntity
  8
D-TEXT
100
AcDbText
 10
1.163519
 20
0.650143
 30
0.0
 40
0.25
  1
TYP. 
  7
BLOCK
100
AcDbAttributeDefinition
  3
Enter the title of the detail
  2
DETAIL_DISCRIPTION
 70
     0
  0
POLYLINE
  5
C67
100
AcDbEntity
  8
D-TEXT
100
AcDb2dPolyline
 66
     1
 10
0.0
 20
0.0
 30
0.0
 40
0.05
 41
0.05
  0
VERTEX
  5
C68
100
AcDbEntity
  8
D-TEXT
100
AcDbVertex
100
AcDb2dVertex
 10
1.038519
 20
0.51926
 30
0.0
  0
VERTEX
  5
C69
100
AcDbEntity
  8
D-TEXT
100
AcDbVertex
100
AcDb2dVertex
 10
7.93
 20
0.51926
 30
0.0
  0
SEQEND
  5
C6A
100
AcDbEntity
  8
D-TEXT
  0
ATTDEF
  5
C6B
100
AcDbEntity
  8
D-TEXT
100
AcDbText
 10
0.189467
 20
0.39426
 30
0.0
 40
0.25
  1
D-#
  7
BLD
 72
     1
 11
0.51926
 21
0.51926
 31
0.0
100
AcDbAttributeDefinition
  3
Enter the Detail number
  2
DETAIL_NO
 70
     0
 74
     2
  0
ATTDEF
  5
C6C
100
AcDbEntity
  8
D-TEXT
100
AcDbText
 10
1.163519
 20
0.172049
 30
0.0
 40
0.1875
  1
N. T. Scale 1-1/2" = 1'0"
  7
BLOCK
100
AcDbAttributeDefinition
  3
Type the defanition of scale
  2
SCALE
 70
     0
  0
CIRCLE
  5
C6D
100
AcDbEntity
  8
D-TEXT
100
AcDbCircle
 10
0.51926
 20
0.51926
 30
0.0
 40
0.51926
  0
ENDBLK
  5
C6F
100
AcDbEntity
  8
0
100
AcDbBlockEnd
  0
BLOCK
  5
145C
100
AcDbEntity
  8
LAYOUT
100
AcDbBlockBegin
  2
01PARE02
 70
     2
 10
0.0
 20
0.0
 30
0.0
  3
01PARE02
  1

  0
ATTDEF
  5
145A
100
AcDbEntity
  8
0
  6
BYBLOCK
 62
     0
100
AcDbText
 10
-4.5
 20
-0.452381
 30
0.0
 40
1.0
  1

 72
     4
 11
0.0
 21
0.0
 31
0.0
100
AcDbAttributeDefinition
  3
Area Name
  2
AREA_NAME
 70
     0
  0
ATTDEF
  5
145B
100
AcDbEntity
  8
0
  6
BYBLOCK
 62
     0
100
AcDbText
 10
-2.428571
 20
-2.166667
 30
0.0
 40
1.0
  1

 72
     4
 11
0.0
 21
-1.714286
 31
0.0
100
AcDbAttributeDefinition
  3
Area
  2
_AREA
 70
     0
  0
ENDBLK
  5
145D
100
AcDbEntity
  8
LAYOUT
100
AcDbBlockEnd
  0
ENDSEC
  0
SECTION
  2
ENTITIES
  0
LEADER
  5
81C
100
AcDbEntity
  8
D-TEXT
100
AcDbLeader
  3
LEADER
 73
     0
 40
2.666667
 41
9.448276
 76
     3
 10
41.790588
 20
20.616392
 30
0.0
 10
47.353038
 20
23.827874
 30
0.0
 10
53.787598
 20
24.038878
 30
0.0
 77
   256
  0
MTEXT
  5
81D
100
AcDbEntity
  8
D-TEXT
100
AcDbMText
 10
52.334591
 20
28.125
 30
0.0
 40
1.5
 41
0.0
 71
     4
 72
     1
  1
CONTINUOUS\PTRACK
  7
ARCH
  0
MTEXT
  5
81F
100
AcDbEntity
  8
D-TEXT
100
AcDbMText
 10
53.654285
 20
22.406827
 30
0.0
 40
1.5
 41
0.0
 71
     4
 72
     1
  1
{JAMB STUD}{ FULL}\P{HEIGHT OF WALL}
  7
ARCH
  0
LEADER
  5
820
100
AcDbEntity
  8
D-TEXT
100
AcDbLeader
  3
LEADER
 73
     0
 40
3.137931
 41
12.896552
 76
     3
 10
34.752326
 20
47.711208
 30
0.0
 10
30.441728
 20
51.033649
 30
0.0
 10
28.875
 20
51.033649
 30
0.0
 77
   256
  0
MTEXT
  5
821
100
AcDbEntity
  8
D-TEXT
100
AcDbMText
 10
28.413323
 20
50.658933
 30
0.0
 40
1.5
 41
0.0
 71
     6
 72
     1
  1
{(2)-#10 SCREWS}\P{@ 16" O.C. (TYP.)}\P{or WELD}
  7
ARCH
  0
LEADER
  5
822
100
AcDbEntity
  8
D-TEXT
100
AcDbLeader
  3
LEADER
 73
     0
 40
3.137931
 41
19.413793
 76
     3
 10
34.780686
 20
31.24338
 30
0.0
 10
30.375
 20
32.734239
 30
0.0
 10
28.9375
 20
32.780585
 30
0.0
 77
   256
  0
MTEXT
  5
823
100
AcDbEntity
  8
D-TEXT
100
AcDbMText
 10
28.405954
 20
32.374618
 30
0.0
 40
1.5
 41
0.0
 71
     6
 72
     1
  1
{(2}{)-#10 SCREW @ 16" O.C.}\P{(EACH SIDE) (TYP.)}\P{or WELD}
  7
ARCH
  0
LEADER
  5
824
100
AcDbEntity
  8
D-TEXT
100
AcDbLeader
  3
LEADER
 73
     0
 40
7.666667
 41
24.344828
 76
     3
 10
40.145152
 20
41.62454
 30
0.0
 10
30.375
 20
44.016598
 30
0.0
 10
28.9375
 20
44.043704
 30
0.0
 77
   256
  0
MTEXT
  5
825
100
AcDbEntity
  8
D-TEXT
100
AcDbMText
 10
28.496919
 20
42.732995
 30
0.0
 40
1.5
 41
0.0
 71
     6
 72
     1
  1
{CLIP ANGLE, 1/4" LESS}\P{THAN STUD WIDTH.}
  7
ARCH
  0
INSERT
  5
CCC
100
AcDbEntity
  8
D-TEXT
100
AcDbBlockReference
 66
     1
  2
DETAIL_TITLE
 10
0.0
 20
0.0
 30
0.0
 41
12.0
 42
12.0
 43
12.0
1001
PE_URL
1000
6020-010.dwf
  0
ATTRIB
  5
CCD
100
AcDbEntity
  8
D-TEXT
100
AcDbText
 10
13.962231
 20
7.801712
 30
0.0
 40
3.0
  1
JAMB STUD DETAIL
  7
BLOCK
100
AcDbAttribute
  2
DETAIL_DISCRIPTION
 70
     0
  0
ATTRIB
  5
CCE
100
AcDbEntity
  8
D-TEXT
100
AcDbText
 10
0.969002
 20
4.731115
 30
0.0
 40
3.0
  1
D-19
  7
BLD
 72
     1
 11
6.231115
 21
6.231115
 31
0.0
100
AcDbAttribute
  2
DETAIL_NO
 70
     0
 74
     2
  0
ATTRIB
  5
CCF
100
AcDbEntity
  8
D-TEXT
100
AcDbText
 10
13.962231
 20
2.064588
 30
0.0
 40
2.25
  1
N. T. Scale 1" = 1'0"
  7
BLOCK
100
AcDbAttribute
  2
SCALE
 70
     0
  0
SEQEND
  5
CD0
100
AcDbEntity
  8
D-TEXT
  0
POLYLINE
  5
F88
100
AcDbEntity
  8
STUD
100
AcDb2dPolyline
 66
     1
 10
0.0
 20
0.0
 30
0.0
  0
VERTEX
  5
F89
100
AcDbEntity
  8
STUD
100
AcDbVertex
100
AcDb2dVertex
 10
37.206562
 20
13.317366
 30
0.0
  0
VERTEX
  5
F8A
100
AcDbEntity
  8
STUD
100
AcDbVertex
100
AcDb2dVertex
 10
37.201997
 20
16.986922
 30
0.0
  0
SEQEND
  5
F8B
100
AcDbEntity
  8
STUD
  0
POLYLINE
  5
F8C
100
AcDbEntity
  8
STUD
100
AcDb2dPolyline
 66
     1
 10
0.0
 20
0.0
 30
0.0
  0
VERTEX
  5
F8D
100
AcDbEntity
  8
STUD
100
AcDbVertex
100
AcDb2dVertex
 10
39.948944
 20
14.879413
 30
0.0
  0
VERTEX
  5
F8E
100
AcDbEntity
  8
STUD
100
AcDbVertex
100
AcDb2dVertex
 10
39.951828
 20
17.457381
 30
0.0
  0
SEQEND
  5
F8F
100
AcDbEntity
  8
STUD
  0
POLYLINE
  5
F90
100
AcDbEntity
  8
STUD
100
AcDb2dPolyline
 66
     1
 10
0.0
 20
0.0
 30
0.0
  0
VERTEX
  5
F91
100
AcDbEntity
  8
STUD
100
AcDbVertex
100
AcDb2dVertex
 10
38.535575
 20
15.750991
 30
0.0
  0
VERTEX
  5
F92
100
AcDbEntity
  8
STUD
100
AcDbVertex
100
AcDb2dVertex
 10
38.534464
 20
16.468054
 30
0.0
  0
SEQEND
  5
F93
100
AcDbEntity
  8
STUD
  0
POLYLINE
  5
F94
100
AcDbEntity
  8
STUD
100
AcDb2dPolyline
 66
     1
 10
0.0
 20
0.0
 30
0.0
  0
VERTEX
  5
F95
100
AcDbEntity
  8
STUD
100
AcDbVertex
100
AcDb2dVertex
 10
38.56528
 20
15.750991
 30
0.0
  0
VERTEX
  5
F96
100
AcDbEntity
  8
STUD
100
AcDbVertex
100
AcDb2dVertex
 10
38.565456
 20
16.485948
 30
0.0
  0
SEQEND
  5
F97
100
AcDbEntity
  8
STUD
  0
LINE
  5
F98
100
AcDbEntity
  8
STUD
100
AcDbLine
 10
39.636559
 20
29.555319
 30
0.0
 11
39.636559
 21
26.837801
 31
0.0
  0
POLYLINE
  5
F99
100
AcDbEntity
  8
STUD
100
AcDb2dPolyline
 66
     1
 10
0.0
 20
0.0
 30
0.0
 70
     1
  0
VERTEX
  5
F9A
100
AcDbEntity
  8
STUD
100
AcDbVertex
100
AcDb2dVertex
 10
39.378995
 20
29.426537
 30
0.0
  0
VERTEX
  5
F9B
100
AcDbEntity
  8
STUD
100
AcDbVertex
100
AcDb2dVertex
 10
40.441807
 20
29.957943
 30
0.0
 42
-0.557537
  0
VERTEX
  5
F9C
100
AcDbEntity
  8
STUD
100
AcDbVertex
100
AcDb2dVertex
 10
40.622708
 20
29.846139
 30
0.0
  0
VERTEX
  5
F9D
100
AcDbEntity
  8
STUD
100
AcDbVertex
100
AcDb2dVertex
 10
40.622708
 20
27.382919
 30
0.0
 42
-0.284079
  0
VERTEX
  5
F9E
100
AcDbEntity
  8
STUD
100
AcDbVertex
100
AcDb2dVertex
 10
40.55361
 20
27.271115
 30
0.0
  0
VERTEX
  5
F9F
100
AcDbEntity
  8
STUD
100
AcDbVertex
100
AcDb2dVertex
 10
39.490798
 20
26.739709
 30
0.0
 42
-0.557537
  0
VERTEX
  5
FA0
100
AcDbEntity
  8
STUD
100
AcDbVertex
100
AcDb2dVertex
 10
39.309896
 20
26.851513
 30
0.0
  0
VERTEX
  5
FA1
100
AcDbEntity
  8
STUD
100
AcDbVertex
100
AcDb2dVertex
 10
39.309896
 20
29.314733
 30
0.0
 42
-0.284079
  0
SEQEND
  5
FA2
100
AcDbEntity
  8
STUD
  0
POLYLINE
  5
FA3
100
AcDbEntity
  8
STUD
100
AcDb2dPolyline
 66
     1
 10
0.0
 20
0.0
 30
0.0
  0
VERTEX
  5
FA4
100
AcDbEntity
  8
STUD
100
AcDbVertex
100
AcDb2dVertex
 10
39.416657
 20
26.72785
 30
0.0
  0
VERTEX
  5
FA5
100
AcDbEntity
  8
STUD
100
AcDbVertex
100
AcDb2dVertex
 10
40.543525
 20
27.291284
 30
0.0
 42
0.284079
  0
VERTEX
  5
FA6
100
AcDbEntity
  8
STUD
100
AcDbVertex
100
AcDb2dVertex
 10
40.600158
 20
27.382919
 30
0.0
  0
VERTEX
  5
FA7
100
AcDbEntity
  8
STUD
100
AcDbVertex
100
AcDb2dVertex
 10
40.600158
 20
29.846139
 30
0.0
 42
0.447316
  0
VERTEX
  5
FA8
100
AcDbEntity
  8
STUD
100
AcDbVertex
100
AcDb2dVertex
 10
40.441807
 20
29.957943
 30
0.0
  0
SEQEND
  5
FA9
100
AcDbEntity
  8
STUD
  0
LINE
  5
FAA
100
AcDbEntity
  8
STUD
100
AcDbLine
 10
40.185104
 20
29.82651
 30
0.0
 11
40.185104
 21
27.112074
 31
0.0
  0
POLYLINE
  5
FAB
100
AcDbEntity
  8
STUD
100
AcDb2dPolyline
 66
     1
 10
0.0
 20
0.0
 30
0.0
  0
VERTEX
  5
FAC
100
AcDbEntity
  8
STUD
100
AcDbVertex
100
AcDb2dVertex
 10
39.671797
 20
17.742339
 30
0.0
  0
VERTEX
  5
FAD
100
AcDbEntity
  8
STUD
100
AcDbVertex
100
AcDb2dVertex
 10
40.311147
 20
16.923459
 30
0.0
  0
VERTEX
  5
FAE
100
AcDbEntity
  8
STUD
100
AcDbVertex
100
AcDb2dVertex
 10
40.415925
 20
16.862965
 30
0.0
  0
SEQEND
  5
FAF
100
AcDbEntity
  8
STUD
  0
POLYLINE
  5
FB0
100
AcDbEntity
  8
STUD
100
AcDb2dPolyline
 66
     1
 10
0.0
 20
0.0
 30
0.0
  0
VERTEX
  5
FB1
100
AcDbEntity
  8
STUD
100
AcDbVertex
100
AcDb2dVertex
 10
36.782888
 20
17.228895
 30
0.0
  0
VERTEX
  5
FB2
100
AcDbEntity
  8
STUD
100
AcDbVertex
100
AcDb2dVertex
 10
38.317583
 20
16.342838
 30
0.0
  0
VERTEX
  5
FB3
100
AcDbEntity
  8
STUD
100
AcDbVertex
100
AcDb2dVertex
 10
39.671797
 20
17.124694
 30
0.0
  0
VERTEX
  5
FB4
100
AcDbEntity
  8
STUD
100
AcDbVertex
100
AcDb2dVertex
 10
39.671797
 20
17.816046
 30
0.0
  0
VERTEX
  5
FB5
100
AcDbEntity
  8
STUD
100
AcDbVertex
100
AcDb2dVertex
 10
40.415925
 20
16.862965
 30
0.0
  0
VERTEX
  5
FB6
100
AcDbEntity
  8
STUD
100
AcDbVertex
100
AcDb2dVertex
 10
40.415925
 20
17.554316
 30
0.0
  0
VERTEX
  5
FB7
100
AcDbEntity
  8
STUD
100
AcDbVertex
100
AcDb2dVertex
 10
41.608858
 20
18.243057
 30
0.0
  0
SEQEND
  5
FB8
100
AcDbEntity
  8
STUD
  0
POLYLINE
  5
FB9
100
AcDbEntity
  8
STUD
100
AcDb2dPolyline
 66
     1
 10
0.0
 20
0.0
 30
0.0
  0
VERTEX
  5
FBA
100
AcDbEntity
  8
STUD
100
AcDbVertex
100
AcDb2dVertex
 10
38.090247
 20
14.802529
 30
0.0
  0
VERTEX
  5
FBB
100
AcDbEntity
  8
STUD
100
AcDbVertex
100
AcDb2dVertex
 10
38.053408
 20
14.823797
 30
0.0
  0
VERTEX
  5
FBC
100
AcDbEntity
  8
STUD
100
AcDbVertex
100
AcDb2dVertex
 10
37.346118
 20
15.729696
 30
0.0
  0
SEQEND
  5
FBD
100
AcDbEntity
  8
STUD
  0
POLYLINE
  5
FBE
100
AcDbEntity
  8
STUD
100
AcDb2dPolyline
 66
     1
 10
0.0
 20
0.0
 30
0.0
  0
VERTEX
  5
FBF
100
AcDbEntity
  8
STUD
100
AcDbVertex
100
AcDb2dVertex
 10
39.492314
 20
15.215768
 30
0.0
  0
VERTEX
  5
FC0
100
AcDbEntity
  8
STUD
100
AcDbVertex
100
AcDb2dVertex
 10
38.56528
 20
15.750991
 30
0.0
 42
0.267949
  0
VERTEX
  5
FC1
100
AcDbEntity
  8
STUD
100
AcDbVertex
100
AcDb2dVertex
 10
38.535575
 20
15.750991
 30
0.0
  0
VERTEX
  5
FC2
100
AcDbEntity
  8
STUD
100
AcDbVertex
100
AcDb2dVertex
 10
38.090247
 20
15.493881
 30
0.0
  0
VERTEX
  5
FC3
100
AcDbEntity
  8
STUD
100
AcDbVertex
100
AcDb2dVertex
 10
38.090247
 20
14.802529
 30
0.0
  0
VERTEX
  5
FC4
100
AcDbEntity
  8
STUD
100
AcDbVertex
100
AcDb2dVertex
 10
37.346118
 20
15.75561
 30
0.0
  0
VERTEX
  5
FC5
100
AcDbEntity
  8
STUD
100
AcDbVertex
100
AcDb2dVertex
 10
37.346118
 20
15.064258
 30
0.0
  0
VERTEX
  5
FC6
100
AcDbEntity
  8
STUD
100
AcDbVertex
100
AcDb2dVertex
 10
37.20449
 20
14.982489
 30
0.0
 42
0.57735
  0
SEQEND
  5
FC7
100
AcDbEntity
  8
STUD
  0
POLYLINE
  5
FC8
100
AcDbEntity
  8
STUD
100
AcDb2dPolyline
 66
     1
 10
0.0
 20
0.0
 30
0.0
  0
VERTEX
  5
FC9
100
AcDbEntity
  8
STUD
100
AcDbVertex
100
AcDb2dVertex
 10
37.224981
 20
13.306732
 30
0.0
  0
VERTEX
  5
FCA
100
AcDbEntity
  8
STUD
100
AcDbVertex
100
AcDb2dVertex
 10
36.739599
 20
13.026497
 30
0.0
 42
-0.267949
  0
VERTEX
  5
FCB
100
AcDbEntity
  8
STUD
100
AcDbVertex
100
AcDb2dVertex
 10
36.673056
 20
13.026497
 30
0.0
  0
VERTEX
  5
FCC
100
AcDbEntity
  8
STUD
100
AcDbVertex
100
AcDb2dVertex
 10
35.307811
 20
13.814722
 30
0.0
 42
-0.57735
  0
VERTEX
  5
FCD
100
AcDbEntity
  8
STUD
100
AcDbVertex
100
AcDb2dVertex
 10
35.307811
 20
13.929978
 30
0.0
  0
SEQEND
  5
FCE
100
AcDbEntity
  8
STUD
  0
LINE
  5
FCF
100
AcDbEntity
  8
STUD
100
AcDbLine
 10
39.489224
 20
17.019285
 30
0.0
 11
39.493268
 21
14.658865
 31
0.0
  0
POLYLINE
  5
FD0
100
AcDbEntity
  8
STUD
100
AcDb2dPolyline
 66
     1
 10
0.0
 20
0.0
 30
0.0
  0
VERTEX
  5
FD1
100
AcDbEntity
  8
STUD
100
AcDbVertex
100
AcDb2dVertex
 10
39.948944
 20
14.99467
 30
0.0
 42
-0.57735
  0
VERTEX
  5
FD2
100
AcDbEntity
  8
STUD
100
AcDbVertex
100
AcDb2dVertex
 10
39.948944
 20
14.879413
 30
0.0
  0
VERTEX
  5
FD3
100
AcDbEntity
  8
STUD
100
AcDbVertex
100
AcDb2dVertex
 10
39.530106
 20
14.637597
 30
0.0
  0
VERTEX
  5
FD4
100
AcDbEntity
  8
STUD
100
AcDbVertex
100
AcDb2dVertex
 10
39.493268
 20
14.658865
 30
0.0
  0
SEQEND
  5
FD5
100
AcDbEntity
  8
STUD
  0
ELLIPSE
  5
FD6
100
AcDbEntity
  8
FASTENER
100
AcDbEllipse
 10
35.864259
 20
31.175212
 30
0.0
 11
0.114819831692953
 21
-0.1988737822087213
 31
0.0
210
0.0
220
0.0
230
1.0
 40
0.57735
 41
0.0000000000000128
 42
6.283185307179612
  0
LINE
  5
FD7
100
AcDbEntity
  8
FASTENER
100
AcDbLine
 10
36.026638
 20
31.081462
 30
0.0
 11
35.701879
 21
31.268962
 31
0.0
  0
LINE
  5
FD8
100
AcDbEntity
  8
FASTENER
100
AcDbLine
 10
35.864259
 20
31.362712
 30
0.0
 11
35.864259
 21
30.987712
 31
0.0
  0
LINE
  5
FD9
100
AcDbEntity
  8
STUD
100
AcDbLine
 10
39.52599
 20
17.040512
 30
0.0
 11
39.530106
 21
14.637597
 31
0.0
  0
LINE
  5
FE2
100
AcDbEntity
  8
STUD
100
AcDbLine
 10
38.317583
 20
16.342838
 30
0.0
 11
38.317583
 21
63.666091
 31
0.0
  0
LINE
  5
FE3
100
AcDbEntity
  8
STUD
100
AcDbLine
 10
41.608858
 20
18.243057
 30
0.0
 11
41.608858
 21
37.00274
 31
0.0
  0
LINE
  5
FE4
100
AcDbEntity
  8
STUD
100
AcDbLine
 10
38.212805
 20
16.403332
 30
0.0
 11
38.212805
 21
63.716838
 31
0.0
  0
LINE
  5
FE5
100
AcDbEntity
  8
STUD
100
AcDbLine
 10
36.782888
 20
17.228895
 30
0.0
 11
36.782888
 21
29.963604
 31
0.0
  0
LINE
  5
FE6
100
AcDbEntity
  8
STUD
100
AcDbLine
 10
35.307811
 20
13.814722
 30
0.0
 11
35.444499
 21
67.368976
 31
0.0
  0
LINE
  5
10F4
100
AcDbEntity
  8
STUD
100
AcDbLine
 10
40.185104
 20
53.82651
 30
0.0
 11
40.185104
 21
51.112074
 31
0.0
  0
POLYLINE
  5
10F5
100
AcDbEntity
  8
STUD
100
AcDb2dPolyline
 66
     1
 10
0.0
 20
0.0
 30
0.0
  0
VERTEX
  5
10F6
100
AcDbEntity
  8
STUD
100
AcDbVertex
100
AcDb2dVertex
 10
39.416657
 20
50.72785
 30
0.0
  0
VERTEX
  5
10F7
100
AcDbEntity
  8
STUD
100
AcDbVertex
100
AcDb2dVertex
 10
40.543525
 20
51.291284
 30
0.0
 42
0.284079
  0
VERTEX
  5
10F8
100
AcDbEntity
  8
STUD
100
AcDbVertex
100
AcDb2dVertex
 10
40.600158
 20
51.382919
 30
0.0
  0
VERTEX
  5
10F9
100
AcDbEntity
  8
STUD
100
AcDbVertex
100
AcDb2dVertex
 10
40.600158
 20
53.846139
 30
0.0
 42
0.447316
  0
VERTEX
  5
10FA
100
AcDbEntity
  8
STUD
100
AcDbVertex
100
AcDb2dVertex
 10
40.441807
 20
53.957943
 30
0.0
  0
SEQEND
  5
10FB
100
AcDbEntity
  8
STUD
  0
POLYLINE
  5
10FC
100
AcDbEntity
  8
STUD
100
AcDb2dPolyline
 66
     1
 10
0.0
 20
0.0
 30
0.0
 70
     1
  0
VERTEX
  5
10FD
100
AcDbEntity
  8
STUD
100
AcDbVertex
100
AcDb2dVertex
 10
39.378995
 20
53.426537
 30
0.0
  0
VERTEX
  5
10FE
100
AcDbEntity
  8
STUD
100
AcDbVertex
100
AcDb2dVertex
 10
40.441807
 20
53.957943
 30
0.0
 42
-0.557537
  0
VERTEX
  5
10FF
100
AcDbEntity
  8
STUD
100
AcDbVertex
100
AcDb2dVertex
 10
40.622708
 20
53.846139
 30
0.0
  0
VERTEX
  5
1100
100
AcDbEntity
  8
STUD
100
AcDbVertex
100
AcDb2dVertex
 10
40.622708
 20
51.382919
 30
0.0
 42
-0.284079
  0
VERTEX
  5
1101
100
AcDbEntity
  8
STUD
100
AcDbVertex
100
AcDb2dVertex
 10
40.55361
 20
51.271115
 30
0.0
  0
VERTEX
  5
1102
100
AcDbEntity
  8
STUD
100
AcDbVertex
100
AcDb2dVertex
 10
39.490798
 20
50.739709
 30
0.0
 42
-0.557537
  0
VERTEX
  5
1103
100
AcDbEntity
  8
STUD
100
AcDbVertex
100
AcDb2dVertex
 10
39.309896
 20
50.851513
 30
0.0
  0
VERTEX
  5
1104
100
AcDbEntity
  8
STUD
100
AcDbVertex
100
AcDb2dVertex
 10
39.309896
 20
53.314733
 30
0.0
 42
-0.284079
  0
SEQEND
  5
1105
100
AcDbEntity
  8
STUD
  0
LINE
  5
1106
100
AcDbEntity
  8
STUD
100
AcDbLine
 10
39.636559
 20
53.555319
 30
0.0
 11
39.636559
 21
50.837801
 31
0.0
  0
LINE
  5
1107
100
AcDbEntity
  8
STUD
100
AcDbLine
 10
37.360433
 20
64.817736
 30
0.0
 11
37.360433
 21
64.252195
 31
0.0
  0
LINE
  5
1108
100
AcDbEntity
  8
STUD
100
AcDbLine
 10
39.629956
 20
68.21312
 30
0.0
 11
39.629956
 21
64.472344
 31
0.0
  0
LINE
  5
1109
100
AcDbEntity
  8
STUD
100
AcDbLine
 10
39.703632
 20
66.170583
 30
0.0
 11
39.703632
 21
64.377978
 31
0.0
  0
LINE
  5
110A
100
AcDbEntity
  8
STUD
100
AcDbLine
 10
40.208503
 20
66.444637
 30
0.0
 11
40.208503
 21
64.789849
 31
0.0
  0
LINE
  5
110B
100
AcDbEntity
  8
STUD
100
AcDbLine
 10
38.701968
 20
69.305246
 30
0.0
 11
38.701968
 21
63.924595
 31
0.0
  0
LINE
  5
110C
100
AcDbEntity
  8
STUD
100
AcDbLine
 10
38.672263
 20
69.305246
 30
0.0
 11
38.672263
 21
63.907078
 31
0.0
  0
LINE
  5
1110
100
AcDbEntity
  8
STUD
100
AcDbLine
 10
40.03418
 20
64.645964
 30
0.0
 11
39.996733
 21
64.667584
 31
0.0
  0
LINE
  5
1111
100
AcDbEntity
  8
STUD
100
AcDbLine
 10
39.290052
 20
64.216341
 30
0.0
 11
39.252605
 21
64.249304
 31
0.0
  0
POLYLINE
  5
1112
100
AcDbEntity
  8
STUD
100
AcDb2dPolyline
 66
     1
 10
0.0
 20
0.0
 30
0.0
  0
VERTEX
  5
1113
100
AcDbEntity
  8
STUD
100
AcDbVertex
100
AcDb2dVertex
 10
39.996733
 20
64.002574
 30
0.0
  0
VERTEX
  5
1114
100
AcDbEntity
  8
STUD
100
AcDbVertex
100
AcDb2dVertex
 10
39.996733
 20
64.667584
 30
0.0
  0
VERTEX
  5
1115
100
AcDbEntity
  8
STUD
100
AcDbVertex
100
AcDb2dVertex
 10
41.596298
 20
65.591093
 30
0.0
 42
0.57735
  0
VERTEX
  5
1116
100
AcDbEntity
  8
STUD
100
AcDbVertex
100
AcDb2dVertex
 10
41.596298
 20
65.643393
 30
0.0
  0
VERTEX
  5
1117
100
AcDbEntity
  8
STUD
100
AcDbVertex
100
AcDb2dVertex
 10
40.208503
 20
66.444637
 30
0.0
 42
0.267949
  0
VERTEX
  5
1118
100
AcDbEntity
  8
STUD
100
AcDbVertex
100
AcDb2dVertex
 10
40.178308
 20
66.444637
 30
0.0
  0
VERTEX
  5
1119
100
AcDbEntity
  8
STUD
100
AcDbVertex
100
AcDb2dVertex
 10
39.703632
 20
66.170583
 30
0.0
  0
VERTEX
  5
111A
100
AcDbEntity
  8
STUD
100
AcDbVertex
100
AcDb2dVertex
 10
39.666186
 20
66.192203
 30
0.0
  0
VERTEX
  5
111B
100
AcDbEntity
  8
STUD
100
AcDbVertex
100
AcDb2dVertex
 10
40.159584
 20
66.477067
 30
0.0
 42
-0.267949
  0
VERTEX
  5
111C
100
AcDbEntity
  8
STUD
100
AcDbVertex
100
AcDb2dVertex
 10
40.227227
 20
66.477067
 30
0.0
  0
VERTEX
  5
111D
100
AcDbEntity
  8
STUD
100
AcDbVertex
100
AcDb2dVertex
 10
41.615022
 20
65.675823
 30
0.0
 42
-0.57735
  0
VERTEX
  5
111E
100
AcDbEntity
  8
STUD
100
AcDbVertex
100
AcDb2dVertex
 10
41.615022
 20
65.558663
 30
0.0
  0
VERTEX
  5
111F
100
AcDbEntity
  8
STUD
100
AcDbVertex
100
AcDb2dVertex
 10
40.03418
 20
64.645964
 30
0.0
  0
VERTEX
  5
1120
100
AcDbEntity
  8
STUD
100
AcDbVertex
100
AcDb2dVertex
 10
40.03418
 20
63.954612
 30
0.0
  0
VERTEX
  5
1121
100
AcDbEntity
  8
STUD
100
AcDbVertex
100
AcDb2dVertex
 10
39.290052
 20
64.907693
 30
0.0
  0
VERTEX
  5
1122
100
AcDbEntity
  8
STUD
100
AcDbVertex
100
AcDb2dVertex
 10
39.290052
 20
64.216341
 30
0.0
  0
VERTEX
  5
1123
100
AcDbEntity
  8
STUD
100
AcDbVertex
100
AcDb2dVertex
 10
38.352667
 20
63.675142
 30
0.0
 42
-0.267949
  0
VERTEX
  5
1124
100
AcDbEntity
  8
STUD
100
AcDbVertex
100
AcDb2dVertex
 10
38.285025
 20
63.675142
 30
0.0
  0
VERTEX
  5
1125
100
AcDbEntity
  8
STUD
100
AcDbVertex
100
AcDb2dVertex
 10
38.145516
 20
63.755687
 30
0.0
  0
VERTEX
  5
1126
100
AcDbEntity
  8
STUD
100
AcDbVertex
100
AcDb2dVertex
 10
36.89723
 20
64.476386
 30
0.0
 42
-0.57735
  0
VERTEX
  5
1127
100
AcDbEntity
  8
STUD
100
AcDbVertex
100
AcDb2dVertex
 10
36.89723
 20
64.593545
 30
0.0
  0
VERTEX
  5
1128
100
AcDbEntity
  8
STUD
100
AcDbVertex
100
AcDb2dVertex
 10
37.322986
 20
64.839356
 30
0.0
  0
VERTEX
  5
1129
100
AcDbEntity
  8
STUD
100
AcDbVertex
100
AcDb2dVertex
 10
37.360433
 20
64.817736
 30
0.0
  0
VERTEX
  5
112A
100
AcDbEntity
  8
STUD
100
AcDbVertex
100
AcDb2dVertex
 10
36.915953
 20
64.561116
 30
0.0
 42
0.57735
  0
VERTEX
  5
112B
100
AcDbEntity
  8
STUD
100
AcDbVertex
100
AcDb2dVertex
 10
36.915953
 20
64.508815
 30
0.0
  0
VERTEX
  5
112C
100
AcDbEntity
  8
STUD
100
AcDbVertex
100
AcDb2dVertex
 10
38.145516
 20
63.798927
 30
0.0
  0
VERTEX
  5
112D
100
AcDbEntity
  8
STUD
100
AcDbVertex
100
AcDb2dVertex
 10
38.303748
 20
63.707572
 30
0.0
 42
0.267949
  0
VERTEX
  5
112E
100
AcDbEntity
  8
STUD
100
AcDbVertex
100
AcDb2dVertex
 10
38.333944
 20
63.707572
 30
0.0
  0
VERTEX
  5
112F
100
AcDbEntity
  8
STUD
100
AcDbVertex
100
AcDb2dVertex
 10
39.252605
 20
64.249304
 30
0.0
  0
VERTEX
  5
1130
100
AcDbEntity
  8
STUD
100
AcDbVertex
100
AcDb2dVertex
 10
39.252605
 20
64.929313
 30
0.0
  0
VERTEX
  5
1131
100
AcDbEntity
  8
STUD
100
AcDbVertex
100
AcDb2dVertex
 10
39.290052
 20
64.907693
 30
0.0
  0
SEQEND
  5
1132
100
AcDbEntity
  8
STUD
  0
LINE
  5
1133
100
AcDbEntity
  8
STUD
100
AcDbLine
 10
36.658688
 20
68.185245
 30
0.0
 11
36.695527
 21
68.163976
 31
0.0
  0
LINE
  5
1134
100
AcDbEntity
  8
STUD
100
AcDbLine
 10
37.402817
 20
68.614868
 30
0.0
 11
37.439655
 21
68.593599
 31
0.0
  0
POLYLINE
  5
1135
100
AcDbEntity
  8
STUD
100
AcDb2dPolyline
 66
     1
 10
0.0
 20
0.0
 30
0.0
  0
VERTEX
  5
1136
100
AcDbEntity
  8
STUD
100
AcDbVertex
100
AcDb2dVertex
 10
37.402817
 20
67.94943
 30
0.0
  0
VERTEX
  5
1137
100
AcDbEntity
  8
STUD
100
AcDbVertex
100
AcDb2dVertex
 10
37.402817
 20
68.614868
 30
0.0
  0
VERTEX
  5
1138
100
AcDbEntity
  8
STUD
100
AcDbVertex
100
AcDb2dVertex
 10
38.653844
 20
69.337149
 30
0.0
 42
-0.267949
  0
VERTEX
  5
1139
100
AcDbEntity
  8
STUD
100
AcDbVertex
100
AcDb2dVertex
 10
38.720387
 20
69.337149
 30
0.0
  0
VERTEX
  5
113A
100
AcDbEntity
  8
STUD
100
AcDbVertex
100
AcDb2dVertex
 10
40.085632
 20
68.548924
 30
0.0
 42
-0.57735
  0
VERTEX
  5
113B
100
AcDbEntity
  8
STUD
100
AcDbVertex
100
AcDb2dVertex
 10
40.085632
 20
68.433668
 30
0.0
  0
VERTEX
  5
113C
100
AcDbEntity
  8
STUD
100
AcDbVertex
100
AcDb2dVertex
 10
39.666794
 20
68.191852
 30
0.0
  0
VERTEX
  5
113D
100
AcDbEntity
  8
STUD
100
AcDbVertex
100
AcDb2dVertex
 10
39.629956
 20
68.21312
 30
0.0
  0
VERTEX
  5
113E
100
AcDbEntity
  8
STUD
100
AcDbVertex
100
AcDb2dVertex
 10
40.067213
 20
68.465571
 30
0.0
 42
0.57735
  0
VERTEX
  5
113F
100
AcDbEntity
  8
STUD
100
AcDbVertex
100
AcDb2dVertex
 10
40.067213
 20
68.517021
 30
0.0
  0
VERTEX
  5
1140
100
AcDbEntity
  8
STUD
100
AcDbVertex
100
AcDb2dVertex
 10
38.701968
 20
69.305246
 30
0.0
 42
0.267949
  0
VERTEX
  5
1141
100
AcDbEntity
  8
STUD
100
AcDbVertex
100
AcDb2dVertex
 10
38.672263
 20
69.305246
 30
0.0
  0
VERTEX
  5
1142
100
AcDbEntity
  8
STUD
100
AcDbVertex
100
AcDb2dVertex
 10
37.439655
 20
68.593599
 30
0.0
  0
VERTEX
  5
1143
100
AcDbEntity
  8
STUD
100
AcDbVertex
100
AcDb2dVertex
 10
37.439655
 20
67.902247
 30
0.0
  0
VERTEX
  5
1144
100
AcDbEntity
  8
STUD
100
AcDbVertex
100
AcDb2dVertex
 10
36.695527
 20
68.855328
 30
0.0
  0
VERTEX
  5
1145
100
AcDbEntity
  8
STUD
100
AcDbVertex
100
AcDb2dVertex
 10
36.695527
 20
68.163976
 30
0.0
  0
VERTEX
  5
1146
100
AcDbEntity
  8
STUD
100
AcDbVertex
100
AcDb2dVertex
 10
35.462918
 20
67.45233
 30
0.0
 42
0.57735
  0
VERTEX
  5
1147
100
AcDbEntity
  8
STUD
100
AcDbVertex
100
AcDb2dVertex
 10
35.462918
 20
67.400879
 30
0.0
  0
VERTEX
  5
1148
100
AcDbEntity
  8
STUD
100
AcDbVertex
100
AcDb2dVertex
 10
36.828163
 20
66.612655
 30
0.0
 42
0.267949
  0
VERTEX
  5
1149
100
AcDbEntity
  8
STUD
100
AcDbVertex
100
AcDb2dVertex
 10
36.857868
 20
66.612655
 30
0.0
  0
VERTEX
  5
114A
100
AcDbEntity
  8
STUD
100
AcDbVertex
100
AcDb2dVertex
 10
37.324831
 20
66.882256
 30
0.0
  0
VERTEX
  5
114B
100
AcDbEntity
  8
STUD
100
AcDbVertex
100
AcDb2dVertex
 10
37.361669
 20
66.860987
 30
0.0
  0
VERTEX
  5
114C
100
AcDbEntity
  8
STUD
100
AcDbVertex
100
AcDb2dVertex
 10
36.876287
 20
66.580752
 30
0.0
 42
-0.267949
  0
VERTEX
  5
114D
100
AcDbEntity
  8
STUD
100
AcDbVertex
100
AcDb2dVertex
 10
36.809744
 20
66.580752
 30
0.0
  0
VERTEX
  5
114E
100
AcDbEntity
  8
STUD
100
AcDbVertex
100
AcDb2dVertex
 10
35.444499
 20
67.368976
 30
0.0
 42
-0.57735
  0
VERTEX
  5
114F
100
AcDbEntity
  8
STUD
100
AcDbVertex
100
AcDb2dVertex
 10
35.444499
 20
67.484233
 30
0.0
  0
VERTEX
  5
1150
100
AcDbEntity
  8
STUD
100
AcDbVertex
100
AcDb2dVertex
 10
36.658688
 20
68.185245
 30
0.0
  0
VERTEX
  5
1151
100
AcDbEntity
  8
STUD
100
AcDbVertex
100
AcDb2dVertex
 10
36.658688
 20
68.876597
 30
0.0
  0
VERTEX
  5
1152
100
AcDbEntity
  8
STUD
100
AcDbVertex
100
AcDb2dVertex
 10
36.695527
 20
68.855328
 30
0.0
  0
SEQEND
  5
1153
100
AcDbEntity
  8
STUD
  0
LINE
  5
1154
100
AcDbEntity
  8
STUD
100
AcDbLine
 10
39.666794
 20
68.191852
 30
0.0
 11
39.662116
 21
64.431152
 31
0.0
  0
LINE
  5
1155
100
AcDbEntity
  8
STUD
100
AcDbLine
 10
40.085632
 20
68.433668
 30
0.0
 11
40.085632
 21
66.434371
 31
0.0
  0
LINE
  5
1156
100
AcDbEntity
  8
STUD
100
AcDbLine
 10
37.361669
 20
66.860987
 30
0.0
 11
37.361669
 21
64.841103
 31
0.0
  0
LINE
  5
1157
100
AcDbEntity
  8
FASTENER
100
AcDbLine
 10
37.43393
 20
30.456462
 30
0.0
 11
37.43393
 21
30.081462
 31
0.0
  0
LINE
  5
1158
100
AcDbEntity
  8
FASTENER
100
AcDbLine
 10
37.596309
 20
30.175212
 30
0.0
 11
37.27155
 21
30.362712
 31
0.0
  0
ELLIPSE
  5
1159
100
AcDbEntity
  8
FASTENER
100
AcDbEllipse
 10
37.43393
 20
30.268962
 30
0.0
 11
0.114819831692953
 21
-0.1988737822087213
 31
0.0
210
0.0
220
0.0
230
1.0
 40
0.57735
 41
0.0000000000000128
 42
6.283185307179612
  0
ELLIPSE
  5
1160
100
AcDbEntity
  8
FASTENER
100
AcDbEllipse
 10
37.43393
 20
62.214383
 30
0.0
 11
0.114819831692953
 21
-0.1988737822087213
 31
0.0
210
0.0
220
0.0
230
1.0
 40
0.57735
 41
0.0000000000000128
 42
6.283185307179612
  0
LINE
  5
1161
100
AcDbEntity
  8
FASTENER
100
AcDbLine
 10
37.596309
 20
62.120633
 30
0.0
 11
37.27155
 21
62.308133
 31
0.0
  0
LINE
  5
1162
100
AcDbEntity
  8
FASTENER
100
AcDbLine
 10
37.43393
 20
62.401883
 30
0.0
 11
37.43393
 21
62.026883
 31
0.0
  0
LINE
  5
1163
100
AcDbEntity
  8
FASTENER
100
AcDbLine
 10
35.864259
 20
63.308133
 30
0.0
 11
35.864259
 21
62.933133
 31
0.0
  0
LINE
  5
1164
100
AcDbEntity
  8
FASTENER
100
AcDbLine
 10
36.026638
 20
63.026883
 30
0.0
 11
35.701879
 21
63.214383
 31
0.0
  0
ELLIPSE
  5
1165
100
AcDbEntity
  8
FASTENER
100
AcDbEllipse
 10
35.864259
 20
63.120633
 30
0.0
 11
0.114819831692953
 21
-0.1988737822087213
 31
0.0
210
0.0
220
0.0
230
1.0
 40
0.57735
 41
0.0000000000000128
 42
6.283185307179612
  0
ELLIPSE
  5
1178
100
AcDbEntity
  8
FASTENER
100
AcDbEllipse
 10
39.269559
 20
40.502057
 30
0.0
 11
-0.0765465544619683
 21
-0.1325825214724802
 31
0.0
210
0.0
220
0.0
230
1.0
 40
0.57735
 41
-0.0000000000001359
 42
6.283185307179464
  0
ELLIPSE
  5
1179
100
AcDbEntity
  8
FASTENER
100
AcDbEllipse
 10
42.252067
 20
39.408093
 30
0.0
 11
-0.1530931089239478
 21
0.0
 31
0.0
210
0.0
220
0.0
230
1.0
 40
0.57735
 41
0.0
 42
6.2831853071796
  0
ELLIPSE
  5
117B
100
AcDbEntity
  8
FASTENER
100
AcDbEllipse
 10
40.953029
 20
41.474009
 30
0.0
 11
-0.0765465544619879
 21
-0.1325825214724715
 31
0.0
210
0.0
220
0.0
230
1.0
 40
0.57735
 41
-0.0000000000000341
 42
6.283185307179566
  0
LINE
  5
117C
100
AcDbEntity
  8
FASTENER
100
AcDbLine
 10
42.176527
 20
39.36448
 30
0.0
 11
42.327606
 21
39.451706
 31
0.0
  0
LINE
  5
117D
100
AcDbEntity
  8
FASTENER
100
AcDbLine
 10
40.877489
 20
41.430396
 30
0.0
 11
41.028568
 21
41.517622
 31
0.0
  0
LINE
  5
117F
100
AcDbEntity
  8
FASTENER
100
AcDbLine
 10
40.953029
 20
41.386783
 30
0.0
 11
40.953029
 21
41.561235
 31
0.0
  0
LINE
  5
1180
100
AcDbEntity
  8
FASTENER
100
AcDbLine
 10
39.269559
 20
40.414831
 30
0.0
 11
39.269559
 21
40.589283
 31
0.0
  0
LINE
  5
1181
100
AcDbEntity
  8
FASTENER
100
AcDbLine
 10
39.194019
 20
40.458444
 30
0.0
 11
39.345098
 21
40.54567
 31
0.0
  0
LINE
  5
1183
100
AcDbEntity
  8
FASTENER
100
AcDbLine
 10
42.327606
 20
39.36448
 30
0.0
 11
42.176527
 21
39.451706
 31
0.0
  0
LINE
  5
1184
100
AcDbEntity
  8
CLIP
100
AcDbLine
 10
39.99995
 20
39.522646
 30
0.0
 11
41.459815
 21
40.3655
 31
0.0
  0
LINE
  5
118B
100
AcDbEntity
  8
CLIP
100
AcDbLine
 10
43.118092
 20
39.36196
 30
0.0
 11
43.118092
 21
39.408093
 31
0.0
  0
LINE
  5
118C
100
AcDbEntity
  8
CLIP
100
AcDbLine
 10
38.881715
 20
40.895095
 30
0.0
 11
41.408589
 21
42.353986
 31
0.0
  0
LINE
  5
11B2
100
AcDbEntity
  8
TRACK
100
AcDbLine
 10
41.623749
 20
40.603329
 30
0.0
 11
50.392161
 21
35.540068
 31
0.0
  0
LINE
  5
11B3
100
AcDbEntity
  8
TRACK
100
AcDbLine
 10
41.606449
 20
40.575298
 30
0.0
 11
50.392562
 21
35.502634
 31
0.0
  0
LINE
  5
11B4
100
AcDbEntity
  8
TRACK
100
AcDbLine
 10
38.449807
 20
38.826913
 30
0.0
 11
52.30732
 21
30.824984
 31
0.0
  0
LINE
  5
1222
100
AcDbEntity
  8
CLIP
100
AcDbLine
 10
38.921668
 20
40.872028
 30
0.0
 11
41.448541
 21
42.330919
 31
0.0
  0
POLYLINE
  5
1250
100
AcDbEntity
  8
CLIP
100
AcDb2dPolyline
 66
     1
 10
0.0
 20
0.0
 30
0.0
  0
VERTEX
  5
1251
100
AcDbEntity
  8
CLIP
100
AcDbVertex
100
AcDb2dVertex
 10
41.408589
 20
42.353986
 30
0.0
  0
VERTEX
  5
1252
100
AcDbEntity
  8
CLIP
100
AcDbVertex
100
AcDb2dVertex
 10
41.448541
 20
42.330919
 30
0.0
  0
VERTEX
  5
1253
100
AcDbEntity
  8
CLIP
100
AcDbVertex
100
AcDb2dVertex
 10
41.448541
 20
40.444178
 30
0.0
 42
0.267949
  0
VERTEX
  5
1254
100
AcDbEntity
  8
CLIP
100
AcDbVertex
100
AcDb2dVertex
 10
41.459815
 20
40.3655
 30
0.0
  0
VERTEX
  5
1255
100
AcDbEntity
  8
CLIP
100
AcDbVertex
100
AcDb2dVertex
 10
43.118092
 20
39.408093
 30
0.0
  0
VERTEX
  5
1256
100
AcDbEntity
  8
CLIP
100
AcDbVertex
100
AcDb2dVertex
 10
43.078139
 20
39.385026
 30
0.0
  0
SEQEND
  5
1257
100
AcDbEntity
  8
CLIP
  0
LINE
  5
1264
100
AcDbEntity
  8
TRACK
100
AcDbLine
 10
38.449807
 20
40.37781
 30
0.0
 11
52.307218
 21
32.375941
 31
0.0
  0
LINE
  5
1265
100
AcDbEntity
  8
TRACK
100
AcDbLine
 10
38.484407
 20
40.397787
 30
0.0
 11
52.341818
 21
32.395917
 31
0.0
  0
LINE
  5
1266
100
AcDbEntity
  8
TRACK
100
AcDbLine
 10
41.623749
 20
42.210287
 30
0.0
 11
50.374834
 21
37.157031
 31
0.0
  0
LINE
  5
1267
100
AcDbEntity
  8
TRACK
100
AcDbLine
 10
41.658349
 20
42.230263
 30
0.0
 11
50.374403
 21
37.197236
 31
0.0
  0
POLYLINE
  5
1268
100
AcDbEntity
  8
TRACK
100
AcDb2dPolyline
 66
     1
 10
0.0
 20
0.0
 30
0.0
 70
     1
  0
VERTEX
  5
1269
100
AcDbEntity
  8
TRACK
100
AcDbVertex
100
AcDb2dVertex
 10
52.341818
 20
32.399527
 30
0.0
  0
VERTEX
  5
126A
100
AcDbEntity
  8
TRACK
100
AcDbVertex
100
AcDb2dVertex
 10
52.341818
 20
30.828653
 30
0.0
 42
0.57735
  0
VERTEX
  5
126B
100
AcDbEntity
  8
TRACK
100
AcDbVertex
100
AcDb2dVertex
 10
52.388693
 20
30.80159
 30
0.0
  0
VERTEX
  5
126C
100
AcDbEntity
  8
TRACK
100
AcDbVertex
100
AcDb2dVertex
 10
55.465535
 20
32.578006
 30
0.0
 42
0.267949
  0
VERTEX
  5
126D
100
AcDbEntity
  8
TRACK
100
AcDbVertex
100
AcDb2dVertex
 10
55.48116
 20
32.605069
 30
0.0
  0
VERTEX
  5
126E
100
AcDbEntity
  8
TRACK
100
AcDbVertex
100
AcDb2dVertex
 10
55.48116
 20
34.212027
 30
0.0
  0
VERTEX
  5
126F
100
AcDbEntity
  8
TRACK
100
AcDbVertex
100
AcDb2dVertex
 10
55.51576
 20
34.232003
 30
0.0
  0
VERTEX
  5
1270
100
AcDbEntity
  8
TRACK
100
AcDbVertex
100
AcDb2dVertex
 10
55.51576
 20
32.605069
 30
0.0
 42
-0.267949
  0
VERTEX
  5
1271
100
AcDbEntity
  8
TRACK
100
AcDbVertex
100
AcDb2dVertex
 10
55.482835
 20
32.548041
 30
0.0
  0
VERTEX
  5
1272
100
AcDbEntity
  8
TRACK
100
AcDbVertex
100
AcDb2dVertex
 10
52.405993
 20
30.771625
 30
0.0
 42
-0.57735
  0
VERTEX
  5
1273
100
AcDbEntity
  8
TRACK
100
AcDbVertex
100
AcDb2dVertex
 10
52.307218
 20
30.828653
 30
0.0
  0
VERTEX
  5
1274
100
AcDbEntity
  8
TRACK
100
AcDbVertex
100
AcDb2dVertex
 10
52.307218
 20
32.37955
 30
0.0
  0
SEQEND
  5
1275
100
AcDbEntity
  8
TRACK
  0
POLYLINE
  5
12A4
100
AcDbEntity
  8
TRACK
100
AcDb2dPolyline
 66
     1
 10
0.0
 20
0.0
 30
0.0
  0
VERTEX
  5
12A5
100
AcDbEntity
  8
TRACK
100
AcDbVertex
100
AcDb2dVertex
 10
41.448541
 20
40.48413
 30
0.0
  0
VERTEX
  5
12A6
100
AcDbEntity
  8
TRACK
100
AcDbVertex
100
AcDb2dVertex
 10
41.608124
 20
40.576265
 30
0.0
 42
0.267949
  0
VERTEX
  5
12A7
100
AcDbEntity
  8
TRACK
100
AcDbVertex
100
AcDb2dVertex
 10
41.623749
 20
40.603329
 30
0.0
  0
VERTEX
  5
12A8
100
AcDbEntity
  8
TRACK
100
AcDbVertex
100
AcDb2dVertex
 10
41.623749
 20
42.210287
 30
0.0
  0
VERTEX
  5
12A9
100
AcDbEntity
  8
TRACK
100
AcDbVertex
100
AcDb2dVertex
 10
41.658349
 20
42.230263
 30
0.0
  0
VERTEX
  5
12AA
100
AcDbEntity
  8
TRACK
100
AcDbVertex
100
AcDb2dVertex
 10
41.658349
 20
40.603329
 30
0.0
 42
-0.267949
  0
VERTEX
  5
12AB
100
AcDbEntity
  8
TRACK
100
AcDbVertex
100
AcDb2dVertex
 10
41.625424
 20
40.546301
 30
0.0
  0
VERTEX
  5
12AC
100
AcDbEntity
  8
TRACK
100
AcDbVertex
100
AcDb2dVertex
 10
41.448541
 20
40.444178
 30
0.0
 42
-0.57735
  0
SEQEND
  5
12AD
100
AcDbEntity
  8
TRACK
  0
POLYLINE
  5
12B2
100
AcDbEntity
  8
TRACK
100
AcDb2dPolyline
 66
     1
 10
0.0
 20
0.0
 30
0.0
  0
VERTEX
  5
12B3
100
AcDbEntity
  8
TRACK
100
AcDbVertex
100
AcDb2dVertex
 10
38.548582
 20
38.769885
 30
0.0
 42
-0.57735
  0
VERTEX
  5
12B4
100
AcDbEntity
  8
TRACK
100
AcDbVertex
100
AcDb2dVertex
 10
38.449807
 20
38.826913
 30
0.0
  0
VERTEX
  5
12B5
100
AcDbEntity
  8
TRACK
100
AcDbVertex
100
AcDb2dVertex
 10
38.449807
 20
40.37781
 30
0.0
  0
VERTEX
  5
12B6
100
AcDbEntity
  8
TRACK
100
AcDbVertex
100
AcDb2dVertex
 10
38.484407
 20
40.397787
 30
0.0
  0
SEQEND
  5
12B7
100
AcDbEntity
  8
TRACK
  0
POLYLINE
  5
12C7
100
AcDbEntity
  8
CLIP
100
AcDb2dPolyline
 66
     1
 10
0.0
 20
0.0
 30
0.0
  0
VERTEX
  5
12C8
100
AcDbEntity
  8
CLIP
100
AcDbVertex
100
AcDb2dVertex
 10
38.881715
 20
40.168364
 30
0.0
  0
VERTEX
  5
12C9
100
AcDbEntity
  8
CLIP
100
AcDbVertex
100
AcDb2dVertex
 10
38.881715
 20
40.895095
 30
0.0
  0
VERTEX
  5
12CA
100
AcDbEntity
  8
CLIP
100
AcDbVertex
100
AcDb2dVertex
 10
38.921668
 20
40.872028
 30
0.0
  0
VERTEX
  5
12CB
100
AcDbEntity
  8
CLIP
100
AcDbVertex
100
AcDb2dVertex
 10
38.921668
 20
40.145293
 30
0.0
 42
0.267949
  0
SEQEND
  5
12CC
100
AcDbEntity
  8
CLIP
  0
LINE
  5
12D4
100
AcDbEntity
  8
CLIP
100
AcDbLine
 10
41.675592
 20
38.555058
 30
0.0
 11
43.118092
 21
39.36196
 31
0.0
  0
LINE
  5
12D5
100
AcDbEntity
  8
CLIP
100
AcDbLine
 10
41.635011
 20
38.578491
 30
0.0
 11
43.118092
 21
39.408093
 31
0.0
  0
LINE
  5
12D6
100
AcDbEntity
  8
STUD
100
AcDbLine
 10
41.608858
 20
40.603329
 30
0.0
 11
41.608858
 21
65.555105
 31
0.0
  0
LINE
  5
12D7
100
AcDbEntity
  8
FASTENER
100
AcDbLine
 10
51.145527
 20
32.292033
 30
0.0
 11
51.145527
 21
32.117581
 31
0.0
  0
LINE
  5
12D8
100
AcDbEntity
  8
FASTENER
100
AcDbLine
 10
51.221067
 20
32.161194
 30
0.0
 11
51.069987
 21
32.24842
 31
0.0
  0
ELLIPSE
  5
12D9
100
AcDbEntity
  8
FASTENER
100
AcDbEllipse
 10
51.145527
 20
32.204807
 30
0.0
 11
0.0765465544619687
 21
-0.1325825214724809
 31
0.0
210
0.0
220
0.0
230
1.0
 40
0.57735
 41
0.0000000000000262
 42
6.283185307179626
  0
LINE
  5
12DA
100
AcDbEntity
  8
STUD
100
AcDbLine
 10
54.788291
 20
58.597703
 30
0.0
 11
54.788291
 21
33.087641
 31
0.0
  0
POLYLINE
  5
12DE
100
AcDbEntity
  8
STUD
  6
HIDDEN
100
AcDb2dPolyline
 66
     1
 10
0.0
 20
0.0
 30
0.0
  0
VERTEX
  5
12DF
100
AcDbEntity
  8
STUD
  6
HIDDEN
100
AcDbVertex
100
AcDb2dVertex
 10
51.582545
 20
31.421732
 30
0.0
  0
VERTEX
  5
12E0
100
AcDbEntity
  8
STUD
  6
HIDDEN
100
AcDbVertex
100
AcDb2dVertex
 10
50.155212
 20
32.245804
 30
0.0
 42
-0.57735
  0
VERTEX
  5
12E1
100
AcDbEntity
  8
STUD
  6
HIDDEN
100
AcDbVertex
100
AcDb2dVertex
 10
50.155212
 20
32.354057
 30
0.0
  0
SEQEND
  5
12E7
100
AcDbEntity
  8
STUD
  0
LINE
  5
12FE
100
AcDbEntity
  8
STUD
100
AcDbLine
 10
50.156145
 20
57.564874
 30
0.0
 11
50.156145
 21
33.658019
 31
0.0
  0
LINE
  5
12FF
100
AcDbEntity
  8
STUD
100
AcDbLine
 10
51.611582
 20
56.76363
 30
0.0
 11
51.765122
 21
32.728926
 31
0.0
  0
POLYLINE
  5
1302
100
AcDbEntity
  8
STUD
100
AcDb2dPolyline
 66
     1
 10
0.0
 20
0.0
 30
0.0
  0
VERTEX
  5
1303
100
AcDbEntity
  8
STUD
100
AcDbVertex
100
AcDb2dVertex
 10
53.255649
 20
57.091062
 30
0.0
  0
VERTEX
  5
1304
100
AcDbEntity
  8
STUD
100
AcDbVertex
100
AcDb2dVertex
 10
53.255649
 20
57.756072
 30
0.0
  0
VERTEX
  5
1305
100
AcDbEntity
  8
STUD
100
AcDbVertex
100
AcDb2dVertex
 10
54.855214
 20
58.679581
 30
0.0
 42
0.57735
  0
VERTEX
  5
1306
100
AcDbEntity
  8
STUD
100
AcDbVertex
100
AcDb2dVertex
 10
54.855214
 20
58.731881
 30
0.0
  0
VERTEX
  5
1307
100
AcDbEntity
  8
STUD
100
AcDbVertex
100
AcDb2dVertex
 10
53.467419
 20
59.533125
 30
0.0
 42
0.267949
  0
VERTEX
  5
1308
100
AcDbEntity
  8
STUD
100
AcDbVertex
100
AcDb2dVertex
 10
53.437223
 20
59.533125
 30
0.0
  0
VERTEX
  5
1309
100
AcDbEntity
  8
STUD
100
AcDbVertex
100
AcDb2dVertex
 10
52.962548
 20
59.259071
 30
0.0
  0
VERTEX
  5
130A
100
AcDbEntity
  8
STUD
100
AcDbVertex
100
AcDb2dVertex
 10
52.925101
 20
59.280691
 30
0.0
  0
VERTEX
  5
130B
100
AcDbEntity
  8
STUD
100
AcDbVertex
100
AcDb2dVertex
 10
53.4185
 20
59.565555
 30
0.0
 42
-0.267949
  0
VERTEX
  5
130C
100
AcDbEntity
  8
STUD
100
AcDbVertex
100
AcDb2dVertex
 10
53.486142
 20
59.565555
 30
0.0
  0
VERTEX
  5
130D
100
AcDbEntity
  8
STUD
100
AcDbVertex
100
AcDb2dVertex
 10
54.873937
 20
58.764311
 30
0.0
 42
-0.57735
  0
VERTEX
  5
130E
100
AcDbEntity
  8
STUD
100
AcDbVertex
100
AcDb2dVertex
 10
54.873937
 20
58.647151
 30
0.0
  0
VERTEX
  5
130F
100
AcDbEntity
  8
STUD
100
AcDbVertex
100
AcDb2dVertex
 10
53.293096
 20
57.734452
 30
0.0
  0
VERTEX
  5
1310
100
AcDbEntity
  8
STUD
100
AcDbVertex
100
AcDb2dVertex
 10
53.293096
 20
57.0431
 30
0.0
  0
VERTEX
  5
1311
100
AcDbEntity
  8
STUD
100
AcDbVertex
100
AcDb2dVertex
 10
52.548967
 20
57.996181
 30
0.0
  0
VERTEX
  5
1312
100
AcDbEntity
  8
STUD
100
AcDbVertex
100
AcDb2dVertex
 10
52.548967
 20
57.304829
 30
0.0
  0
VERTEX
  5
1313
100
AcDbEntity
  8
STUD
100
AcDbVertex
100
AcDb2dVertex
 10
51.611582
 20
56.76363
 30
0.0
 42
-0.267949
  0
VERTEX
  5
1314
100
AcDbEntity
  8
STUD
100
AcDbVertex
100
AcDb2dVertex
 10
51.54394
 20
56.76363
 30
0.0
  0
VERTEX
  5
1315
100
AcDbEntity
  8
STUD
100
AcDbVertex
100
AcDb2dVertex
 10
51.404431
 20
56.844175
 30
0.0
  0
VERTEX
  5
1316
100
AcDbEntity
  8
STUD
100
AcDbVertex
100
AcDb2dVertex
 10
50.156145
 20
57.564874
 30
0.0
 42
-0.57735
  0
VERTEX
  5
1317
100
AcDbEntity
  8
STUD
100
AcDbVertex
100
AcDb2dVertex
 10
50.156145
 20
57.682034
 30
0.0
  0
VERTEX
  5
1318
100
AcDbEntity
  8
STUD
100
AcDbVertex
100
AcDb2dVertex
 10
50.581901
 20
57.927844
 30
0.0
  0
VERTEX
  5
1319
100
AcDbEntity
  8
STUD
100
AcDbVertex
100
AcDb2dVertex
 10
50.619348
 20
57.906224
 30
0.0
  0
VERTEX
  5
131A
100
AcDbEntity
  8
STUD
100
AcDbVertex
100
AcDb2dVertex
 10
50.174868
 20
57.649604
 30
0.0
 42
0.57735
  0
VERTEX
  5
131B
100
AcDbEntity
  8
STUD
100
AcDbVertex
100
AcDb2dVertex
 10
50.174868
 20
57.597303
 30
0.0
  0
VERTEX
  5
131C
100
AcDbEntity
  8
STUD
100
AcDbVertex
100
AcDb2dVertex
 10
51.404431
 20
56.887415
 30
0.0
  0
VERTEX
  5
131D
100
AcDbEntity
  8
STUD
100
AcDbVertex
100
AcDb2dVertex
 10
51.562663
 20
56.79606
 30
0.0
 42
0.267949
  0
VERTEX
  5
131E
100
AcDbEntity
  8
STUD
100
AcDbVertex
100
AcDb2dVertex
 10
51.592859
 20
56.79606
 30
0.0
  0
VERTEX
  5
131F
100
AcDbEntity
  8
STUD
100
AcDbVertex
100
AcDb2dVertex
 10
52.51152
 20
57.337793
 30
0.0
  0
VERTEX
  5
1320
100
AcDbEntity
  8
STUD
100
AcDbVertex
100
AcDb2dVertex
 10
52.51152
 20
58.017801
 30
0.0
  0
VERTEX
  5
1321
100
AcDbEntity
  8
STUD
100
AcDbVertex
100
AcDb2dVertex
 10
52.548967
 20
57.996181
 30
0.0
  0
SEQEND
  5
1322
100
AcDbEntity
  8
STUD
  0
LINE
  5
1347
100
AcDbEntity
  8
STUD
100
AcDbLine
 10
52.548967
 20
57.304829
 30
0.0
 11
52.51152
 21
57.337793
 31
0.0
  0
LINE
  5
1348
100
AcDbEntity
  8
STUD
100
AcDbLine
 10
53.293096
 20
57.734452
 30
0.0
 11
53.255649
 21
57.756072
 31
0.0
  0
LINE
  5
134B
100
AcDbEntity
  8
STUD
100
AcDbLine
 10
53.467419
 20
59.533125
 30
0.0
 11
53.467419
 21
57.878337
 31
0.0
  0
LINE
  5
134C
100
AcDbEntity
  8
STUD
100
AcDbLine
 10
52.962548
 20
59.259071
 30
0.0
 11
52.962548
 21
57.466466
 31
0.0
  0
LINE
  5
134E
100
AcDbEntity
  8
STUD
100
AcDbLine
 10
50.619348
 20
57.906224
 30
0.0
 11
50.619348
 21
57.340683
 31
0.0
  0
LINE
  5
134F
100
AcDbEntity
  8
STUD
100
AcDbLine
 10
52.966351
 20
45.86168
 30
0.0
 11
52.966351
 21
43.144162
 31
0.0
  0
POLYLINE
  5
1350
100
AcDbEntity
  8
STUD
100
AcDb2dPolyline
 66
     1
 10
0.0
 20
0.0
 30
0.0
 70
     1
  0
VERTEX
  5
1351
100
AcDbEntity
  8
STUD
100
AcDbVertex
100
AcDb2dVertex
 10
52.708787
 20
45.732898
 30
0.0
  0
VERTEX
  5
1352
100
AcDbEntity
  8
STUD
100
AcDbVertex
100
AcDb2dVertex
 10
53.771599
 20
46.264304
 30
0.0
 42
-0.557537
  0
VERTEX
  5
1353
100
AcDbEntity
  8
STUD
100
AcDbVertex
100
AcDb2dVertex
 10
53.952501
 20
46.1525
 30
0.0
  0
VERTEX
  5
1354
100
AcDbEntity
  8
STUD
100
AcDbVertex
100
AcDb2dVertex
 10
53.952501
 20
43.68928
 30
0.0
 42
-0.284079
  0
VERTEX
  5
1355
100
AcDbEntity
  8
STUD
100
AcDbVertex
100
AcDb2dVertex
 10
53.883402
 20
43.577476
 30
0.0
  0
VERTEX
  5
1356
100
AcDbEntity
  8
STUD
100
AcDbVertex
100
AcDb2dVertex
 10
52.82059
 20
43.04607
 30
0.0
 42
-0.557537
  0
VERTEX
  5
1357
100
AcDbEntity
  8
STUD
100
AcDbVertex
100
AcDb2dVertex
 10
52.639689
 20
43.157874
 30
0.0
  0
VERTEX
  5
1358
100
AcDbEntity
  8
STUD
100
AcDbVertex
100
AcDb2dVertex
 10
52.639689
 20
45.621094
 30
0.0
 42
-0.284079
  0
SEQEND
  5
1359
100
AcDbEntity
  8
STUD
  0
POLYLINE
  5
135A
100
AcDbEntity
  8
STUD
100
AcDb2dPolyline
 66
     1
 10
0.0
 20
0.0
 30
0.0
  0
VERTEX
  5
135B
100
AcDbEntity
  8
STUD
100
AcDbVertex
100
AcDb2dVertex
 10
52.746449
 20
43.034211
 30
0.0
  0
VERTEX
  5
135C
100
AcDbEntity
  8
STUD
100
AcDbVertex
100
AcDb2dVertex
 10
53.873318
 20
43.597646
 30
0.0
 42
0.284079
  0
VERTEX
  5
135D
100
AcDbEntity
  8
STUD
100
AcDbVertex
100
AcDb2dVertex
 10
53.929951
 20
43.68928
 30
0.0
  0
VERTEX
  5
135E
100
AcDbEntity
  8
STUD
100
AcDbVertex
100
AcDb2dVertex
 10
53.929951
 20
46.1525
 30
0.0
 42
0.447316
  0
VERTEX
  5
135F
100
AcDbEntity
  8
STUD
100
AcDbVertex
100
AcDb2dVertex
 10
53.771599
 20
46.264304
 30
0.0
  0
SEQEND
  5
1360
100
AcDbEntity
  8
STUD
  0
LINE
  5
1361
100
AcDbEntity
  8
STUD
100
AcDbLine
 10
53.514897
 20
46.132871
 30
0.0
 11
53.514897
 21
43.418435
 31
0.0
  0
LINE
  5
136B
100
AcDbEntity
  8
TRACK
100
AcDbLine
 10
54.788291
 20
34.648466
 30
0.0
 11
55.512634
 21
34.230198
 31
0.0
  0
LINE
  5
136C
100
AcDbEntity
  8
TRACK
100
AcDbLine
 10
54.788291
 20
34.60851
 30
0.0
 11
55.48116
 21
34.208417
 31
0.0
  0
LINE
  5
136D
100
AcDbEntity
  8
TRACK
100
AcDbLine
 10
54.681871
 20
33.0262
 30
0.0
 11
55.494776
 21
32.556869
 31
0.0
  0
LINE
  5
136E
100
AcDbEntity
  8
TRACK
100
AcDbLine
 10
54.713741
 20
33.0446
 30
0.0
 11
55.480964
 21
32.601572
 31
0.0
  0
LINE
  5
136F
100
AcDbEntity
  8
STEEL
  6
HIDDEN2
100
AcDbLine
 10
51.765378
 20
32.688822
 30
0.0
 11
51.773948
 21
31.34731
 31
0.0
  0
LINE
  5
1370
100
AcDbEntity
  8
STEEL
  6
HIDDEN2
100
AcDbLine
 10
50.156145
 20
33.618063
 30
0.0
 11
50.155212
 21
32.245804
 31
0.0
  0
POLYLINE
  5
138E
100
AcDbEntity
  8
STUD
100
AcDb2dPolyline
 66
     1
 10
0.0
 20
0.0
 30
0.0
  0
VERTEX
  5
138F
100
AcDbEntity
  8
STUD
100
AcDbVertex
100
AcDb2dVertex
 10
52.307218
 20
31.655193
 30
0.0
  0
VERTEX
  5
1390
100
AcDbEntity
  8
STUD
100
AcDbVertex
100
AcDb2dVertex
 10
51.773948
 20
31.34731
 30
0.0
 42
-0.267949
  0
VERTEX
  5
1391
100
AcDbEntity
  8
STUD
100
AcDbVertex
100
AcDb2dVertex
 10
51.711448
 20
31.34731
 30
0.0
  0
VERTEX
  5
1392
100
AcDbEntity
  8
STUD
100
AcDbVertex
100
AcDb2dVertex
 10
51.582545
 20
31.421732
 30
0.0
 42
-0.57735
  0
SEQEND
  5
1393
100
AcDbEntity
  8
STUD
  0
POLYLINE
  5
139A
100
AcDbEntity
  8
STUD
100
AcDb2dPolyline
 66
     1
 10
0.0
 20
0.0
 30
0.0
  0
VERTEX
  5
139B
100
AcDbEntity
  8
STUD
100
AcDbVertex
100
AcDb2dVertex
 10
54.788291
 20
33.195894
 30
0.0
 42
-0.57735
  0
VERTEX
  5
139C
100
AcDbEntity
  8
STUD
100
AcDbVertex
100
AcDb2dVertex
 10
54.788291
 20
33.087641
 30
0.0
  0
VERTEX
  5
139D
100
AcDbEntity
  8
STUD
100
AcDbVertex
100
AcDb2dVertex
 10
52.341818
 20
31.67517
 30
0.0
 42
-0.267949
  0
SEQEND
  5
139E
100
AcDbEntity
  8
STUD
  0
POLYLINE
  5
13B1
100
AcDbEntity
  8
STEEL
100
AcDb2dPolyline
 66
     1
 10
0.0
 20
0.0
 30
0.0
 70
     1
  0
VERTEX
  5
13B2
100
AcDbEntity
  8
STEEL
100
AcDbVertex
100
AcDb2dVertex
 10
37.979233
 20
29.507751
 30
0.0
  0
VERTEX
  5
150D
100
AcDbEntity
  8
STEEL
100
AcDbVertex
100
AcDb2dVertex
 10
37.979233
 20
30.589138
 30
0.0
 42
0.267949
  0
VERTEX
  5
13B3
100
AcDbEntity
  8
STEEL
100
AcDbVertex
100
AcDb2dVertex
 10
37.916733
 20
30.697391
 30
0.0
  0
VERTEX
  5
150E
100
AcDbEntity
  8
STEEL
100
AcDbVertex
100
AcDb2dVertex
 10
35.701487
 20
31.976364
 30
0.0
 42
0.57735
  0
VERTEX
  5
13B4
100
AcDbEntity
  8
STEEL
100
AcDbVertex
100
AcDb2dVertex
 10
35.513987
 20
31.868111
 30
0.0
  0
VERTEX
  5
150F
100
AcDbEntity
  8
STEEL
100
AcDbVertex
100
AcDb2dVertex
 10
35.513987
 20
30.746459
 30
0.0
 42
0.271634
  0
VERTEX
  5
13B5
100
AcDbEntity
  8
STEEL
100
AcDbVertex
100
AcDb2dVertex
 10
35.57798
 20
30.637357
 30
0.0
  0
VERTEX
  5
150C
100
AcDbEntity
  8
STEEL
100
AcDbVertex
100
AcDb2dVertex
 10
37.793226
 20
29.39865
 30
0.0
 42
0.572779
  0
SEQEND
  5
13B6
100
AcDbEntity
  8
STEEL
  0
POLYLINE
  5
13BD
100
AcDbEntity
  8
STEEL
100
AcDb2dPolyline
 66
     1
 10
0.0
 20
0.0
 30
0.0
 70
     1
  0
VERTEX
  5
13BE
100
AcDbEntity
  8
STEEL
100
AcDbVertex
100
AcDb2dVertex
 10
37.979233
 20
61.453172
 30
0.0
  0
VERTEX
  5
1511
100
AcDbEntity
  8
STEEL
100
AcDbVertex
100
AcDb2dVertex
 10
37.979233
 20
62.534559
 30
0.0
 42
0.267949
  0
VERTEX
  5
13BF
100
AcDbEntity
  8
STEEL
100
AcDbVertex
100
AcDb2dVertex
 10
37.916733
 20
62.642812
 30
0.0
  0
VERTEX
  5
1512
100
AcDbEntity
  8
STEEL
100
AcDbVertex
100
AcDb2dVertex
 10
35.701487
 20
63.921784
 30
0.0
 42
0.57735
  0
VERTEX
  5
13C0
100
AcDbEntity
  8
STEEL
100
AcDbVertex
100
AcDb2dVertex
 10
35.513987
 20
63.813531
 30
0.0
  0
VERTEX
  5
1513
100
AcDbEntity
  8
STEEL
100
AcDbVertex
100
AcDb2dVertex
 10
35.513987
 20
62.691879
 30
0.0
 42
0.271634
  0
VERTEX
  5
13C1
100
AcDbEntity
  8
STEEL
100
AcDbVertex
100
AcDb2dVertex
 10
35.57798
 20
62.582778
 30
0.0
  0
VERTEX
  5
1510
100
AcDbEntity
  8
STEEL
100
AcDbVertex
100
AcDb2dVertex
 10
37.793226
 20
61.34407
 30
0.0
 42
0.572779
  0
SEQEND
  5
13C2
100
AcDbEntity
  8
STEEL
  0
LINE
  5
13D9
100
AcDbEntity
  8
STUD
100
AcDbLine
 10
36.782888
 20
31.352017
 30
0.0
 11
36.782888
 21
45.963604
 31
0.0
  0
POLYLINE
  5
13DA
100
AcDbEntity
  8
STUD
100
AcDb2dPolyline
 66
     1
 10
0.0
 20
0.0
 30
0.0
  0
VERTEX
  5
13DB
100
AcDbEntity
  8
STUD
100
AcDbVertex
100
AcDb2dVertex
 10
36.603824
 20
13.069095
 30
0.0
  0
VERTEX
  5
13DC
100
AcDbEntity
  8
STUD
100
AcDbVertex
100
AcDb2dVertex
 10
36.603824
 20
30.063732
 30
0.0
  0
SEQEND
  5
13DD
100
AcDbEntity
  8
STUD
  0
POLYLINE
  5
13E2
100
AcDbEntity
  8
STUD
100
AcDb2dPolyline
 66
     1
 10
0.0
 20
0.0
 30
0.0
  0
VERTEX
  5
13E3
100
AcDbEntity
  8
STUD
100
AcDbVertex
100
AcDb2dVertex
 10
36.708602
 20
13.008601
 30
0.0
  0
VERTEX
  5
13E4
100
AcDbEntity
  8
STUD
100
AcDbVertex
100
AcDb2dVertex
 10
36.708602
 20
30.005143
 30
0.0
  0
SEQEND
  5
13E5
100
AcDbEntity
  8
STUD
  0
LINE
  5
13EB
100
AcDbEntity
  8
STUD
100
AcDbLine
 10
36.782888
 20
63.297438
 30
0.0
 11
36.782888
 21
66.596257
 31
0.0
  0
POLYLINE
  5
13F0
100
AcDbEntity
  8
STUD
100
AcDb2dPolyline
 66
     1
 10
0.0
 20
0.0
 30
0.0
  0
VERTEX
  5
13F1
100
AcDbEntity
  8
STUD
100
AcDbVertex
100
AcDb2dVertex
 10
36.708602
 20
63.340326
 30
0.0
  0
VERTEX
  5
13F2
100
AcDbEntity
  8
STUD
100
AcDbVertex
100
AcDb2dVertex
 10
36.708602
 20
66.639146
 30
0.0
  0
SEQEND
  5
13F3
100
AcDbEntity
  8
STUD
  0
POLYLINE
  5
13F8
100
AcDbEntity
  8
STUD
100
AcDb2dPolyline
 66
     1
 10
0.0
 20
0.0
 30
0.0
  0
VERTEX
  5
13F9
100
AcDbEntity
  8
STUD
100
AcDbVertex
100
AcDb2dVertex
 10
36.603824
 20
63.40082
 30
0.0
  0
VERTEX
  5
13FA
100
AcDbEntity
  8
STUD
100
AcDbVertex
100
AcDb2dVertex
 10
36.603824
 20
66.69964
 30
0.0
  0
SEQEND
  5
13FB
100
AcDbEntity
  8
STUD
  0
LINE
  5
1451
100
AcDbEntity
  8
STEEL
100
AcDbLine
 10
24.400593
 20
23.947329
 30
0.0
 11
24.400593
 21
25.707845
 31
0.0
  0
LINE
  5
1452
100
AcDbEntity
  8
STEEL
100
AcDbLine
 10
20.744537
 20
25.707845
 30
0.0
 11
19.619537
 21
24.582845
 31
0.0
  0
LINE
  5
1453
100
AcDbEntity
  8
STEEL
100
AcDbLine
 10
19.619537
 20
26.832845
 30
0.0
 11
20.744537
 21
25.707845
 31
0.0
  0
LINE
  5
1454
100
AcDbEntity
  8
STEEL
100
AcDbLine
 10
24.400593
 20
23.947329
 30
0.0
 11
26.16111
 21
25.707845
 31
0.0
  0
TEXT
  5
1455
100
AcDbEntity
  8
STEEL
100
AcDbText
 10
8.988867
 20
24.808587
 30
0.0
 40
1.5
  1
EA. STUD
  7
ARCH
 72
     2
 11
19.644039
 21
24.808587
 31
0.0
100
AcDbText
  0
TEXT
  5
1456
100
AcDbEntity
  8
STEEL
100
AcDbText
 10
19.7087
 20
23.633665
 30
0.0
 40
1.5
  1
1/8"  1"
  7
ARCH
 11
19.7087
 21
22.909527
 31
0.0
100
AcDbText
 73
     1
  0
LEADER
  5
1457
100
AcDbEntity
  8
STEEL
100
AcDbLeader
  3
LEADER
 73
     0
 40
1.489655
 41
6.107586
 76
     3
 10
36.461277
 20
29.086518
 30
0.0
 10
28.390182
 20
25.707845
 30
0.0
 10
20.744537
 20
25.707845
 30
0.0
 77
   256
  0
TEXT
  5
149D
100
AcDbEntity
  8
LINK
 62
     1
100
AcDbText
 10
-18.354792
 20
23.015745
 30
0.0
 40
1.5
  1
drawing list
  7
BLOCK
 72
     1
 11
-14.034076
 21
23.015745
 31
0.0
100
AcDbText
1001
PE_URL
1000
Cemco_drawings.htm
  0
TEXT
  5
149E
100
AcDbEntity
  8
LINK
 62
     1
100
AcDbText
 10
-16.203828
 20
11.015745
 30
0.0
 40
1.5
  1
home
  7
BLOCK
 72
     1
 11
-14.034076
 21
11.015745
 31
0.0
100
AcDbText
1001
PE_URL
1000
Cemco_drawings.htm
  0
TEXT
  5
149F
100
AcDbEntity
  8
LINK
 62
     1
100
AcDbText
 10
-22.165233
 20
17.015745
 30
0.0
 40
1.5
  1
Assembly drawing 10
  7
BLOCK
 72
     1
 11
-14.034076
 21
17.015745
 31
0.0
100
AcDbText
1001
PE_URL
1000
Cemco_drawings.htm
  0
TEXT
  5
14A0
100
AcDbEntity
  8
LINK
 62
     1
100
AcDbText
 10
-21.340398
 20
14.015745
 30
0.0
 40
1.5
  1
Cemco drawing list
  7
BLOCK
 72
     1
 11
-14.034076
 21
14.015745
 31
0.0
100
AcDbText
1001
PE_URL
1000
Cemco_drawings.htm
  0
TEXT
  5
14A1
100
AcDbEntity
  8
LINK
 62
     1
100
AcDbText
 10
-21.687248
 20
20.015745
 30
0.0
 40
1.5
  1
Assembly drawing 9
  7
BLOCK
 72
     1
 11
-14.034076
 21
20.015745
 31
0.0
100
AcDbText
1001
PE_URL
1000
Cemco_drawings.htm
  0
INSERT
  5
14A2
100
AcDbEntity
  8
LAYOUT
100
AcDbBlockReference
 66
     1
  2
01PARE02
 10
111.85043
 20
100.475689
 30
0.0
 41
0.104159
 42
0.104159
 43
0.104159
1001
_KTI_ARCHT
1070
 12000
1000
TAG
1070
 10025
1005
0
  0
ATTRIB
  5
14A3
100
AcDbEntity
  8
0
  6
BYBLOCK
 62
     0
100
AcDbText
 10
96.650421
 20
99.929753
 30
0.0
 40
1.666542
  1
10.27_7.93 (x,y) or (y,x)
  7
ARCH
 72
     4
 11
111.85043
 21
100.475689
 31
0.0
100
AcDbAttribute
  2
AREA_NAME
 70
     0
  0
ATTRIB
  5
14A4
100
AcDbEntity
  8
0
  6
BYBLOCK
 62
     0
100
AcDbText
 10
103.805057
 20
96.78549
 30
0.0
 40
1.666542
  1
0.57 SQ. FT.
  7
ARCH
 72
     4
 11
111.85043
 21
97.618761
 31
0.0
100
AcDbAttribute
  2
_AREA
 70
     0
  0
SEQEND
  5
14A5
100
AcDbEntity
  8
LAYOUT
  0
MTEXT
  5
14A6
100
AcDbEntity
  8
LINK
100
AcDbMText
 10
-8.496373
 20
2.205987
 30
0.0
 40
1.5
 41
0.0
 71
     7
 72
     1
  1
{Back}\P{Button}
  7
ARCH
1001
PE_URL
1000
6020-010.dwf
  0
LEADER
  5
14A7
100
AcDbEntity
  8
LINK
100
AcDbLeader
  3
LEADER
 72
     1
 73
     0
 74
     0
 40
0.125
 41
0.556034
 76
     7
 10
-0.327114
 20
6.684019
 30
0.0
 10
-7.60281
 20
9.44706
 30
0.0
 10
-9.99075
 20
9.82817
 30
0.0
 10
-14.125193
 20
8.446649
 30
0.0
 10
-13.278379
 20
3.396953
 30
0.0
 10
-11.335689
 20
2.914073
 30
0.0
 10
-8.894874
 20
3.009172
 30
0.0
 77
   256
1001
PE_URL
1000
6020-010.dwf
  0
POLYLINE
  5
14AD
100
AcDbEntity
  8
LAYOUT
100
AcDb2dPolyline
 66
     1
 10
0.0
 20
0.0
 30
0.0
 70
     1
  0
VERTEX
  5
14AE
100
AcDbEntity
  8
LAYOUT
100
AcDbVertex
100
AcDb2dVertex
 10
0.07701
 20
0.100632
 30
0.0
  0
VERTEX
  5
14AF
100
AcDbEntity
  8
LAYOUT
100
AcDbVertex
100
AcDb2dVertex
 10
123.245924
 20
0.007741
 30
0.0
  0
VERTEX
  5
14B0
100
AcDbEntity
  8
LAYOUT
100
AcDbVertex
100
AcDb2dVertex
 10
123.245924
 20
95.167741
 30
0.0
  0
VERTEX
  5
14B1
100
AcDbEntity
  8
LAYOUT
100
AcDbVertex
100
AcDb2dVertex
 10
95.165924
 20
95.167741
 30
0.0
  0
VERTEX
  5
14B2
100
AcDbEntity
  8
LAYOUT
100
AcDbVertex
100
AcDb2dVertex
 10
95.165924
 20
123.247741
 30
0.0
  0
VERTEX
  5
14B3
100
AcDbEntity
  8
LAYOUT
100
AcDbVertex
100
AcDb2dVertex
 10
0.005924
 20
123.247741
 30
0.0
  0
SEQEND
  5
14B4
100
AcDbEntity
  8
LAYOUT
  0
LINE
  5
14B5
100
AcDbEntity
  8
LAYOUT
100
AcDbLine
 10
95.165924
 20
95.167741
 30
0.0
 11
0.022165
 21
95.112819
 31
0.0
  0
LINE
  5
14B6
100
AcDbEntity
  8
LAYOUT
100
AcDbLine
 10
95.165924
 20
95.167741
 30
0.0
 11
95.094173
 21
0.028972
 31
0.0
  0
POLYLINE
  5
14B7
100
AcDbEntity
  8
LAYOUT
 62
   210
100
AcDb2dPolyline
 66
     1
 10
0.0
 20
0.0
 30
0.0
  0
VERTEX
  5
14B8
100
AcDbEntity
  8
LAYOUT
 62
   210
100
AcDbVertex
100
AcDb2dVertex
 10
0.07701
 20
0.100632
 30
0.0
  0
VERTEX
  5
14B9
100
AcDbEntity
  8
LAYOUT
 62
   210
100
AcDbVertex
100
AcDb2dVertex
 10
94.519791
 20
0.300367
 30
0.0
  0
VERTEX
  5
14BA
100
AcDbEntity
  8
LAYOUT
 62
   210
100
AcDbVertex
100
AcDb2dVertex
 10
94.447174
 20
84.100632
 30
0.0
  0
VERTEX
  5
14BB
100
AcDbEntity
  8
LAYOUT
 62
   210
100
AcDbVertex
100
AcDb2dVertex
 10
0.052592
 20
84.100632
 30
0.0
  0
VERTEX
  5
14BC
100
AcDbEntity
  8
LAYOUT
 62
   210
100
AcDbVertex
100
AcDb2dVertex
 10
0.07701
 20
0.100632
 30
0.0
  0
VERTEX
  5
14BD
100
AcDbEntity
  8
LAYOUT
 62
   210
100
AcDbVertex
100
AcDb2dVertex
 10
94.447174
 20
84.100632
 30
0.0
  0
SEQEND
  5
14BE
100
AcDbEntity
  8
LAYOUT
  0
TEXT
  5
14BF
100
AcDbEntity
  8
LINK
100
AcDbText
 10
-24.220049
 20
0.100632
 30
0.0
 40
3.0
  1
12
  7
BLD
 11
-24.220049
 21
0.100632
 31
0.0
100
AcDbText
 73
     1
  0
POLYLINE
  5
14DF
100
AcDbEntity
  8
STEEL
100
AcDb2dPolyline
 66
     1
 10
0.0
 20
0.0
 30
0.0
 40
0.125
 41
0.125
  0
VERTEX
  5
14E0
100
AcDbEntity
  8
STEEL
100
AcDbVertex
100
AcDb2dVertex
 10
36.708602
 20
28.714248
 30
0.0
  0
VERTEX
  5
14E1
100
AcDbEntity
  8
STEEL
100
AcDbVertex
100
AcDb2dVertex
 10
36.708602
 20
29.758823
 30
0.0
  0
SEQEND
  5
14E2
100
AcDbEntity
  8
STEEL
  0
POLYLINE
  5
14E3
100
AcDbEntity
  8
STEEL
100
AcDb2dPolyline
 66
     1
 10
0.0
 20
0.0
 30
0.0
 40
0.125
 41
0.125
  0
VERTEX
  5
14E4
100
AcDbEntity
  8
STEEL
100
AcDbVertex
100
AcDb2dVertex
 10
36.708602
 20
44.714248
 30
0.0
  0
VERTEX
  5
14E5
100
AcDbEntity
  8
STEEL
100
AcDbVertex
100
AcDb2dVertex
 10
36.708602
 20
45.758823
 30
0.0
  0
SEQEND
  5
14E6
100
AcDbEntity
  8
STEEL
  0
POLYLINE
  5
14E7
100
AcDbEntity
  8
STEEL
100
AcDb2dPolyline
 66
     1
 10
0.0
 20
0.0
 30
0.0
 40
0.125
 41
0.125
  0
VERTEX
  5
14E8
100
AcDbEntity
  8
STEEL
100
AcDbVertex
100
AcDb2dVertex
 10
36.708602
 20
60.714248
 30
0.0
  0
VERTEX
  5
14E9
100
AcDbEntity
  8
STEEL
100
AcDbVertex
100
AcDb2dVertex
 10
36.708602
 20
61.758823
 30
0.0
  0
SEQEND
  5
14EA
100
AcDbEntity
  8
STEEL
  0
POLYLINE
  5
14EB
100
AcDbEntity
  8
STEEL
100
AcDb2dPolyline
 66
     1
 10
0.0
 20
0.0
 30
0.0
 70
     1
  0
VERTEX
  5
14EC
100
AcDbEntity
  8
STEEL
100
AcDbVertex
100
AcDb2dVertex
 10
37.979233
 20
45.507751
 30
0.0
  0
VERTEX
  5
1509
100
AcDbEntity
  8
STEEL
100
AcDbVertex
100
AcDb2dVertex
 10
37.979233
 20
46.589138
 30
0.0
 42
0.267949
  0
VERTEX
  5
14ED
100
AcDbEntity
  8
STEEL
100
AcDbVertex
100
AcDb2dVertex
 10
37.916733
 20
46.697391
 30
0.0
  0
VERTEX
  5
150A
100
AcDbEntity
  8
STEEL
100
AcDbVertex
100
AcDb2dVertex
 10
35.701487
 20
47.976364
 30
0.0
 42
0.57735
  0
VERTEX
  5
14EE
100
AcDbEntity
  8
STEEL
100
AcDbVertex
100
AcDb2dVertex
 10
35.513987
 20
47.868111
 30
0.0
  0
VERTEX
  5
150B
100
AcDbEntity
  8
STEEL
100
AcDbVertex
100
AcDb2dVertex
 10
35.513987
 20
46.746459
 30
0.0
 42
0.271634
  0
VERTEX
  5
14EF
100
AcDbEntity
  8
STEEL
100
AcDbVertex
100
AcDb2dVertex
 10
35.57798
 20
46.637357
 30
0.0
  0
VERTEX
  5
1508
100
AcDbEntity
  8
STEEL
100
AcDbVertex
100
AcDb2dVertex
 10
37.793226
 20
45.39865
 30
0.0
 42
0.572779
  0
SEQEND
  5
14F0
100
AcDbEntity
  8
STEEL
  0
ELLIPSE
  5
14F1
100
AcDbEntity
  8
FASTENER
100
AcDbEllipse
 10
37.43393
 20
46.268962
 30
0.0
 11
0.114819831692953
 21
-0.1988737822087213
 31
0.0
210
0.0
220
0.0
230
1.0
 40
0.57735
 41
0.0000000000000128
 42
6.283185307179612
  0
LINE
  5
14F2
100
AcDbEntity
  8
FASTENER
100
AcDbLine
 10
37.596309
 20
46.175212
 30
0.0
 11
37.27155
 21
46.362712
 31
0.0
  0
LINE
  5
14F3
100
AcDbEntity
  8
FASTENER
100
AcDbLine
 10
37.43393
 20
46.456462
 30
0.0
 11
37.43393
 21
46.081462
 31
0.0
  0
LINE
  5
14F4
100
AcDbEntity
  8
FASTENER
100
AcDbLine
 10
35.864259
 20
47.362712
 30
0.0
 11
35.864259
 21
46.987712
 31
0.0
  0
LINE
  5
14F5
100
AcDbEntity
  8
FASTENER
100
AcDbLine
 10
36.026638
 20
47.081462
 30
0.0
 11
35.701879
 21
47.268962
 31
0.0
  0
ELLIPSE
  5
14F6
100
AcDbEntity
  8
FASTENER
100
AcDbEllipse
 10
35.864259
 20
47.175212
 30
0.0
 11
0.114819831692953
 21
-0.1988737822087213
 31
0.0
210
0.0
220
0.0
230
1.0
 40
0.57735
 41
0.0000000000000128
 42
6.283185307179612
  0
POLYLINE
  5
14F7
100
AcDbEntity
  8
STUD
100
AcDb2dPolyline
 66
     1
 10
0.0
 20
0.0
 30
0.0
  0
VERTEX
  5
14F8
100
AcDbEntity
  8
STUD
100
AcDbVertex
100
AcDb2dVertex
 10
36.603824
 20
31.455399
 30
0.0
  0
VERTEX
  5
14F9
100
AcDbEntity
  8
STUD
100
AcDbVertex
100
AcDb2dVertex
 10
36.603824
 20
46.063732
 30
0.0
  0
SEQEND
  5
14FA
100
AcDbEntity
  8
STUD
  0
POLYLINE
  5
14FB
100
AcDbEntity
  8
STUD
100
AcDb2dPolyline
 66
     1
 10
0.0
 20
0.0
 30
0.0
  0
VERTEX
  5
14FC
100
AcDbEntity
  8
STUD
100
AcDbVertex
100
AcDb2dVertex
 10
36.603824
 20
47.455399
 30
0.0
  0
VERTEX
  5
14FD
100
AcDbEntity
  8
STUD
100
AcDbVertex
100
AcDb2dVertex
 10
36.603824
 20
62.009153
 30
0.0
  0
SEQEND
  5
14FE
100
AcDbEntity
  8
STUD
  0
POLYLINE
  5
14FF
100
AcDbEntity
  8
STUD
100
AcDb2dPolyline
 66
     1
 10
0.0
 20
0.0
 30
0.0
  0
VERTEX
  5
1500
100
AcDbEntity
  8
STUD
100
AcDbVertex
100
AcDb2dVertex
 10
36.708602
 20
31.394906
 30
0.0
  0
VERTEX
  5
1501
100
AcDbEntity
  8
STUD
100
AcDbVertex
100
AcDb2dVertex
 10
36.708602
 20
46.005143
 30
0.0
  0
SEQEND
  5
1502
100
AcDbEntity
  8
STUD
  0
POLYLINE
  5
1503
100
AcDbEntity
  8
STUD
100
AcDb2dPolyline
 66
     1
 10
0.0
 20
0.0
 30
0.0
  0
VERTEX
  5
1504
100
AcDbEntity
  8
STUD
100
AcDbVertex
100
AcDb2dVertex
 10
36.708602
 20
47.394906
 30
0.0
  0
VERTEX
  5
1505
100
AcDbEntity
  8
STUD
100
AcDbVertex
100
AcDb2dVertex
 10
36.708602
 20
61.950563
 30
0.0
  0
SEQEND
  5
1506
100
AcDbEntity
  8
STUD
  0
LINE
  5
1507
100
AcDbEntity
  8
STUD
100
AcDbLine
 10
36.782888
 20
47.352017
 30
0.0
 11
36.782888
 21
61.909025
 31
0.0
  0
LINE
  5
1514
100
AcDbEntity
  8
STUD
100
AcDbLine
 10
51.577761
 20
56.754567
 30
0.0
 11
51.703993
 21
32.764225
 31
0.0
  0
LEADER
  5
1520
100
AcDbEntity
  8
D-TEXT
100
AcDbLeader
  3
LEADER
 76
     4
 10
45.378564
 20
34.825949
 30
0.0
 10
45.917892
 20
30.149941
 30
0.0
 10
50.289951
 20
28.67042
 30
0.0
 10
51.6352
 20
28.67042
 30
0.0
 77
   256
  0
TEXT
  5
152F
100
AcDbEntity
  8
LINK
 62
     1
100
AcDbText
 10
-19.131287
 20
29.015745
 30
0.0
 40
1.5
  1
drawing D-17
  7
BLOCK
 72
     1
 11
-14.034076
 21
29.015745
 31
0.0
100
AcDbText
1001
PE_URL
1000
6020-017.dwf
  0
POLYLINE
  5
1539
100
AcDbEntity
  8
_KTI_CONTROL
 60
     1
100
AcDb3dPolyline
 66
     1
 10
0.0
 20
0.0
 30
0.0
 70
     8
1001
_KTI_ARCHT
1070
 12000
1000
ENVIRONMENT
1070
 10003
1000
6020-019
1070
 20000
1000
standard
1070
 20001
1000
f:\archt
1070
 20003
1000
j:\archt
1070
 20002
1000
f:\archt\tmp
1070
 20004
1002
{
1000
f:\archt\blks
1000
f:\archt\blks3d
1000
h:\archt\blks
1000
h:\archt\blks3d
1000
j:\archt\blks
1000
j:\archt\blks3d
1002
}
1070
 20005
1002
{
1000
f:\archt\slds
1002
}
1070
 20006
1002
{
1000
f:\archt\dclswin
1002
}
1070
 20007
1002
{
1000
f:\archt\docs
1002
}
1070
 20008
1002
{
1000
f:\archt\help
1002
}
  0
VERTEX
  5
153A
100
AcDbEntity
  8
_KTI_CONTROL
100
AcDbVertex
100
AcDb3dPolylineVertex
 10
0.0
 20
0.0
 30
0.0
 70
    32
  0
VERTEX
  5
153B
100
AcDbEntity
  8
_KTI_CONTROL
100
AcDbVertex
100
AcDb3dPolylineVertex
 10
0.0
 20
0.0
 30
0.0
 70
    32
  0
SEQEND
  5
153C
100
AcDbEntity
  8
_KTI_CONTROL
  0
POLYLINE
  5
153D
100
AcDbEntity
  8
_KTI_CONTROL
 60
     1
100
AcDb3dPolyline
 66
     1
 10
0.0
 20
0.0
 30
0.0
 70
     8
1001
_KTI_ARCHT
1070
 12000
1000
ARCHTVARS
1070
 10003
1000
6020-019
1070
 12030
1000
in
1070
 12020
1070
     1
1070
 12021
1070
     0
1070
 12070
1070
     0
1070
 12071
1070
     1
1070
 12907
1070
     0
1070
 12072
1070
     2
1070
 12073
1070
    48
1070
 12074
1070
     0
1070
 12080
1070
     1
1070
 12092
1070
     1
1070
 12096
1070
     0
1070
 12095
1070
     0
1070
 12081
1070
     1
1070
 12082
1070
     1
1070
 12083
1070
     1
1070
 12084
1070
     1
1070
 12085
1070
     0
1070
 12086
1070
     1
1070
 12087
1070
     0
1070
 12088
1070
     0
1070
 12097
1070
     1
1070
 12089
1070
     4
1070
 12090
1070
     6
1070
 12091
1070
     1
1070
 12045
1000
standard
1070
 12046
1000

1070
 12047
1000
standard
1070
 12048
1000

1070
 12049
1000

1070
 12093
1070
     1
1070
 12094
1070
     1
1070
 12908
1070
     0
1070
 12909
1070
     0
1070
 12911
1070
     0
1070
 12910
1070
     0
1070
 12912
1070
     0
1070
 12098
1070
   640
1070
 12060
1002
{
1000

1000

1000

1000

1002
}
1070
 12904
1002
{
1070
     0
1070
     0
1070
     0
1070
     0
1070
     0
1002
}
1070
 12905
1002
{
1040
0.0
1040
0.0
1040
0.0
1040
0.0
1040
0.0
1002
}
1070
 12906
1002
{
1000

1000

1000

1000

1000

1002
}
1070
 12040
1002
{
1002
}
  0
VERTEX
  5
153E
100
AcDbEntity
  8
_KTI_CONTROL
100
AcDbVertex
100
AcDb3dPolylineVertex
 10
0.0
 20
0.0
 30
0.0
 70
    32
  0
VERTEX
  5
153F
100
AcDbEntity
  8
_KTI_CONTROL
100
AcDbVertex
100
AcDb3dPolylineVertex
 10
0.0
 20
0.0
 30
0.0
 70
    32
  0
SEQEND
  5
1540
100
AcDbEntity
  8
_KTI_CONTROL
  0
ENDSEC
  0
SECTION
  2
OBJECTS
  0
DICTIONARY
  5
C
100
AcDbDictionary
  3
ACAD_GROUP
350
D
  3
ACAD_MLINESTYLE
350
E
  0
DICTIONARY
  5
D
102
{ACAD_REACTORS
330
C
102
}
100
AcDbDictionary
  0
DICTIONARY
  5
E
102
{ACAD_REACTORS
330
C
102
}
100
AcDbDictionary
  3
STANDARD
350
13
  0
MLINESTYLE
  5
13
102
{ACAD_REACTORS
330
E
102
}
100
AcDbMlineStyle
  2
STANDARD
 70
     0
  3

 62
     0
 51
90.0
 52
90.0
 71
     2
 49
0.5
 62
   256
  6
BYLAYER
 49
-0.5
 62
   256
  6
BYLAYER
  0
ENDSEC
  0
EOF
