  0
SECTION
  2
HEADER
  9
$ACADVER
  1
AC1012
  9
$DWGCODEPAGE
  3
ansi_1252
  9
$INSBASE
 10
0.0
 20
0.0
 30
0.0
  9
$EXTMIN
 10
-26.371285
 20
0.0
 30
0.0
  9
$EXTMAX
 10
95.16
 20
77.802731
 30
0.0
  9
$LIMMIN
 10
0.0
 20
0.0
  9
$LIMMAX
 10
87.0
 20
87.0
  9
$ORTHOMODE
 70
     0
  9
$REGENMODE
 70
     1
  9
$FILLMODE
 70
     1
  9
$QTEXTMODE
 70
     0
  9
$MIRRTEXT
 70
     1
  9
$DRAGMODE
 70
     2
  9
$LTSCALE
 40
1.0
  9
$OSMODE
 70
    39
  9
$ATTMODE
 70
     1
  9
$TEXTSIZE
 40
1.0
  9
$TRACEWID
 40
3.0
  9
$TEXTSTYLE
  7
ARCH
  9
$CLAYER
  8
D-TEXT
  9
$CELTYPE
  6
BYLAYER
  9
$CECOLOR
 62
   256
  9
$CELTSCALE
 40
1.0
  9
$DELOBJ
 70
     1
  9
$DISPSILH
 70
     0
  9
$DIMSCALE
 40
12.0
  9
$DIMASZ
 40
0.1875
  9
$DIMEXO
 40
0.0625
  9
$DIMDLI
 40
0.375
  9
$DIMRND
 40
0.0
  9
$DIMDLE
 40
0.0
  9
$DIMEXE
 40
0.1875
  9
$DIMTP
 40
0.0
  9
$DIMTM
 40
0.0
  9
$DIMTXT
 40
0.125
  9
$DIMCEN
 40
0.1875
  9
$DIMTSZ
 40
0.0
  9
$DIMTOL
 70
     0
  9
$DIMLIM
 70
     0
  9
$DIMTIH
 70
     1
  9
$DIMTOH
 70
     1
  9
$DIMSE1
 70
     0
  9
$DIMSE2
 70
     0
  9
$DIMTAD
 70
     0
  9
$DIMZIN
 70
     0
  9
$DIMBLK
  1
OBLIQUE
  9
$DIMASO
 70
     1
  9
$DIMSHO
 70
     1
  9
$DIMPOST
  1

  9
$DIMAPOST
  1

  9
$DIMALT
 70
     0
  9
$DIMALTD
 70
     1
  9
$DIMALTF
 40
25.4
  9
$DIMLFAC
 40
1.0
  9
$DIMTOFL
 70
     0
  9
$DIMTVP
 40
0.0
  9
$DIMTIX
 70
     0
  9
$DIMSOXD
 70
     0
  9
$DIMSAH
 70
     1
  9
$DIMBLK1
  1
_OPEN90
  9
$DIMBLK2
  1
_OPEN90
  9
$DIMSTYLE
  2
LEADER
  9
$DIMCLRD
 70
     0
  9
$DIMCLRE
 70
     0
  9
$DIMCLRT
 70
     0
  9
$DIMTFAC
 40
1.0
  9
$DIMGAP
 40
0.125
  9
$DIMJUST
 70
     0
  9
$DIMSD1
 70
     0
  9
$DIMSD2
 70
     0
  9
$DIMTOLJ
 70
     0
  9
$DIMTZIN
 70
     0
  9
$DIMALTZ
 70
     0
  9
$DIMALTTZ
 70
     0
  9
$DIMFIT
 70
     1
  9
$DIMUPT
 70
     1
  9
$DIMUNIT
 70
     4
  9
$DIMDEC
 70
     4
  9
$DIMTDEC
 70
     2
  9
$DIMALTU
 70
     2
  9
$DIMALTTD
 70
     1
  9
$DIMTXSTY
  7
ARCH
  9
$DIMAUNIT
 70
     0
  9
$LUNITS
 70
     4
  9
$LUPREC
 70
     4
  9
$SKETCHINC
 40
12.0
  9
$FILLETRAD
 40
0.0
  9
$AUNITS
 70
     0
  9
$AUPREC
 70
     0
  9
$MENU
  1
.
  9
$ELEVATION
 40
0.0
  9
$PELEVATION
 40
0.0
  9
$THICKNESS
 40
0.0
  9
$LIMCHECK
 70
     0
  9
$BLIPMODE
 70
     0
  9
$CHAMFERA
 40
24.0
  9
$CHAMFERB
 40
24.0
  9
$CHAMFERC
 40
24.0
  9
$CHAMFERD
 40
0.785398
  9
$SKPOLY
 70
     0
  9
$TDCREATE
 40
2451091.612835532
  9
$TDUPDATE
 40
2451105.672347106
  9
$TDINDWG
 40
0.0302210648
  9
$TDUSRTIMER
 40
0.0302210648
  9
$USRTIMER
 70
     1
  9
$ANGBASE
 50
0.0
  9
$ANGDIR
 70
     0
  9
$PDMODE
 70
     0
  9
$PDSIZE
 40
4.0
  9
$PLINEWID
 40
0.0
  9
$COORDS
 70
     2
  9
$SPLFRAME
 70
     0
  9
$SPLINETYPE
 70
     6
  9
$SPLINESEGS
 70
     8
  9
$ATTDIA
 70
     0
  9
$ATTREQ
 70
     1
  9
$HANDLING
 70
     1
  9
$HANDSEED
  5
F7DE
  9
$SURFTAB1
 70
     6
  9
$SURFTAB2
 70
     6
  9
$SURFTYPE
 70
     6
  9
$SURFU
 70
     6
  9
$SURFV
 70
     6
  9
$UCSNAME
  2

  9
$UCSORG
 10
0.0
 20
0.0
 30
0.0
  9
$UCSXDIR
 10
1.0
 20
0.0
 30
0.0
  9
$UCSYDIR
 10
0.0
 20
1.0
 30
0.0
  9
$PUCSNAME
  2

  9
$PUCSORG
 10
0.0
 20
0.0
 30
0.0
  9
$PUCSXDIR
 10
1.0
 20
0.0
 30
0.0
  9
$PUCSYDIR
 10
0.0
 20
1.0
 30
0.0
  9
$USERI1
 70
     0
  9
$USERI2
 70
     0
  9
$USERI3
 70
     0
  9
$USERI4
 70
     0
  9
$USERI5
 70
     0
  9
$USERR1
 40
0.0
  9
$USERR2
 40
0.0
  9
$USERR3
 40
0.0
  9
$USERR4
 40
0.0
  9
$USERR5
 40
0.0
  9
$WORLDVIEW
 70
     1
  9
$SHADEDGE
 70
     3
  9
$SHADEDIF
 70
    70
  9
$TILEMODE
 70
     1
  9
$MAXACTVP
 70
    16
  9
$PINSBASE
 10
0.0
 20
0.0
 30
0.0
  9
$PLIMCHECK
 70
     0
  9
$PEXTMIN
 10
1.000000E+20
 20
1.000000E+20
 30
1.000000E+20
  9
$PEXTMAX
 10
-1.000000E+20
 20
-1.000000E+20
 30
-1.000000E+20
  9
$PLIMMIN
 10
0.0
 20
0.0
  9
$PLIMMAX
 10
12.0
 20
9.0
  9
$UNITMODE
 70
     0
  9
$VISRETAIN
 70
     0
  9
$PLINEGEN
 70
     0
  9
$PSLTSCALE
 70
     1
  9
$TREEDEPTH
 70
  3020
  9
$PICKSTYLE
 70
     1
  9
$CMLSTYLE
  2
STANDARD
  9
$CMLJUST
 70
     0
  9
$CMLSCALE
 40
1.0
  9
$SAVEIMAGES
 70
     0
  0
ENDSEC
  0
SECTION
  2
CLASSES
  0
ENDSEC
  0
SECTION
  2
TABLES
  0
TABLE
  2
VPORT
  5
8
100
AcDbSymbolTable
 70
     4
  0
VPORT
  5
F7DD
100
AcDbSymbolTableRecord
100
AcDbViewportTableRecord
  2
*ACTIVE
 70
     0
 10
0.0
 20
0.0
 11
1.0
 21
1.0
 12
37.677692
 22
38.901365
 13
0.0
 23
0.0
 14
0.125
 24
0.125
 15
1.0
 25
1.0
 16
0.0
 26
0.0
 36
1.0
 17
0.0
 27
0.0
 37
0.0
 40
77.802731
 41
1.629677
 42
50.0
 43
0.0
 44
0.0
 50
0.0
 51
0.0
 71
     0
 72
   100
 73
     1
 74
     0
 75
     0
 76
     1
 77
     0
 78
     1
  0
ENDTAB
  0
TABLE
  2
LTYPE
  5
5
100
AcDbSymbolTable
 70
     1
  0
LTYPE
  5
14
100
AcDbSymbolTableRecord
100
AcDbLinetypeTableRecord
  2
BYBLOCK
 70
     0
  3

 72
    65
 73
     0
 40
0.0
  0
LTYPE
  5
15
100
AcDbSymbolTableRecord
100
AcDbLinetypeTableRecord
  2
BYLAYER
 70
     0
  3

 72
    65
 73
     0
 40
0.0
  0
LTYPE
  5
16
100
AcDbSymbolTableRecord
100
AcDbLinetypeTableRecord
  2
CONTINUOUS
 70
    64
  3
Solid line
 72
    65
 73
     0
 40
0.0
  0
ENDTAB
  0
TABLE
  2
LAYER
  5
2
100
AcDbSymbolTable
 70
    11
  0
LAYER
  5
F
100
AcDbSymbolTableRecord
100
AcDbLayerTableRecord
  2
0
 70
     0
 62
     7
  6
CONTINUOUS
  0
LAYER
  5
2F
100
AcDbSymbolTableRecord
100
AcDbLayerTableRecord
  2
STUD
 70
    64
 62
     5
  6
CONTINUOUS
  0
LAYER
  5
30
100
AcDbSymbolTableRecord
100
AcDbLayerTableRecord
  2
TRACK
 70
    64
 62
     1
  6
CONTINUOUS
  0
LAYER
  5
34
100
AcDbSymbolTableRecord
100
AcDbLayerTableRecord
  2
STEEL
 70
    64
 62
   142
  6
CONTINUOUS
  0
LAYER
  5
37
100
AcDbSymbolTableRecord
100
AcDbLayerTableRecord
  2
FASTENER
 70
    64
 62
     7
  6
CONTINUOUS
  0
LAYER
  5
3B
100
AcDbSymbolTableRecord
100
AcDbLayerTableRecord
  2
_KTI_CONTROL
 70
     5
 62
     7
  6
CONTINUOUS
  0
LAYER
  5
13AE
100
AcDbSymbolTableRecord
100
AcDbLayerTableRecord
  2
TEXT
 70
    64
 62
    94
  6
CONTINUOUS
  0
LAYER
  5
BFAF
100
AcDbSymbolTableRecord
100
AcDbLayerTableRecord
  2
JOIST
 70
    64
 62
   172
  6
CONTINUOUS
  0
LAYER
  5
E9D8
100
AcDbSymbolTableRecord
100
AcDbLayerTableRecord
  2
LINK
 70
    64
 62
     7
  6
CONTINUOUS
  0
LAYER
  5
F6E3
100
AcDbSymbolTableRecord
100
AcDbLayerTableRecord
  2
D-TEXT
 70
    64
 62
    94
  6
CONTINUOUS
  0
LAYER
  5
F6E4
100
AcDbSymbolTableRecord
100
AcDbLayerTableRecord
  2
LAYOUT
 70
    65
 62
    52
  6
CONTINUOUS
  0
ENDTAB
  0
TABLE
  2
STYLE
  5
3
100
AcDbSymbolTable
 70
     4
  0
STYLE
  5
10
100
AcDbSymbolTableRecord
100
AcDbTextStyleTableRecord
  2
STANDARD
 70
     0
 40
0.0
 41
1.0
 50
0.0
 71
     0
 42
12.0
  3
txt
  4

  0
STYLE
  5
4E
100
AcDbSymbolTableRecord
100
AcDbTextStyleTableRecord
  2
ARCH
 70
    64
 40
1.0
 41
1.0
 50
0.0
 71
     0
 42
1.0
  3
F:\r13\com\fonts\Architxt.shx
  4

  0
STYLE
  5
13AF
100
AcDbSymbolTableRecord
100
AcDbTextStyleTableRecord
  2
BLOCK
 70
    64
 40
0.0
 41
1.0
 50
0.0
 71
     0
 42
2.0
  3
F:\r13\com\fonts\monos.ttf
  4

  0
STYLE
  5
F6ED
100
AcDbSymbolTableRecord
100
AcDbTextStyleTableRecord
  2
BLD
 70
    64
 40
0.0
 41
1.0
 50
0.0
 71
     0
 42
1.5
  3
F:\r13\com\fonts\monos.ttf
  4

  0
ENDTAB
  0
TABLE
  2
VIEW
  5
6
100
AcDbSymbolTable
 70
     1
  0
VIEW
  5
81B3
100
AcDbSymbolTableRecord
100
AcDbViewTableRecord
  2
ALL
 70
     0
 40
79.062415
 10
48.002963
 20
38.992907
 41
97.820254
 11
0.0
 21
0.0
 31
1.0
 12
0.0
 22
0.0
 32
0.0
 42
50.0
 43
0.0
 44
0.0
 50
0.0
 71
     0
  0
ENDTAB
  0
TABLE
  2
UCS
  5
7
100
AcDbSymbolTable
 70
     0
  0
ENDTAB
  0
TABLE
  2
APPID
  5
9
100
AcDbSymbolTable
 70
     5
  0
APPID
  5
11
100
AcDbSymbolTableRecord
100
AcDbRegAppTableRecord
  2
ACAD
 70
     0
  0
APPID
  5
3A
100
AcDbSymbolTableRecord
100
AcDbRegAppTableRecord
  2
_KTI_ARCHT
 70
     0
  0
APPID
  5
13B1
100
AcDbSymbolTableRecord
100
AcDbRegAppTableRecord
  2
AVE_FINISH
 70
     0
  0
APPID
  5
13B2
100
AcDbSymbolTableRecord
100
AcDbRegAppTableRecord
  2
ADE
 70
     0
  0
APPID
  5
13B3
100
AcDbSymbolTableRecord
100
AcDbRegAppTableRecord
  2
PE_URL
 70
     0
  0
ENDTAB
  0
TABLE
  2
DIMSTYLE
  5
A
100
AcDbSymbolTable
 70
     2
  0
DIMSTYLE
105
1D
100
AcDbSymbolTableRecord
100
AcDbDimStyleTableRecord
  2
STANDARD
 70
     0
  3

  4

  5

  6
_CLOSED
  7
_CLOSED
 40
12.0
 41
0.1875
 42
0.0625
 43
0.375
 44
0.1875
 45
0.0
 46
0.0
 47
0.0
 48
0.0
140
0.18
141
0.0625
142
0.0
143
25.4
144
1.0
145
0.0
146
1.0
147
0.09
 71
     0
 72
     0
 73
     1
 74
     1
 75
     0
 76
     0
 77
     0
 78
     0
170
     0
171
     2
172
     0
173
     1
174
     0
175
     0
176
     0
177
     0
178
     0
270
     2
271
     4
272
     4
273
     2
274
     2
340
10
275
     0
280
     0
281
     0
282
     0
283
     1
284
     0
285
     0
286
     0
287
     3
288
     0
  0
DIMSTYLE
105
13B0
100
AcDbSymbolTableRecord
100
AcDbDimStyleTableRecord
  2
LEADER
 70
     0
  3

  4

  5
OBLIQUE
  6
_OPEN90
  7
_OPEN90
 40
12.0
 41
0.1875
 42
0.0625
 43
0.375
 44
0.1875
 45
0.0
 46
0.0
 47
0.0
 48
0.0
140
0.125
141
0.1875
142
0.0
143
25.4
144
1.0
145
0.0
146
1.0
147
0.125
 71
     0
 72
     0
 73
     1
 74
     1
 75
     0
 76
     0
 77
     0
 78
     0
170
     0
171
     1
172
     0
173
     1
174
     0
175
     0
176
     0
177
     0
178
     0
270
     4
271
     4
272
     2
273
     2
274
     1
340
4E
275
     0
280
     0
281
     0
282
     0
283
     0
284
     0
285
     0
286
     0
287
     1
288
     1
  0
ENDTAB
  0
TABLE
  2
BLOCK_RECORD
  5
1
100
AcDbSymbolTable
 70
     2
  0
BLOCK_RECORD
  5
1A
100
AcDbSymbolTableRecord
100
AcDbBlockTableRecord
  2
*MODEL_SPACE
  0
BLOCK_RECORD
  5
17
100
AcDbSymbolTableRecord
100
AcDbBlockTableRecord
  2
*PAPER_SPACE
  0
BLOCK_RECORD
  5
13A3
100
AcDbSymbolTableRecord
100
AcDbBlockTableRecord
  2
CEMCO_BLANK
  0
BLOCK_RECORD
  5
F6CC
100
AcDbSymbolTableRecord
100
AcDbBlockTableRecord
  2
DETAIL_TITLE
  0
ENDTAB
  0
ENDSEC
  0
SECTION
  2
BLOCKS
  0
BLOCK
  5
1B
100
AcDbEntity
  8
0
100
AcDbBlockBegin
  2
*MODEL_SPACE
 70
     0
 10
0.0
 20
0.0
 30
0.0
  3
*MODEL_SPACE
  1

  0
ENDBLK
  5
1C
100
AcDbEntity
  8
0
100
AcDbBlockEnd
  0
BLOCK
  5
18
100
AcDbEntity
 67
     1
  8
0
100
AcDbBlockBegin
  2
*PAPER_SPACE
 70
     0
 10
0.0
 20
0.0
 30
0.0
  3
*PAPER_SPACE
  1

  0
ENDBLK
  5
19
100
AcDbEntity
 67
     1
  8
0
100
AcDbBlockEnd
  0
BLOCK
  5
13AC
100
AcDbEntity
  8
0
100
AcDbBlockBegin
  2
CEMCO_BLANK
 70
     0
 10
0.0
 20
0.0
 30
0.0
  3
CEMCO_BLANK
  1

  0
POLYLINE
  5
13A4
100
AcDbEntity
  8
_KTI_CONTROL
 60
     1
100
AcDb3dPolyline
 66
     1
 10
0.0
 20
0.0
 30
0.0
 70
     8
1001
_KTI_ARCHT
1070
 12000
1000
ENVIRONMENT
1070
 10003
1000
cemco_blank
1070
 20000
1000
standard
1070
 20001
1000
f:\archt
1070
 20003
1000
h:\archt
1070
 20002
1000
f:\archt\tmp
1070
 20004
1002
{
1000
f:\archt\blks
1000
f:\archt\blks3d
1000
h:\archt\blks
1000
h:\archt\blks3d
1002
}
1070
 20005
1002
{
1000
f:\archt\slds
1002
}
1070
 20006
1002
{
1000
f:\archt\dclswin
1002
}
1070
 20007
1002
{
1000
f:\archt\docs
1002
}
1070
 20008
1002
{
1000
f:\archt\help
1002
}
  0
VERTEX
  5
13A5
100
AcDbEntity
  8
_KTI_CONTROL
100
AcDbVertex
100
AcDb3dPolylineVertex
 10
0.0
 20
0.0
 30
0.0
 70
    32
  0
VERTEX
  5
13A6
100
AcDbEntity
  8
_KTI_CONTROL
100
AcDbVertex
100
AcDb3dPolylineVertex
 10
0.0
 20
0.0
 30
0.0
 70
    32
  0
SEQEND
  5
13A7
100
AcDbEntity
  8
_KTI_CONTROL
  0
POLYLINE
  5
13A8
100
AcDbEntity
  8
_KTI_CONTROL
 60
     1
100
AcDb3dPolyline
 66
     1
 10
0.0
 20
0.0
 30
0.0
 70
     8
1001
_KTI_ARCHT
1070
 12000
1000
ARCHTVARS
1070
 10003
1000
cemco_blank
1070
 12030
1000
in
1070
 12020
1070
     1
1070
 12021
1070
     0
1070
 12070
1070
     0
1070
 12071
1070
     1
1070
 12907
1070
     0
1070
 12072
1070
     2
1070
 12073
1070
    48
1070
 12074
1070
     0
1070
 12080
1070
     1
1070
 12092
1070
     1
1070
 12096
1070
     0
1070
 12095
1070
     0
1070
 12081
1070
     1
1070
 12082
1070
     1
1070
 12083
1070
     1
1070
 12084
1070
     1
1070
 12085
1070
     0
1070
 12086
1070
     1
1070
 12087
1070
     0
1070
 12088
1070
     0
1070
 12097
1070
     1
1070
 12089
1070
     4
1070
 12090
1070
     6
1070
 12091
1070
     1
1070
 12045
1000
standard
1070
 12046
1000

1070
 12047
1000
standard
1070
 12048
1000

1070
 12049
1000

1070
 12093
1070
     1
1070
 12094
1070
     1
1070
 12908
1070
     0
1070
 12909
1070
     0
1070
 12911
1070
     0
1070
 12910
1070
     0
1070
 12912
1070
     0
1070
 12098
1070
   640
1070
 12060
1002
{
1000

1000

1000

1000

1002
}
1070
 12904
1002
{
1070
     0
1070
     0
1070
     0
1070
     0
1070
     0
1002
}
1070
 12905
1002
{
1040
0.0
1040
0.0
1040
0.0
1040
0.0
1040
0.0
1002
}
1070
 12906
1002
{
1000

1000

1000

1000

1000

1002
}
1070
 12040
1002
{
1002
}
  0
VERTEX
  5
13A9
100
AcDbEntity
  8
_KTI_CONTROL
100
AcDbVertex
100
AcDb3dPolylineVertex
 10
0.0
 20
0.0
 30
0.0
 70
    32
  0
VERTEX
  5
13AA
100
AcDbEntity
  8
_KTI_CONTROL
100
AcDbVertex
100
AcDb3dPolylineVertex
 10
0.0
 20
0.0
 30
0.0
 70
    32
  0
SEQEND
  5
13AB
100
AcDbEntity
  8
_KTI_CONTROL
  0
ENDBLK
  5
13AD
100
AcDbEntity
  8
0
100
AcDbBlockEnd
  0
BLOCK
  5
F6D5
100
AcDbEntity
  8
0
100
AcDbBlockBegin
  2
DETAIL_TITLE
 70
    66
 10
0.0
 20
0.0
 30
0.0
  3
DETAIL_TITLE
  1

  0
ATTDEF
  5
F6CD
100
AcDbEntity
  8
D-TEXT
100
AcDbText
 10
1.163519
 20
0.650143
 30
0.0
 40
0.25
  1
TYP. 
  7
BLOCK
100
AcDbAttributeDefinition
  3
Enter the title of the detail
  2
DETAIL_DISCRIPTION
 70
     0
  0
POLYLINE
  5
F6CE
100
AcDbEntity
  8
D-TEXT
100
AcDb2dPolyline
 66
     1
 10
0.0
 20
0.0
 30
0.0
 40
0.05
 41
0.05
  0
VERTEX
  5
F6CF
100
AcDbEntity
  8
D-TEXT
100
AcDbVertex
100
AcDb2dVertex
 10
1.038519
 20
0.51926
 30
0.0
  0
VERTEX
  5
F6D0
100
AcDbEntity
  8
D-TEXT
100
AcDbVertex
100
AcDb2dVertex
 10
7.93
 20
0.51926
 30
0.0
  0
SEQEND
  5
F6D1
100
AcDbEntity
  8
D-TEXT
  0
ATTDEF
  5
F6D2
100
AcDbEntity
  8
D-TEXT
100
AcDbText
 10
0.189467
 20
0.39426
 30
0.0
 40
0.25
  1
D-#
  7
BLD
 72
     1
 11
0.51926
 21
0.51926
 31
0.0
100
AcDbAttributeDefinition
  3
Enter the Detail number
  2
DETAIL_NO
 70
     0
 74
     2
  0
ATTDEF
  5
F6D3
100
AcDbEntity
  8
D-TEXT
100
AcDbText
 10
1.163519
 20
0.172049
 30
0.0
 40
0.1875
  1
N. T. Scale 1-1/2" = 1'0"
  7
BLOCK
100
AcDbAttributeDefinition
  3
Type the defanition of scale
  2
SCALE
 70
     0
  0
CIRCLE
  5
F6D4
100
AcDbEntity
  8
D-TEXT
100
AcDbCircle
 10
0.51926
 20
0.51926
 30
0.0
 40
0.51926
  0
ENDBLK
  5
F6D6
100
AcDbEntity
  8
0
100
AcDbBlockEnd
  0
ENDSEC
  0
SECTION
  2
ENTITIES
  0
LINE
  5
1C1A
100
AcDbEntity
  8
TRACK
100
AcDbLine
 10
63.32151
 20
73.974841
 30
0.0
 11
9.370645
 21
42.826295
 31
0.0
  0
LINE
  5
1C29
100
AcDbEntity
  8
TRACK
100
AcDbLine
 10
9.142975
 20
44.321783
 30
0.0
 11
62.555925
 21
75.159764
 31
0.0
  0
LINE
  5
1C2B
100
AcDbEntity
  8
TRACK
100
AcDbLine
 10
60.848293
 20
77.802731
 30
0.0
 11
8.635159
 21
47.657464
 31
0.0
  0
LINE
  5
1C2C
100
AcDbEntity
  8
TRACK
100
AcDbLine
 10
9.132335
 20
44.391677
 30
0.0
 11
62.520145
 21
75.215143
 31
0.0
  0
LINE
  5
7B1B
100
AcDbEntity
  8
STUD
100
AcDbLine
 10
57.733626
 20
70.748675
 30
0.0
 11
57.733626
 21
54.328658
 31
0.0
  0
LINE
  5
7B1C
100
AcDbEntity
  8
STUD
100
AcDbLine
 10
60.417079
 20
72.297967
 30
0.0
 11
60.417079
 21
55.87795
 31
0.0
  0
LINE
  5
7B1E
100
AcDbEntity
  8
STUD
100
AcDbLine
 10
58.667728
 20
71.287979
 30
0.0
 11
58.667728
 21
54.867962
 31
0.0
  0
LINE
  5
7B1F
100
AcDbEntity
  8
STUD
100
AcDbLine
 10
57.768226
 20
70.768651
 30
0.0
 11
57.768226
 21
54.348635
 31
0.0
  0
LINE
  5
7B20
100
AcDbEntity
  8
STUD
100
AcDbLine
 10
59.89869
 20
71.998675
 30
0.0
 11
59.89869
 21
55.578658
 31
0.0
  0
LINE
  5
7B21
100
AcDbEntity
  8
STUD
100
AcDbLine
 10
60.354579
 20
72.261882
 30
0.0
 11
60.354579
 21
55.841866
 31
0.0
  0
LINE
  5
7F21
100
AcDbEntity
  8
STUD
100
AcDbLine
 10
46.498173
 20
64.261882
 30
0.0
 11
46.498173
 21
47.841866
 31
0.0
  0
LINE
  5
7F22
100
AcDbEntity
  8
STUD
100
AcDbLine
 10
46.042283
 20
63.998675
 30
0.0
 11
46.042283
 21
47.578658
 31
0.0
  0
LINE
  5
7F23
100
AcDbEntity
  8
STUD
100
AcDbLine
 10
43.91182
 20
62.768651
 30
0.0
 11
43.91182
 21
46.348635
 31
0.0
  0
LINE
  5
7F24
100
AcDbEntity
  8
STUD
100
AcDbLine
 10
44.811322
 20
63.287979
 30
0.0
 11
44.811322
 21
46.867962
 31
0.0
  0
LINE
  5
7F26
100
AcDbEntity
  8
STUD
100
AcDbLine
 10
46.560673
 20
64.297967
 30
0.0
 11
46.560673
 21
47.87795
 31
0.0
  0
LINE
  5
7F27
100
AcDbEntity
  8
STUD
100
AcDbLine
 10
43.87722
 20
62.748675
 30
0.0
 11
43.87722
 21
46.328658
 31
0.0
  0
LINE
  5
7F84
100
AcDbEntity
  8
STUD
100
AcDbLine
 10
32.641766
 20
56.261882
 30
0.0
 11
32.641766
 21
39.841866
 31
0.0
  0
LINE
  5
7F85
100
AcDbEntity
  8
STUD
100
AcDbLine
 10
32.185877
 20
55.998675
 30
0.0
 11
32.185877
 21
39.578658
 31
0.0
  0
LINE
  5
7F86
100
AcDbEntity
  8
STUD
100
AcDbLine
 10
30.055413
 20
54.768651
 30
0.0
 11
30.055413
 21
38.348635
 31
0.0
  0
LINE
  5
7F87
100
AcDbEntity
  8
STUD
100
AcDbLine
 10
30.954915
 20
55.287979
 30
0.0
 11
30.954915
 21
38.867962
 31
0.0
  0
LINE
  5
7F89
100
AcDbEntity
  8
STUD
100
AcDbLine
 10
32.704266
 20
56.297967
 30
0.0
 11
32.704266
 21
39.87795
 31
0.0
  0
LINE
  5
7F8A
100
AcDbEntity
  8
STUD
100
AcDbLine
 10
30.020813
 20
54.748675
 30
0.0
 11
30.020813
 21
38.328658
 31
0.0
  0
LINE
  5
7FE7
100
AcDbEntity
  8
STUD
100
AcDbLine
 10
18.78536
 20
48.261882
 30
0.0
 11
18.78536
 21
31.841866
 31
0.0
  0
LINE
  5
7FE8
100
AcDbEntity
  8
STUD
100
AcDbLine
 10
18.32947
 20
47.998675
 30
0.0
 11
18.32947
 21
31.578658
 31
0.0
  0
LINE
  5
7FE9
100
AcDbEntity
  8
STUD
100
AcDbLine
 10
16.199007
 20
46.768651
 30
0.0
 11
16.199007
 21
30.348635
 31
0.0
  0
LINE
  5
7FEA
100
AcDbEntity
  8
STUD
100
AcDbLine
 10
17.098509
 20
47.287979
 30
0.0
 11
17.098509
 21
30.867962
 31
0.0
  0
LINE
  5
7FEC
100
AcDbEntity
  8
STUD
100
AcDbLine
 10
18.84786
 20
48.297967
 30
0.0
 11
18.84786
 21
31.87795
 31
0.0
  0
LINE
  5
7FED
100
AcDbEntity
  8
STUD
100
AcDbLine
 10
16.164407
 20
46.748675
 30
0.0
 11
16.164407
 21
30.328658
 31
0.0
  0
ELLIPSE
  5
81C6
100
AcDbEntity
  8
FASTENER
100
AcDbEllipse
 10
19.545507
 20
49.293537
 30
0.0
 11
0.0765465544619697
 21
0.132582521472475
 31
0.0
210
0.0
220
0.0
230
-1.0
 40
0.57735
 41
0.0000000000000578
 42
6.283185307179658
  0
LINE
  5
81C7
100
AcDbEntity
  8
FASTENER
100
AcDbLine
 10
19.437253
 20
49.231037
 30
0.0
 11
19.65376
 21
49.356037
 31
0.0
  0
LINE
  5
81C8
100
AcDbEntity
  8
FASTENER
100
AcDbLine
 10
19.544277
 20
49.418531
 30
0.0
 11
19.546736
 21
49.168543
 31
0.0
  0
ELLIPSE
  5
81C9
100
AcDbEntity
  8
FASTENER
100
AcDbEllipse
 10
33.401913
 20
57.293537
 30
0.0
 11
0.0765465544619697
 21
0.132582521472475
 31
0.0
210
0.0
220
0.0
230
-1.0
 40
0.57735
 41
0.0000000000000231
 42
6.283185307179623
  0
LINE
  5
81CA
100
AcDbEntity
  8
FASTENER
100
AcDbLine
 10
33.29366
 20
57.231037
 30
0.0
 11
33.510166
 21
57.356037
 31
0.0
  0
LINE
  5
81CB
100
AcDbEntity
  8
FASTENER
100
AcDbLine
 10
33.400683
 20
57.418531
 30
0.0
 11
33.403143
 21
57.168543
 31
0.0
  0
ELLIPSE
  5
81CC
100
AcDbEntity
  8
FASTENER
100
AcDbEllipse
 10
47.25832
 20
65.293537
 30
0.0
 11
0.0765465544619697
 21
0.132582521472475
 31
0.0
210
0.0
220
0.0
230
-1.0
 40
0.57735
 41
0.0000000000000231
 42
6.283185307179623
  0
LINE
  5
81CD
100
AcDbEntity
  8
FASTENER
100
AcDbLine
 10
47.150066
 20
65.231037
 30
0.0
 11
47.366573
 21
65.356037
 31
0.0
  0
LINE
  5
81CE
100
AcDbEntity
  8
FASTENER
100
AcDbLine
 10
47.25709
 20
65.418531
 30
0.0
 11
47.259549
 21
65.168543
 31
0.0
  0
ELLIPSE
  5
81CF
100
AcDbEntity
  8
FASTENER
100
AcDbEllipse
 10
61.114726
 20
73.293537
 30
0.0
 11
0.0765465544619697
 21
0.132582521472475
 31
0.0
210
0.0
220
0.0
230
-1.0
 40
0.57735
 41
-0.0000000000000465
 42
6.283185307179554
  0
LINE
  5
81D0
100
AcDbEntity
  8
FASTENER
100
AcDbLine
 10
61.006473
 20
73.231037
 30
0.0
 11
61.222979
 21
73.356037
 31
0.0
  0
LINE
  5
81D1
100
AcDbEntity
  8
FASTENER
100
AcDbLine
 10
61.113496
 20
73.418531
 30
0.0
 11
61.115956
 21
73.168543
 31
0.0
  0
POLYLINE
  5
8412
100
AcDbEntity
  8
STUD
100
AcDb2dPolyline
 66
     1
 10
0.0
 20
0.0
 30
0.0
  0
VERTEX
  5
8413
100
AcDbEntity
  8
STUD
100
AcDbVertex
100
AcDb2dVertex
 10
18.32947
 20
41.842564
 30
0.0
 42
0.392115
  0
VERTEX
  5
8414
100
AcDbEntity
  8
STUD
100
AcDbVertex
100
AcDb2dVertex
 10
18.098461
 20
41.593287
 30
0.0
  0
VERTEX
  5
8415
100
AcDbEntity
  8
STUD
100
AcDbVertex
100
AcDb2dVertex
 10
18.098461
 20
38.920637
 30
0.0
 42
0.267949
  0
VERTEX
  5
8416
100
AcDbEntity
  8
STUD
100
AcDbVertex
100
AcDb2dVertex
 10
18.223461
 20
38.70413
 30
0.0
  0
VERTEX
  5
8417
100
AcDbEntity
  8
STUD
100
AcDbVertex
100
AcDb2dVertex
 10
18.32947
 20
38.642926
 30
0.0
 42
0.57735
  0
SEQEND
  5
8418
100
AcDbEntity
  8
STUD
  0
POLYLINE
  5
8419
100
AcDbEntity
  8
STUD
100
AcDb2dPolyline
 66
     1
 10
0.0
 20
0.0
 30
0.0
  0
VERTEX
  5
841A
100
AcDbEntity
  8
STUD
100
AcDbVertex
100
AcDb2dVertex
 10
32.185877
 20
49.842564
 30
0.0
 42
0.392115
  0
VERTEX
  5
841B
100
AcDbEntity
  8
STUD
100
AcDbVertex
100
AcDb2dVertex
 10
31.954867
 20
49.593287
 30
0.0
  0
VERTEX
  5
841C
100
AcDbEntity
  8
STUD
100
AcDbVertex
100
AcDb2dVertex
 10
31.954867
 20
46.920637
 30
0.0
 42
0.267949
  0
VERTEX
  5
841D
100
AcDbEntity
  8
STUD
100
AcDbVertex
100
AcDb2dVertex
 10
32.079867
 20
46.70413
 30
0.0
  0
VERTEX
  5
841E
100
AcDbEntity
  8
STUD
100
AcDbVertex
100
AcDb2dVertex
 10
32.185877
 20
46.642926
 30
0.0
 42
0.57735
  0
SEQEND
  5
841F
100
AcDbEntity
  8
STUD
  0
POLYLINE
  5
8420
100
AcDbEntity
  8
STUD
100
AcDb2dPolyline
 66
     1
 10
0.0
 20
0.0
 30
0.0
  0
VERTEX
  5
8421
100
AcDbEntity
  8
STUD
100
AcDbVertex
100
AcDb2dVertex
 10
46.042283
 20
57.842564
 30
0.0
 42
0.392115
  0
VERTEX
  5
8422
100
AcDbEntity
  8
STUD
100
AcDbVertex
100
AcDb2dVertex
 10
45.811274
 20
57.593287
 30
0.0
  0
VERTEX
  5
8423
100
AcDbEntity
  8
STUD
100
AcDbVertex
100
AcDb2dVertex
 10
45.811274
 20
54.920637
 30
0.0
 42
0.267949
  0
VERTEX
  5
8424
100
AcDbEntity
  8
STUD
100
AcDbVertex
100
AcDb2dVertex
 10
45.936274
 20
54.70413
 30
0.0
  0
VERTEX
  5
8425
100
AcDbEntity
  8
STUD
100
AcDbVertex
100
AcDb2dVertex
 10
46.042283
 20
54.642926
 30
0.0
 42
0.57735
  0
SEQEND
  5
8426
100
AcDbEntity
  8
STUD
  0
POLYLINE
  5
842E
100
AcDbEntity
  8
STUD
100
AcDb2dPolyline
 66
     1
 10
0.0
 20
0.0
 30
0.0
  0
VERTEX
  5
842F
100
AcDbEntity
  8
STUD
100
AcDbVertex
100
AcDb2dVertex
 10
59.89869
 20
65.842564
 30
0.0
 42
0.392115
  0
VERTEX
  5
8430
100
AcDbEntity
  8
STUD
100
AcDbVertex
100
AcDb2dVertex
 10
59.66768
 20
65.593287
 30
0.0
  0
VERTEX
  5
8431
100
AcDbEntity
  8
STUD
100
AcDbVertex
100
AcDb2dVertex
 10
59.66768
 20
62.920637
 30
0.0
 42
0.267949
  0
VERTEX
  5
8432
100
AcDbEntity
  8
STUD
100
AcDbVertex
100
AcDb2dVertex
 10
59.79268
 20
62.70413
 30
0.0
  0
VERTEX
  5
8433
100
AcDbEntity
  8
STUD
100
AcDbVertex
100
AcDb2dVertex
 10
59.89869
 20
62.642926
 30
0.0
 42
0.57735
  0
SEQEND
  5
8434
100
AcDbEntity
  8
STUD
  0
LINE
  5
BDC4
100
AcDbEntity
  8
JOIST
100
AcDbLine
 10
36.639027
 20
36.071898
 30
0.0
 11
51.63138
 21
27.416059
 31
0.0
  0
LINE
  5
BDF4
100
AcDbEntity
  8
JOIST
100
AcDbLine
 10
37.236012
 20
41.056475
 30
0.0
 11
56.247531
 21
30.08017
 31
0.0
  0
LINE
  5
BDF6
100
AcDbEntity
  8
JOIST
100
AcDbLine
 10
36.639027
 20
36.526145
 30
0.0
 11
52.024845
 21
27.643139
 31
0.0
  0
ELLIPSE
  5
BE02
100
AcDbEntity
  8
JOIST
100
AcDbEllipse
 10
37.778548
 20
42.018058
 30
0.0
 11
-0.153093108923944
 21
-0.0000000000000025
 31
0.0
210
0.0
220
0.0
230
-1.0
 40
0.57735
 41
0.0000000000000286
 42
6.283185307179628
  0
LINE
  5
BE03
100
AcDbEntity
  8
JOIST
100
AcDbLine
 10
37.886801
 20
41.955558
 30
0.0
 11
37.670295
 21
42.080558
 31
0.0
  0
LINE
  5
BE04
100
AcDbEntity
  8
JOIST
100
AcDbLine
 10
37.670915
 20
41.954496
 30
0.0
 11
37.886181
 21
42.08162
 31
0.0
  0
POLYLINE
  5
BE2C
100
AcDbEntity
  8
JOIST
100
AcDb2dPolyline
 66
     1
 10
0.0
 20
0.0
 30
0.0
 70
     1
  0
VERTEX
  5
BE2D
100
AcDbEntity
  8
JOIST
100
AcDbVertex
100
AcDb2dVertex
 10
49.199175
 20
34.195293
 30
0.0
 42
-0.267949
  0
VERTEX
  5
BE2E
100
AcDbEntity
  8
JOIST
100
AcDbVertex
100
AcDb2dVertex
 10
49.324175
 20
33.978787
 30
0.0
  0
VERTEX
  5
BE2F
100
AcDbEntity
  8
JOIST
100
AcDbVertex
100
AcDb2dVertex
 10
49.324175
 20
33.056137
 30
0.0
 42
-0.57735
  0
VERTEX
  5
BE30
100
AcDbEntity
  8
JOIST
100
AcDbVertex
100
AcDb2dVertex
 10
48.949175
 20
32.839631
 30
0.0
  0
VERTEX
  5
BE31
100
AcDbEntity
  8
JOIST
100
AcDbVertex
100
AcDb2dVertex
 10
46.634593
 20
34.175955
 30
0.0
 42
-0.267949
  0
VERTEX
  5
BE32
100
AcDbEntity
  8
JOIST
100
AcDbVertex
100
AcDb2dVertex
 10
46.509593
 20
34.392462
 30
0.0
  0
VERTEX
  5
BE33
100
AcDbEntity
  8
JOIST
100
AcDbVertex
100
AcDb2dVertex
 10
46.509593
 20
35.315112
 30
0.0
 42
-0.57735
  0
VERTEX
  5
BE34
100
AcDbEntity
  8
JOIST
100
AcDbVertex
100
AcDb2dVertex
 10
46.884593
 20
35.531618
 30
0.0
  0
SEQEND
  5
BE35
100
AcDbEntity
  8
JOIST
  0
LINE
  5
BE3C
100
AcDbEntity
  8
JOIST
100
AcDbLine
 10
51.527322
 20
49.954496
 30
0.0
 11
51.742588
 21
50.08162
 31
0.0
  0
LINE
  5
BE3D
100
AcDbEntity
  8
JOIST
100
AcDbLine
 10
51.743208
 20
49.955558
 30
0.0
 11
51.526702
 21
50.080558
 31
0.0
  0
ELLIPSE
  5
BE3E
100
AcDbEntity
  8
JOIST
100
AcDbEllipse
 10
51.634955
 20
50.018058
 30
0.0
 11
-0.153093108923944
 21
-0.0000000000000025
 31
0.0
210
0.0
220
0.0
230
-1.0
 40
0.57735
 41
0.0000000000000286
 42
6.283185307179628
  0
POLYLINE
  5
BE55
100
AcDbEntity
  8
JOIST
100
AcDb2dPolyline
 66
     1
 10
0.0
 20
0.0
 30
0.0
 70
     1
  0
VERTEX
  5
BE56
100
AcDbEntity
  8
JOIST
100
AcDbVertex
100
AcDb2dVertex
 10
63.055582
 20
42.195293
 30
0.0
 42
-0.267949
  0
VERTEX
  5
BE57
100
AcDbEntity
  8
JOIST
100
AcDbVertex
100
AcDb2dVertex
 10
63.180582
 20
41.978787
 30
0.0
  0
VERTEX
  5
BE58
100
AcDbEntity
  8
JOIST
100
AcDbVertex
100
AcDb2dVertex
 10
63.180582
 20
41.056137
 30
0.0
 42
-0.57735
  0
VERTEX
  5
BE59
100
AcDbEntity
  8
JOIST
100
AcDbVertex
100
AcDb2dVertex
 10
62.805582
 20
40.839631
 30
0.0
  0
VERTEX
  5
BE5A
100
AcDbEntity
  8
JOIST
100
AcDbVertex
100
AcDb2dVertex
 10
60.490999
 20
42.175955
 30
0.0
 42
-0.267949
  0
VERTEX
  5
BE5B
100
AcDbEntity
  8
JOIST
100
AcDbVertex
100
AcDb2dVertex
 10
60.365999
 20
42.392462
 30
0.0
  0
VERTEX
  5
BE5C
100
AcDbEntity
  8
JOIST
100
AcDbVertex
100
AcDb2dVertex
 10
60.365999
 20
43.315112
 30
0.0
 42
-0.57735
  0
VERTEX
  5
BE5D
100
AcDbEntity
  8
JOIST
100
AcDbVertex
100
AcDb2dVertex
 10
60.740999
 20
43.531618
 30
0.0
  0
SEQEND
  5
BE5E
100
AcDbEntity
  8
JOIST
  0
LINE
  5
BE88
100
AcDbEntity
  8
JOIST
100
AcDbLine
 10
50.495433
 20
44.526145
 30
0.0
 11
65.883916
 21
35.6416
 31
0.0
  0
LINE
  5
BE8A
100
AcDbEntity
  8
JOIST
100
AcDbLine
 10
51.092419
 20
49.056475
 30
0.0
 11
67.412252
 21
39.634215
 31
0.0
  0
LINE
  5
BE8E
100
AcDbEntity
  8
JOIST
100
AcDbLine
 10
50.495433
 20
44.071898
 30
0.0
 11
65.490451
 21
35.414521
 31
0.0
  0
LINE
  5
BF22
100
AcDbEntity
  8
JOIST
100
AcDbLine
 10
37.670915
 20
36.204496
 30
0.0
 11
37.886181
 21
36.33162
 31
0.0
  0
LINE
  5
BF23
100
AcDbEntity
  8
JOIST
100
AcDbLine
 10
37.886801
 20
36.205558
 30
0.0
 11
37.670295
 21
36.330558
 31
0.0
  0
ELLIPSE
  5
BF24
100
AcDbEntity
  8
JOIST
100
AcDbEllipse
 10
37.778548
 20
36.268058
 30
0.0
 11
-0.0765465544621565
 21
-0.0000000000000013
 31
0.0
210
0.0
220
0.0
230
-1.0
 40
0.57735
 41
0.0000000000000286
 42
6.283185307179628
  0
ELLIPSE
  5
BF4D
100
AcDbEntity
  8
JOIST
100
AcDbEllipse
 10
51.634955
 20
44.268058
 30
0.0
 11
-0.0765465544621565
 21
-0.0000000000000013
 31
0.0
210
0.0
220
0.0
230
-1.0
 40
0.57735
 41
0.0000000000000286
 42
6.283185307179628
  0
LINE
  5
BF4E
100
AcDbEntity
  8
JOIST
100
AcDbLine
 10
51.743208
 20
44.205558
 30
0.0
 11
51.526702
 21
44.330558
 31
0.0
  0
LINE
  5
BF4F
100
AcDbEntity
  8
JOIST
100
AcDbLine
 10
51.527322
 20
44.204496
 30
0.0
 11
51.742588
 21
44.33162
 31
0.0
  0
ELLIPSE
  5
C013
100
AcDbEntity
  8
JOIST
100
AcDbEllipse
 10
23.922142
 20
28.268058
 30
0.0
 11
-0.0765465544621565
 21
-0.0000000000000013
 31
0.0
210
0.0
220
0.0
230
-1.0
 40
0.57735
 41
0.0000000000000286
 42
6.283185307179628
  0
LINE
  5
C014
100
AcDbEntity
  8
JOIST
100
AcDbLine
 10
24.030395
 20
28.205558
 30
0.0
 11
23.813889
 21
28.330558
 31
0.0
  0
LINE
  5
C015
100
AcDbEntity
  8
JOIST
100
AcDbLine
 10
23.814509
 20
28.204496
 30
0.0
 11
24.029775
 21
28.33162
 31
0.0
  0
LINE
  5
C016
100
AcDbEntity
  8
JOIST
100
AcDbLine
 10
23.814509
 20
33.954496
 30
0.0
 11
24.029775
 21
34.08162
 31
0.0
  0
LINE
  5
C017
100
AcDbEntity
  8
JOIST
100
AcDbLine
 10
24.030395
 20
33.955558
 30
0.0
 11
23.813889
 21
34.080558
 31
0.0
  0
ELLIPSE
  5
C018
100
AcDbEntity
  8
JOIST
100
AcDbEllipse
 10
23.922142
 20
34.018058
 30
0.0
 11
-0.153093108923944
 21
-0.0000000000000025
 31
0.0
210
0.0
220
0.0
230
-1.0
 40
0.57735
 41
0.0000000000000286
 42
6.283185307179628
  0
POLYLINE
  5
C02F
100
AcDbEntity
  8
JOIST
100
AcDb2dPolyline
 66
     1
 10
0.0
 20
0.0
 30
0.0
 70
     1
  0
VERTEX
  5
C030
100
AcDbEntity
  8
JOIST
100
AcDbVertex
100
AcDb2dVertex
 10
35.342769
 20
26.195293
 30
0.0
 42
-0.267949
  0
VERTEX
  5
C031
100
AcDbEntity
  8
JOIST
100
AcDbVertex
100
AcDb2dVertex
 10
35.467769
 20
25.978787
 30
0.0
  0
VERTEX
  5
C032
100
AcDbEntity
  8
JOIST
100
AcDbVertex
100
AcDb2dVertex
 10
35.467769
 20
25.056137
 30
0.0
 42
-0.57735
  0
VERTEX
  5
C033
100
AcDbEntity
  8
JOIST
100
AcDbVertex
100
AcDb2dVertex
 10
35.092769
 20
24.839631
 30
0.0
  0
VERTEX
  5
C034
100
AcDbEntity
  8
JOIST
100
AcDbVertex
100
AcDb2dVertex
 10
32.778186
 20
26.175955
 30
0.0
 42
-0.267949
  0
VERTEX
  5
C035
100
AcDbEntity
  8
JOIST
100
AcDbVertex
100
AcDb2dVertex
 10
32.653186
 20
26.392462
 30
0.0
  0
VERTEX
  5
C036
100
AcDbEntity
  8
JOIST
100
AcDbVertex
100
AcDb2dVertex
 10
32.653186
 20
27.315112
 30
0.0
 42
-0.57735
  0
VERTEX
  5
C037
100
AcDbEntity
  8
JOIST
100
AcDbVertex
100
AcDb2dVertex
 10
33.028186
 20
27.531618
 30
0.0
  0
SEQEND
  5
C038
100
AcDbEntity
  8
JOIST
  0
LINE
  5
C062
100
AcDbEntity
  8
JOIST
100
AcDbLine
 10
22.78262
 20
28.526145
 30
0.0
 11
38.165774
 21
19.644677
 31
0.0
  0
LINE
  5
C064
100
AcDbEntity
  8
JOIST
100
AcDbLine
 10
23.379606
 20
33.056475
 30
0.0
 11
42.38846
 21
22.081708
 31
0.0
  0
LINE
  5
C068
100
AcDbEntity
  8
JOIST
100
AcDbLine
 10
22.78262
 20
28.071898
 30
0.0
 11
37.772309
 21
19.417597
 31
0.0
  0
LINE
  5
CAF1
100
AcDbEntity
  8
FASTENER
100
AcDbLine
 10
61.113496
 20
51.418531
 30
0.0
 11
61.115956
 21
51.168543
 31
0.0
  0
LINE
  5
CAF2
100
AcDbEntity
  8
FASTENER
100
AcDbLine
 10
61.006473
 20
51.231037
 30
0.0
 11
61.222979
 21
51.356037
 31
0.0
  0
ELLIPSE
  5
CAF3
100
AcDbEntity
  8
FASTENER
100
AcDbEllipse
 10
61.114726
 20
51.293537
 30
0.0
 11
0.0765465544619697
 21
0.132582521472475
 31
0.0
210
0.0
220
0.0
230
-1.0
 40
0.57735
 41
0.0000000000000231
 42
6.283185307179623
  0
LINE
  5
CAF4
100
AcDbEntity
  8
FASTENER
100
AcDbLine
 10
47.25709
 20
43.418531
 30
0.0
 11
47.259549
 21
43.168543
 31
0.0
  0
LINE
  5
CAF5
100
AcDbEntity
  8
FASTENER
100
AcDbLine
 10
47.150066
 20
43.231037
 30
0.0
 11
47.366573
 21
43.356037
 31
0.0
  0
ELLIPSE
  5
CAF6
100
AcDbEntity
  8
FASTENER
100
AcDbEllipse
 10
47.25832
 20
43.293537
 30
0.0
 11
0.0765465544619697
 21
0.132582521472475
 31
0.0
210
0.0
220
0.0
230
-1.0
 40
0.57735
 41
0.0000000000000231
 42
6.283185307179623
  0
LINE
  5
CAF7
100
AcDbEntity
  8
FASTENER
100
AcDbLine
 10
33.400683
 20
35.418531
 30
0.0
 11
33.403143
 21
35.168543
 31
0.0
  0
LINE
  5
CAF8
100
AcDbEntity
  8
FASTENER
100
AcDbLine
 10
33.29366
 20
35.231037
 30
0.0
 11
33.510166
 21
35.356037
 31
0.0
  0
ELLIPSE
  5
CAF9
100
AcDbEntity
  8
FASTENER
100
AcDbEllipse
 10
33.401913
 20
35.293537
 30
0.0
 11
0.0765465544619697
 21
0.132582521472475
 31
0.0
210
0.0
220
0.0
230
-1.0
 40
0.57735
 41
0.0000000000000231
 42
6.283185307179623
  0
LINE
  5
CAFA
100
AcDbEntity
  8
FASTENER
100
AcDbLine
 10
19.544277
 20
27.418531
 30
0.0
 11
19.546736
 21
27.168543
 31
0.0
  0
LINE
  5
CAFB
100
AcDbEntity
  8
FASTENER
100
AcDbLine
 10
19.437253
 20
27.231037
 30
0.0
 11
19.65376
 21
27.356037
 31
0.0
  0
ELLIPSE
  5
CAFC
100
AcDbEntity
  8
FASTENER
100
AcDbEllipse
 10
19.545507
 20
27.293537
 30
0.0
 11
0.0765465544619697
 21
0.132582521472475
 31
0.0
210
0.0
220
0.0
230
-1.0
 40
0.57735
 41
0.0000000000000029
 42
6.283185307179603
  0
LINE
  5
DABC
100
AcDbEntity
  8
TRACK
100
AcDbLine
 10
15.151245
 20
29.743709
 30
0.0
 11
66.745627
 21
59.531739
 31
0.0
  0
LINE
  5
DABE
100
AcDbEntity
  8
TRACK
100
AcDbLine
 10
16.080958
 20
28.888732
 30
0.0
 11
66.745627
 21
58.139993
 31
0.0
  0
LINE
  5
E13C
100
AcDbEntity
  8
TRACK
100
AcDbLine
 10
20.089069
 20
25.202816
 30
0.0
 11
23.920542
 21
27.414918
 31
0.0
  0
LINE
  5
E13D
100
AcDbEntity
  8
TRACK
100
AcDbLine
 10
19.078345
 20
26.132292
 30
0.0
 11
22.78262
 21
28.270957
 31
0.0
  0
LINE
  5
E13E
100
AcDbEntity
  8
TRACK
100
AcDbLine
 10
19.126556
 20
26.087958
 30
0.0
 11
22.78262
 21
28.198788
 31
0.0
  0
LINE
  5
E26C
100
AcDbEntity
  8
STUD
100
AcDbLine
 10
33.986557
 20
17.232733
 30
0.0
 11
33.986557
 21
21.603302
 31
0.0
  0
LINE
  5
E276
100
AcDbEntity
  8
STUD
100
AcDbLine
 10
29.627424
 20
18.193555
 30
0.0
 11
29.627424
 21
24.120049
 31
0.0
  0
LINE
  5
E28C
100
AcDbEntity
  8
STUD
100
AcDbLine
 10
20.130151
 20
25.165037
 30
0.0
 11
20.130151
 21
25.180402
 31
0.0
  0
LINE
  5
E2A7
100
AcDbEntity
  8
STUD
100
AcDbLine
 10
15.771017
 20
30.101535
 30
0.0
 11
15.771017
 21
46.521551
 31
0.0
  0
LINE
  5
E2B4
100
AcDbEntity
  8
STUD
100
AcDbLine
 10
20.130151
 20
32.618282
 30
0.0
 11
20.130151
 21
49.038298
 31
0.0
  0
LINE
  5
E2B9
100
AcDbEntity
  8
STUD
100
AcDbLine
 10
29.627424
 20
38.101535
 30
0.0
 11
29.627424
 21
54.521551
 31
0.0
  0
LINE
  5
E2BA
100
AcDbEntity
  8
STUD
100
AcDbLine
 10
33.986557
 20
40.618282
 30
0.0
 11
33.986557
 21
57.038298
 31
0.0
  0
LINE
  5
E2BB
100
AcDbEntity
  8
STUD
100
AcDbLine
 10
30.020813
 20
23.892925
 30
0.0
 11
30.020813
 21
17.975878
 31
0.0
  0
LINE
  5
E2BC
100
AcDbEntity
  8
STUD
100
AcDbLine
 10
32.704266
 20
32.44007
 30
0.0
 11
32.704266
 21
29.752127
 31
0.0
  0
LINE
  5
E2BD
100
AcDbEntity
  8
STUD
100
AcDbLine
 10
30.954915
 20
31.430082
 30
0.0
 11
30.954915
 21
30.762115
 31
0.0
  0
LINE
  5
E2BE
100
AcDbEntity
  8
STUD
100
AcDbLine
 10
30.055413
 20
23.872949
 30
0.0
 11
30.055413
 21
17.956732
 31
0.0
  0
LINE
  5
E2BF
100
AcDbEntity
  8
STUD
100
AcDbLine
 10
32.185877
 20
32.140778
 30
0.0
 11
32.185877
 21
30.051419
 31
0.0
  0
LINE
  5
E2C0
100
AcDbEntity
  8
STUD
100
AcDbLine
 10
32.641766
 20
32.403986
 30
0.0
 11
32.641766
 21
29.788211
 31
0.0
  0
LINE
  5
E2C1
100
AcDbEntity
  8
STUD
100
AcDbLine
 10
43.48383
 20
46.101535
 30
0.0
 11
43.48383
 21
62.521551
 31
0.0
  0
LINE
  5
E2C2
100
AcDbEntity
  8
STUD
100
AcDbLine
 10
47.842964
 20
48.618282
 30
0.0
 11
47.842964
 21
65.038298
 31
0.0
  0
LINE
  5
E2C3
100
AcDbEntity
  8
STUD
100
AcDbLine
 10
43.87722
 20
31.892925
 30
0.0
 11
43.87722
 21
23.301419
 31
0.0
  0
LINE
  5
E2C4
100
AcDbEntity
  8
STUD
100
AcDbLine
 10
46.560673
 20
40.44007
 30
0.0
 11
46.560673
 21
37.752127
 31
0.0
  0
LINE
  5
E2C5
100
AcDbEntity
  8
STUD
100
AcDbLine
 10
44.811322
 20
39.430082
 30
0.0
 11
44.811322
 21
38.762115
 31
0.0
  0
LINE
  5
E2C6
100
AcDbEntity
  8
STUD
100
AcDbLine
 10
43.91182
 20
31.872949
 30
0.0
 11
43.91182
 21
23.281443
 31
0.0
  0
LINE
  5
E2C7
100
AcDbEntity
  8
STUD
100
AcDbLine
 10
46.042283
 20
40.140778
 30
0.0
 11
46.042283
 21
38.051419
 31
0.0
  0
LINE
  5
E2C8
100
AcDbEntity
  8
STUD
100
AcDbLine
 10
46.498173
 20
40.403986
 30
0.0
 11
46.498173
 21
37.788211
 31
0.0
  0
LINE
  5
E2C9
100
AcDbEntity
  8
STUD
100
AcDbLine
 10
32.641766
 20
22.379718
 30
0.0
 11
32.641766
 21
16.456616
 31
0.0
  0
LINE
  5
E2CA
100
AcDbEntity
  8
STUD
100
AcDbLine
 10
32.185877
 20
22.642925
 30
0.0
 11
32.185877
 21
16.193509
 31
0.0
  0
LINE
  5
E2CB
100
AcDbEntity
  8
STUD
100
AcDbLine
 10
30.954915
 20
23.353621
 30
0.0
 11
30.954915
 21
17.459002
 31
0.0
  0
LINE
  5
E2CC
100
AcDbEntity
  8
STUD
100
AcDbLine
 10
32.704266
 20
22.343633
 30
0.0
 11
32.704266
 21
16.492686
 31
0.0
  0
LINE
  5
E2CD
100
AcDbEntity
  8
STUD
100
AcDbLine
 10
33.986557
 20
25.478302
 30
0.0
 11
33.986557
 21
26.978302
 31
0.0
  0
LINE
  5
E2CE
100
AcDbEntity
  8
STUD
100
AcDbLine
 10
33.986557
 20
29.011796
 30
0.0
 11
33.986557
 21
33.180402
 31
0.0
  0
LINE
  5
E2CF
100
AcDbEntity
  8
STUD
100
AcDbLine
 10
32.704266
 20
27.466541
 30
0.0
 11
32.704266
 21
26.241033
 31
0.0
  0
LINE
  5
E2D0
100
AcDbEntity
  8
TRACK
100
AcDbLine
 10
30.336486
 20
31.119165
 30
0.0
 11
37.776949
 21
35.414918
 31
0.0
  0
LINE
  5
E2D1
100
AcDbEntity
  8
TRACK
100
AcDbLine
 10
23.960495
 20
27.391852
 30
0.0
 11
20.119887
 21
25.174476
 31
0.0
  0
POLYLINE
  5
E2F4
100
AcDbEntity
  8
JOIST
100
AcDb2dPolyline
 66
     1
 10
0.0
 20
0.0
 30
0.0
  0
VERTEX
  5
E2F5
100
AcDbEntity
  8
JOIST
100
AcDbVertex
100
AcDb2dVertex
 10
22.87637
 20
28.017771
 30
0.0
 42
-0.57735
  0
VERTEX
  5
E2F6
100
AcDbEntity
  8
JOIST
100
AcDbVertex
100
AcDb2dVertex
 10
22.78262
 20
28.071898
 30
0.0
  0
VERTEX
  5
E2F7
100
AcDbEntity
  8
JOIST
100
AcDbVertex
100
AcDb2dVertex
 10
22.78262
 20
28.526145
 30
0.0
  0
VERTEX
  5
E2F8
100
AcDbEntity
  8
JOIST
100
AcDbVertex
100
AcDb2dVertex
 10
22.81722
 20
28.546121
 30
0.0
  0
SEQEND
  5
E2F9
100
AcDbEntity
  8
JOIST
  0
POLYLINE
  5
E300
100
AcDbEntity
  8
JOIST
100
AcDb2dPolyline
 66
     1
 10
0.0
 20
0.0
 30
0.0
  0
VERTEX
  5
E301
100
AcDbEntity
  8
JOIST
100
AcDbVertex
100
AcDb2dVertex
 10
23.26976
 20
28.284847
 30
0.0
  0
VERTEX
  5
E302
100
AcDbEntity
  8
JOIST
100
AcDbVertex
100
AcDb2dVertex
 10
24.141362
 20
28.788067
 30
0.0
 42
0.267949
  0
VERTEX
  5
E303
100
AcDbEntity
  8
JOIST
100
AcDbVertex
100
AcDb2dVertex
 10
24.155312
 20
28.812229
 30
0.0
  0
VERTEX
  5
E304
100
AcDbEntity
  8
JOIST
100
AcDbVertex
100
AcDb2dVertex
 10
24.155312
 20
32.608621
 30
0.0
  0
SEQEND
  5
E305
100
AcDbEntity
  8
JOIST
  0
LINE
  5
E308
100
AcDbEntity
  8
TRACK
100
AcDbLine
 10
23.10072
 20
28.382443
 30
0.0
 11
24.155312
 21
28.991312
 31
0.0
  0
LINE
  5
E309
100
AcDbEntity
  8
TRACK
100
AcDbLine
 10
23.03822
 20
28.418527
 30
0.0
 11
24.155312
 21
29.06348
 31
0.0
  0
LINE
  5
E30A
100
AcDbEntity
  8
TRACK
100
AcDbLine
 10
29.088674
 20
31.83959
 30
0.0
 11
36.639027
 21
36.198788
 31
0.0
  0
LINE
  5
E30B
100
AcDbEntity
  8
TRACK
100
AcDbLine
 10
29.026174
 20
31.875674
 30
0.0
 11
36.639027
 21
36.270957
 31
0.0
  0
LINE
  5
E30E
100
AcDbEntity
  8
STUD
100
AcDbLine
 10
47.842964
 20
25.229657
 30
0.0
 11
47.842964
 21
29.603302
 31
0.0
  0
LINE
  5
E312
100
AcDbEntity
  8
JOIST
100
AcDbLine
 10
44.189486
 20
23.121132
 30
0.0
 11
25.180286
 21
34.096099
 31
0.0
  0
LINE
  5
E314
100
AcDbEntity
  8
JOIST
100
AcDbLine
 10
42.844437
 20
22.344865
 30
0.0
 11
23.835495
 21
33.319683
 31
0.0
  0
LINE
  5
E315
100
AcDbEntity
  8
JOIST
100
AcDbLine
 10
42.906949
 20
22.380943
 30
0.0
 11
23.897995
 21
33.355767
 31
0.0
  0
LINE
  5
E31A
100
AcDbEntity
  8
STUD
100
AcDbLine
 10
43.48383
 20
23.528542
 30
0.0
 11
43.48383
 21
32.120049
 31
0.0
  0
LINE
  5
E31B
100
AcDbEntity
  8
JOIST
100
AcDbLine
 10
39.07215
 20
20.167772
 30
0.0
 11
24.141362
 21
28.788067
 31
0.0
  0
LINE
  5
E31C
100
AcDbEntity
  8
JOIST
100
AcDbLine
 10
39.100055
 20
20.183877
 30
0.0
 11
24.155312
 21
28.812229
 31
0.0
  0
LINE
  5
E31D
100
AcDbEntity
  8
JOIST
100
AcDbLine
 10
38.200381
 20
19.664649
 30
0.0
 11
22.81722
 21
28.546121
 31
0.0
  0
LINE
  5
E32B
100
AcDbEntity
  8
JOIST
100
AcDbLine
 10
52.059452
 20
27.663111
 30
0.0
 11
36.673627
 21
36.546121
 31
0.0
  0
LINE
  5
E32D
100
AcDbEntity
  8
JOIST
100
AcDbLine
 10
52.931221
 20
28.166234
 30
0.0
 11
37.997768
 21
36.788067
 31
0.0
  0
LINE
  5
E32E
100
AcDbEntity
  8
JOIST
100
AcDbLine
 10
52.959126
 20
28.182339
 30
0.0
 11
38.011718
 21
36.812229
 31
0.0
  0
LINE
  5
E32F
100
AcDbEntity
  8
STUD
100
AcDbLine
 10
57.340237
 20
31.528542
 30
0.0
 11
57.340237
 21
40.120049
 31
0.0
  0
LINE
  5
E334
100
AcDbEntity
  8
JOIST
100
AcDbLine
 10
65.918523
 20
35.661573
 30
0.0
 11
50.530033
 21
44.546121
 31
0.0
  0
LINE
  5
E335
100
AcDbEntity
  8
JOIST
100
AcDbLine
 10
66.790292
 20
36.164696
 30
0.0
 11
51.854175
 21
44.788067
 31
0.0
  0
LINE
  5
E336
100
AcDbEntity
  8
JOIST
100
AcDbLine
 10
66.818197
 20
36.180801
 30
0.0
 11
51.868125
 21
44.812229
 31
0.0
  0
LINE
  5
E33C
100
AcDbEntity
  8
JOIST
100
AcDbLine
 10
58.048557
 20
31.119593
 30
0.0
 11
39.036693
 21
42.096099
 31
0.0
  0
LINE
  5
E33D
100
AcDbEntity
  8
STUD
100
AcDbLine
 10
61.69937
 20
33.226581
 30
0.0
 11
61.69937
 21
37.603302
 31
0.0
  0
LINE
  5
E341
100
AcDbEntity
  8
JOIST
100
AcDbLine
 10
56.76602
 20
30.379405
 30
0.0
 11
37.754401
 21
41.355767
 31
0.0
  0
LINE
  5
E342
100
AcDbEntity
  8
JOIST
100
AcDbLine
 10
56.703508
 20
30.343327
 30
0.0
 11
37.691901
 21
41.319683
 31
0.0
  0
POLYLINE
  5
E4DA
100
AcDbEntity
  8
JOIST
100
AcDb2dPolyline
 66
     1
 10
0.0
 20
0.0
 30
0.0
  0
VERTEX
  5
E4DB
100
AcDbEntity
  8
JOIST
100
AcDbVertex
100
AcDb2dVertex
 10
37.126166
 20
36.284847
 30
0.0
  0
VERTEX
  5
E4DC
100
AcDbEntity
  8
JOIST
100
AcDbVertex
100
AcDb2dVertex
 10
37.997768
 20
36.788067
 30
0.0
 42
0.267949
  0
VERTEX
  5
E4DD
100
AcDbEntity
  8
JOIST
100
AcDbVertex
100
AcDb2dVertex
 10
38.011718
 20
36.812229
 30
0.0
  0
VERTEX
  5
E4DE
100
AcDbEntity
  8
JOIST
100
AcDbVertex
100
AcDb2dVertex
 10
38.011718
 20
40.608621
 30
0.0
 42
0.57735
  0
SEQEND
  5
E4DF
100
AcDbEntity
  8
JOIST
  0
POLYLINE
  5
E4E4
100
AcDbEntity
  8
JOIST
100
AcDb2dPolyline
 66
     1
 10
0.0
 20
0.0
 30
0.0
  0
VERTEX
  5
E4E5
100
AcDbEntity
  8
JOIST
100
AcDbVertex
100
AcDb2dVertex
 10
36.732777
 20
36.017771
 30
0.0
 42
-0.57735
  0
VERTEX
  5
E4E6
100
AcDbEntity
  8
JOIST
100
AcDbVertex
100
AcDb2dVertex
 10
36.639027
 20
36.071898
 30
0.0
  0
VERTEX
  5
E4E7
100
AcDbEntity
  8
JOIST
100
AcDbVertex
100
AcDb2dVertex
 10
36.639027
 20
36.526145
 30
0.0
  0
VERTEX
  5
E4E8
100
AcDbEntity
  8
JOIST
100
AcDbVertex
100
AcDb2dVertex
 10
36.673627
 20
36.546121
 30
0.0
  0
SEQEND
  5
E4E9
100
AcDbEntity
  8
JOIST
  0
LINE
  5
E4EA
100
AcDbEntity
  8
TRACK
100
AcDbLine
 10
37.816901
 20
35.391852
 30
0.0
 11
30.376439
 21
31.096099
 31
0.0
  0
LINE
  5
E4EB
100
AcDbEntity
  8
TRACK
100
AcDbLine
 10
44.192893
 20
39.119165
 30
0.0
 11
51.633355
 21
43.414918
 31
0.0
  0
LINE
  5
E4EC
100
AcDbEntity
  8
TRACK
100
AcDbLine
 10
36.957126
 20
36.382443
 30
0.0
 11
38.011718
 21
36.991312
 31
0.0
  0
LINE
  5
E4ED
100
AcDbEntity
  8
TRACK
100
AcDbLine
 10
36.894626
 20
36.418527
 30
0.0
 11
38.011718
 21
37.06348
 31
0.0
  0
LINE
  5
E4EE
100
AcDbEntity
  8
STUD
100
AcDbLine
 10
47.842964
 20
37.011796
 30
0.0
 11
47.842964
 21
41.180402
 31
0.0
  0
LINE
  5
E4EF
100
AcDbEntity
  8
STUD
100
AcDbLine
 10
46.498173
 20
30.379718
 30
0.0
 11
46.498173
 21
24.45354
 31
0.0
  0
LINE
  5
E4F0
100
AcDbEntity
  8
STUD
100
AcDbLine
 10
46.042283
 20
30.642925
 30
0.0
 11
46.042283
 21
24.190433
 31
0.0
  0
LINE
  5
E4F1
100
AcDbEntity
  8
STUD
100
AcDbLine
 10
44.811322
 20
31.353621
 30
0.0
 11
44.811322
 21
23.480011
 31
0.0
  0
LINE
  5
E4F2
100
AcDbEntity
  8
STUD
100
AcDbLine
 10
46.560673
 20
30.343633
 30
0.0
 11
46.560673
 21
24.48961
 31
0.0
  0
LINE
  5
E4F3
100
AcDbEntity
  8
TRACK
100
AcDbLine
 10
42.882581
 20
39.875674
 30
0.0
 11
50.495433
 21
44.270957
 31
0.0
  0
LINE
  5
E4F4
100
AcDbEntity
  8
TRACK
100
AcDbLine
 10
42.945081
 20
39.83959
 30
0.0
 11
50.495433
 21
44.198788
 31
0.0
  0
LINE
  5
E4F5
100
AcDbEntity
  8
STUD
100
AcDbLine
 10
61.69937
 20
41.478302
 30
0.0
 11
61.69937
 21
42.978302
 31
0.0
  0
LINE
  5
E4F6
100
AcDbEntity
  8
STUD
100
AcDbLine
 10
57.340237
 20
54.101535
 30
0.0
 11
57.340237
 21
70.521551
 31
0.0
  0
LINE
  5
E4F7
100
AcDbEntity
  8
STUD
100
AcDbLine
 10
60.354579
 20
38.379718
 30
0.0
 11
60.354579
 21
32.450464
 31
0.0
  0
LINE
  5
E4F8
100
AcDbEntity
  8
STUD
100
AcDbLine
 10
59.89869
 20
38.642925
 30
0.0
 11
59.89869
 21
32.187357
 31
0.0
  0
LINE
  5
E4F9
100
AcDbEntity
  8
STUD
100
AcDbLine
 10
57.768226
 20
39.872949
 30
0.0
 11
57.768226
 21
31.281443
 31
0.0
  0
LINE
  5
E4FA
100
AcDbEntity
  8
STUD
100
AcDbLine
 10
58.667728
 20
39.353621
 30
0.0
 11
58.667728
 21
31.476934
 31
0.0
  0
LINE
  5
E4FB
100
AcDbEntity
  8
STUD
100
AcDbLine
 10
60.417079
 20
38.343633
 30
0.0
 11
60.417079
 21
32.486534
 31
0.0
  0
LINE
  5
E4FC
100
AcDbEntity
  8
STUD
100
AcDbLine
 10
57.733626
 20
39.892925
 30
0.0
 11
57.733626
 21
31.301419
 31
0.0
  0
LINE
  5
E4FD
100
AcDbEntity
  8
STUD
100
AcDbLine
 10
61.69937
 20
45.011796
 30
0.0
 11
61.69937
 21
49.180402
 31
0.0
  0
LINE
  5
E4FE
100
AcDbEntity
  8
STUD
100
AcDbLine
 10
60.417079
 20
43.466541
 30
0.0
 11
60.417079
 21
42.241033
 31
0.0
  0
LINE
  5
E4FF
100
AcDbEntity
  8
STUD
100
AcDbLine
 10
46.560673
 20
35.466541
 30
0.0
 11
46.560673
 21
34.241033
 31
0.0
  0
LINE
  5
E500
100
AcDbEntity
  8
STUD
100
AcDbLine
 10
47.842964
 20
33.478302
 30
0.0
 11
47.842964
 21
34.978302
 31
0.0
  0
POLYLINE
  5
E52C
100
AcDbEntity
  8
JOIST
100
AcDb2dPolyline
 66
     1
 10
0.0
 20
0.0
 30
0.0
  0
VERTEX
  5
E52D
100
AcDbEntity
  8
JOIST
100
AcDbVertex
100
AcDb2dVertex
 10
50.589183
 20
44.017771
 30
0.0
 42
-0.57735
  0
VERTEX
  5
E52E
100
AcDbEntity
  8
JOIST
100
AcDbVertex
100
AcDb2dVertex
 10
50.495433
 20
44.071898
 30
0.0
  0
VERTEX
  5
E52F
100
AcDbEntity
  8
JOIST
100
AcDbVertex
100
AcDb2dVertex
 10
50.495433
 20
44.526145
 30
0.0
  0
VERTEX
  5
E530
100
AcDbEntity
  8
JOIST
100
AcDbVertex
100
AcDb2dVertex
 10
50.530033
 20
44.546121
 30
0.0
  0
SEQEND
  5
E531
100
AcDbEntity
  8
JOIST
  0
POLYLINE
  5
E538
100
AcDbEntity
  8
JOIST
100
AcDb2dPolyline
 66
     1
 10
0.0
 20
0.0
 30
0.0
  0
VERTEX
  5
E539
100
AcDbEntity
  8
JOIST
100
AcDbVertex
100
AcDb2dVertex
 10
50.982573
 20
44.284847
 30
0.0
  0
VERTEX
  5
E53A
100
AcDbEntity
  8
JOIST
100
AcDbVertex
100
AcDb2dVertex
 10
51.854175
 20
44.788067
 30
0.0
 42
0.267949
  0
VERTEX
  5
E53B
100
AcDbEntity
  8
JOIST
100
AcDbVertex
100
AcDb2dVertex
 10
51.868125
 20
44.812229
 30
0.0
  0
VERTEX
  5
E53C
100
AcDbEntity
  8
JOIST
100
AcDbVertex
100
AcDb2dVertex
 10
51.868125
 20
48.608621
 30
0.0
  0
SEQEND
  5
E53D
100
AcDbEntity
  8
JOIST
  0
LINE
  5
E54E
100
AcDbEntity
  8
TRACK
100
AcDbLine
 10
56.801487
 20
47.83959
 30
0.0
 11
64.35184
 21
52.198788
 31
0.0
  0
LINE
  5
E54F
100
AcDbEntity
  8
TRACK
100
AcDbLine
 10
56.738987
 20
47.875674
 30
0.0
 11
64.35184
 21
52.270957
 31
0.0
  0
LINE
  5
E550
100
AcDbEntity
  8
TRACK
100
AcDbLine
 10
58.049299
 20
47.119165
 30
0.0
 11
65.489762
 21
51.414918
 31
0.0
  0
LINE
  5
E551
100
AcDbEntity
  8
TRACK
100
AcDbLine
 10
51.673308
 20
43.391852
 30
0.0
 11
44.232845
 21
39.096099
 31
0.0
  0
LINE
  5
E552
100
AcDbEntity
  8
TRACK
100
AcDbLine
 10
50.813533
 20
44.382443
 30
0.0
 11
51.868125
 21
44.991312
 31
0.0
  0
LINE
  5
E553
100
AcDbEntity
  8
TRACK
100
AcDbLine
 10
50.751033
 20
44.418527
 30
0.0
 11
51.868125
 21
45.06348
 31
0.0
  0
LINE
  5
E581
100
AcDbEntity
  8
TRACK
100
AcDbLine
 10
65.529714
 20
51.391852
 30
0.0
 11
58.089252
 21
47.096099
 31
0.0
  0
LINE
  5
E588
100
AcDbEntity
  8
STUD
100
AcDbLine
 10
61.69937
 20
56.618282
 30
0.0
 11
61.69937
 21
73.038298
 31
0.0
  0
LINE
  5
E589
100
AcDbEntity
  8
STUD
100
AcDbLine
 10
60.354579
 20
48.403986
 30
0.0
 11
60.354579
 21
45.788211
 31
0.0
  0
LINE
  5
E58A
100
AcDbEntity
  8
STUD
100
AcDbLine
 10
59.89869
 20
48.140778
 30
0.0
 11
59.89869
 21
46.051419
 31
0.0
  0
LINE
  5
E58B
100
AcDbEntity
  8
STUD
100
AcDbLine
 10
58.667728
 20
47.430082
 30
0.0
 11
58.667728
 21
46.762115
 31
0.0
  0
LINE
  5
E58C
100
AcDbEntity
  8
STUD
100
AcDbLine
 10
60.417079
 20
48.44007
 30
0.0
 11
60.417079
 21
45.752127
 31
0.0
  0
LINE
  5
E698
100
AcDbEntity
  8
JOIST
100
AcDbLine
 10
67.357426
 20
40.264453
 30
0.0
 11
51.610808
 21
49.355767
 31
0.0
  0
LINE
  5
E699
100
AcDbEntity
  8
JOIST
100
AcDbLine
 10
67.221807
 20
41.823415
 30
0.0
 11
52.893099
 21
50.096099
 31
0.0
  0
LINE
  5
E69A
100
AcDbEntity
  8
JOIST
100
AcDbLine
 10
67.364036
 20
40.188468
 30
0.0
 11
51.548308
 21
49.319683
 31
0.0
  0
POLYLINE
  5
EE5B
100
AcDbEntity
  8
STEEL
100
AcDb2dPolyline
 66
     1
 10
0.0
 20
0.0
 30
0.0
  0
VERTEX
  5
EE5C
100
AcDbEntity
  8
STEEL
100
AcDbVertex
100
AcDb2dVertex
 10
452.58445
 20
375.152039
 30
0.0
  0
SEQEND
  5
EE5D
100
AcDbEntity
  8
STEEL
  0
INSERT
  5
EE5E
100
AcDbEntity
  8
0
100
AcDbBlockReference
  2
CEMCO_BLANK
 10
-458.830198
 20
325.6031
 30
0.0
 41
0.5
 42
0.5
 43
-0.5
210
0.0
220
0.0
230
-1.0
  0
POLYLINE
  5
F1C0
100
AcDbEntity
  8
TRACK
100
AcDb2dPolyline
 66
     1
 10
0.0
 20
0.0
 30
0.0
  0
VERTEX
  5
F1C1
100
AcDbEntity
  8
TRACK
100
AcDbVertex
100
AcDb2dVertex
 10
302.731286
 20
195.235897
 30
0.0
  0
SEQEND
  5
F1C2
100
AcDbEntity
  8
TRACK
  0
ELLIPSE
  5
F27A
100
AcDbEntity
  8
FASTENER
100
AcDbEllipse
 10
19.545507
 20
29.273897
 30
0.0
 11
0.0765465544619697
 21
0.132582521472475
 31
0.0
210
0.0
220
0.0
230
-1.0
 40
0.57735
 41
0.0000000000000029
 42
6.283185307179603
  0
LINE
  5
F27B
100
AcDbEntity
  8
FASTENER
100
AcDbLine
 10
19.437253
 20
29.211397
 30
0.0
 11
19.65376
 21
29.336397
 31
0.0
  0
LINE
  5
F27C
100
AcDbEntity
  8
FASTENER
100
AcDbLine
 10
19.544277
 20
29.398891
 30
0.0
 11
19.546736
 21
29.148903
 31
0.0
  0
ELLIPSE
  5
F27D
100
AcDbEntity
  8
FASTENER
100
AcDbEllipse
 10
33.401913
 20
37.273897
 30
0.0
 11
0.0765465544619697
 21
0.132582521472475
 31
0.0
210
0.0
220
0.0
230
-1.0
 40
0.57735
 41
0.0000000000000231
 42
6.283185307179623
  0
LINE
  5
F27E
100
AcDbEntity
  8
FASTENER
100
AcDbLine
 10
33.29366
 20
37.211397
 30
0.0
 11
33.510166
 21
37.336397
 31
0.0
  0
LINE
  5
F27F
100
AcDbEntity
  8
FASTENER
100
AcDbLine
 10
33.400683
 20
37.398891
 30
0.0
 11
33.403143
 21
37.148903
 31
0.0
  0
ELLIPSE
  5
F280
100
AcDbEntity
  8
FASTENER
100
AcDbEllipse
 10
47.25832
 20
45.273897
 30
0.0
 11
0.0765465544619697
 21
0.132582521472475
 31
0.0
210
0.0
220
0.0
230
-1.0
 40
0.57735
 41
0.0000000000000231
 42
6.283185307179623
  0
LINE
  5
F281
100
AcDbEntity
  8
FASTENER
100
AcDbLine
 10
47.150066
 20
45.211397
 30
0.0
 11
47.366573
 21
45.336397
 31
0.0
  0
LINE
  5
F282
100
AcDbEntity
  8
FASTENER
100
AcDbLine
 10
47.25709
 20
45.398891
 30
0.0
 11
47.259549
 21
45.148903
 31
0.0
  0
ELLIPSE
  5
F286
100
AcDbEntity
  8
FASTENER
100
AcDbEllipse
 10
19.545507
 20
31.512563
 30
0.0
 11
0.0382732772309849
 21
0.0662912607362375
 31
0.0
210
0.0
220
0.0
230
-1.0
 40
0.57735
 41
0.0000000000000231
 42
6.283185307179623
  0
LINE
  5
F287
100
AcDbEntity
  8
FASTENER
100
AcDbLine
 10
19.437253
 20
31.450063
 30
0.0
 11
19.65376
 21
31.575063
 31
0.0
  0
LINE
  5
F288
100
AcDbEntity
  8
FASTENER
100
AcDbLine
 10
19.544277
 20
31.637557
 30
0.0
 11
19.546736
 21
31.387569
 31
0.0
  0
ELLIPSE
  5
F289
100
AcDbEntity
  8
FASTENER
100
AcDbEllipse
 10
33.401913
 20
39.512563
 30
0.0
 11
0.0382732772309849
 21
0.0662912607362375
 31
0.0
210
0.0
220
0.0
230
-1.0
 40
0.57735
 41
0.0000000000000231
 42
6.283185307179623
  0
LINE
  5
F28A
100
AcDbEntity
  8
FASTENER
100
AcDbLine
 10
33.29366
 20
39.450063
 30
0.0
 11
33.510166
 21
39.575063
 31
0.0
  0
LINE
  5
F28B
100
AcDbEntity
  8
FASTENER
100
AcDbLine
 10
33.400683
 20
39.637557
 30
0.0
 11
33.403143
 21
39.387569
 31
0.0
  0
ELLIPSE
  5
F28C
100
AcDbEntity
  8
FASTENER
100
AcDbEllipse
 10
47.25832
 20
47.512563
 30
0.0
 11
0.0382732772309849
 21
0.0662912607362375
 31
0.0
210
0.0
220
0.0
230
-1.0
 40
0.57735
 41
0.0000000000000231
 42
6.283185307179623
  0
LINE
  5
F28D
100
AcDbEntity
  8
FASTENER
100
AcDbLine
 10
47.150066
 20
47.450063
 30
0.0
 11
47.366573
 21
47.575063
 31
0.0
  0
LINE
  5
F28E
100
AcDbEntity
  8
FASTENER
100
AcDbLine
 10
47.25709
 20
47.637557
 30
0.0
 11
47.259549
 21
47.387569
 31
0.0
  0
ELLIPSE
  5
F28F
100
AcDbEntity
  8
FASTENER
100
AcDbEllipse
 10
61.114726
 20
55.512563
 30
0.0
 11
0.0382732772309849
 21
0.0662912607362375
 31
0.0
210
0.0
220
0.0
230
-1.0
 40
0.57735
 41
0.0000000000000231
 42
6.283185307179623
  0
LINE
  5
F290
100
AcDbEntity
  8
FASTENER
100
AcDbLine
 10
61.006473
 20
55.450063
 30
0.0
 11
61.222979
 21
55.575063
 31
0.0
  0
LINE
  5
F291
100
AcDbEntity
  8
FASTENER
100
AcDbLine
 10
61.113496
 20
55.637557
 30
0.0
 11
61.115956
 21
55.387569
 31
0.0
  0
LEADER
  5
F2AC
100
AcDbEntity
  8
D-TEXT
100
AcDbLeader
  3
LEADER
 73
     0
 40
1.0
 41
17.172414
 76
     2
 10
61.222979
 20
51.356037
 30
0.0
 10
73.642144
 20
54.325245
 30
0.0
 77
   256
  0
MTEXT
  5
F2AD
100
AcDbEntity
  8
D-TEXT
100
AcDbMText
 10
72.745282
 20
55.584529
 30
0.0
 40
2.0
 41
0.0
 71
     4
 72
     1
  1
{(2) SCREWS}\P{ EA. STUD}
  7
ARCH
  0
LEADER
  5
F2AF
100
AcDbEntity
  8
D-TEXT
100
AcDbLeader
  3
LEADER
 76
     2
 10
61.222979
 20
55.575063
 30
0.0
 10
73.642144
 20
54.325245
 30
0.0
 77
   256
  0
LEADER
  5
F2B9
100
AcDbEntity
  8
D-TEXT
100
AcDbLeader
  3
LEADER
 73
     0
 75
     1
 40
1.0
 41
6.448276
 76
     3
 10
27.756561
 20
36.363717
 30
0.0
 10
16.999049
 20
40.191982
 30
0.0
 10
14.749049
 20
40.191982
 30
0.0
 77
   256
  0
MTEXT
  5
F2BA
100
AcDbEntity
  8
D-TEXT
100
AcDbMText
 10
13.749049
 20
40.191982
 30
0.0
 40
2.0
 41
0.0
 71
     6
 72
     1
  1
LEDGER
  7
ARCH
  0
TEXT
  5
F71B
100
AcDbEntity
  8
LINK
 62
     1
100
AcDbText
 10
-21.82204
 20
23.008004
 30
0.0
 40
1.5
  1
drawing list
  7
BLOCK
 72
     1
 11
-14.04
 21
23.008004
 31
0.0
100
AcDbText
1001
PE_URL
1000
Cemco_drawings.htm
  0
TEXT
  5
F71C
100
AcDbEntity
  8
LINK
 62
     1
100
AcDbText
 10
-16.66263
 20
11.008004
 30
0.0
 40
1.5
  1
home
  7
BLOCK
 72
     1
 11
-14.04
 21
11.008004
 31
0.0
100
AcDbText
1001
PE_URL
1000
Cemco_drawings.htm
  0
TEXT
  5
F71D
100
AcDbEntity
  8
LINK
 62
     1
100
AcDbText
 10
-26.371285
 20
17.008004
 30
0.0
 40
1.5
  1
Assembly drawing 10
  7
BLOCK
 72
     1
 11
-14.04
 21
17.008004
 31
0.0
100
AcDbText
1001
PE_URL
1000
Cemco_drawings.htm
  0
TEXT
  5
F71E
100
AcDbEntity
  8
LINK
 62
     1
100
AcDbText
 10
-25.718985
 20
14.008004
 30
0.0
 40
1.5
  1
Cemco drawing list
  7
BLOCK
 72
     1
 11
-14.04
 21
14.008004
 31
0.0
100
AcDbText
1001
PE_URL
1000
Cemco_drawings.htm
  0
TEXT
  5
F72D
100
AcDbEntity
  8
LINK
 62
     1
100
AcDbText
 10
-25.727412
 20
20.008004
 30
0.0
 40
1.5
  1
Assembly drawing 9
  7
BLOCK
 72
     1
 11
-14.04
 21
20.008004
 31
0.0
100
AcDbText
1001
PE_URL
1000
6020-009.dwf
  0
MTEXT
  5
F732
100
AcDbEntity
  8
LINK
100
AcDbMText
 10
-8.502297
 20
2.198246
 30
0.0
 40
1.5
 41
0.0
 71
     7
 72
     1
  1
{Back}\P{Button}
  7
ARCH
  0
LEADER
  5
F733
100
AcDbEntity
  8
LINK
100
AcDbLeader
  3
LEADER
 72
     1
 73
     0
 74
     0
 40
0.125
 41
0.556034
 76
     7
 10
-0.333038
 20
6.676278
 30
0.0
 10
-7.857271
 20
9.611602
 30
0.0
 10
-9.996674
 20
9.820429
 30
0.0
 10
-14.131116
 20
8.438908
 30
0.0
 10
-13.284303
 20
3.389212
 30
0.0
 10
-11.495456
 20
2.797762
 30
0.0
 10
-8.728919
 20
2.997103
 30
0.0
 77
   256
1001
PE_URL
1000
6020-009.dwf
  0
INSERT
  5
F734
100
AcDbEntity
  8
D-TEXT
100
AcDbBlockReference
 66
     1
  2
DETAIL_TITLE
 10
0.0
 20
0.0
 30
0.0
 41
12.0
 42
12.0
 43
12.0
1001
PE_URL
1000
6020-009.dwf
  0
ATTRIB
  5
F735
100
AcDbEntity
  8
D-TEXT
100
AcDbText
 10
13.962231
 20
7.801712
 30
0.0
 40
3.0
  1
RECESS CEILING WITH LEDGER
  7
BLOCK
100
AcDbAttribute
  2
DETAIL_DISCRIPTION
 70
     0
  0
ATTRIB
  5
F736
100
AcDbEntity
  8
D-TEXT
100
AcDbText
 10
1.019563
 20
4.731115
 30
0.0
 40
3.0
  1
D-23
  7
BLD
 72
     1
 11
6.231115
 21
6.231115
 31
0.0
100
AcDbAttribute
  2
DETAIL_NO
 70
     0
 74
     2
  0
ATTRIB
  5
F737
100
AcDbEntity
  8
D-TEXT
100
AcDbText
 10
13.962231
 20
2.064588
 30
0.0
 40
2.25
  1
N. T. Scale 1" = 1'0"
  7
BLOCK
100
AcDbAttribute
  2
SCALE
 70
     0
  0
SEQEND
  5
F738
100
AcDbEntity
  8
D-TEXT
  0
POLYLINE
  5
F741
100
AcDbEntity
  8
LAYOUT
100
AcDb2dPolyline
 66
     1
 10
0.0
 20
0.0
 30
0.0
 70
     1
  0
VERTEX
  5
F742
100
AcDbEntity
  8
LAYOUT
100
AcDbVertex
100
AcDb2dVertex
 10
0.0
 20
0.0
 30
0.0
  0
VERTEX
  5
F743
100
AcDbEntity
  8
LAYOUT
100
AcDbVertex
100
AcDb2dVertex
 10
123.24
 20
0.0
 30
0.0
  0
VERTEX
  5
F744
100
AcDbEntity
  8
LAYOUT
100
AcDbVertex
100
AcDb2dVertex
 10
123.24
 20
95.16
 30
0.0
  0
VERTEX
  5
F745
100
AcDbEntity
  8
LAYOUT
100
AcDbVertex
100
AcDb2dVertex
 10
95.16
 20
95.16
 30
0.0
  0
VERTEX
  5
F746
100
AcDbEntity
  8
LAYOUT
100
AcDbVertex
100
AcDb2dVertex
 10
95.16
 20
123.24
 30
0.0
  0
VERTEX
  5
F747
100
AcDbEntity
  8
LAYOUT
100
AcDbVertex
100
AcDb2dVertex
 10
0.0
 20
123.24
 30
0.0
  0
SEQEND
  5
F748
100
AcDbEntity
  8
LAYOUT
  0
POLYLINE
  5
F7D4
100
AcDbEntity
  8
_KTI_CONTROL
 60
     1
100
AcDb3dPolyline
 66
     1
 10
0.0
 20
0.0
 30
0.0
 70
     8
1001
_KTI_ARCHT
1070
 12000
1000
ENVIRONMENT
1070
 10003
1000
6020-023
1070
 20000
1000
standard
1070
 20001
1000
f:\archt
1070
 20003
1000
j:\archt
1070
 20002
1000
f:\archt\tmp
1070
 20004
1002
{
1000
f:\archt\blks
1000
f:\archt\blks3d
1000
h:\archt\blks
1000
h:\archt\blks3d
1000
j:\archt\blks
1000
j:\archt\blks3d
1002
}
1070
 20005
1002
{
1000
f:\archt\slds
1002
}
1070
 20006
1002
{
1000
f:\archt\dclswin
1002
}
1070
 20007
1002
{
1000
f:\archt\docs
1002
}
1070
 20008
1002
{
1000
f:\archt\help
1002
}
  0
VERTEX
  5
F7D5
100
AcDbEntity
  8
_KTI_CONTROL
100
AcDbVertex
100
AcDb3dPolylineVertex
 10
0.0
 20
0.0
 30
0.0
 70
    32
  0
VERTEX
  5
F7D6
100
AcDbEntity
  8
_KTI_CONTROL
100
AcDbVertex
100
AcDb3dPolylineVertex
 10
0.0
 20
0.0
 30
0.0
 70
    32
  0
SEQEND
  5
F7D7
100
AcDbEntity
  8
_KTI_CONTROL
  0
POLYLINE
  5
F7D8
100
AcDbEntity
  8
_KTI_CONTROL
 60
     1
100
AcDb3dPolyline
 66
     1
 10
0.0
 20
0.0
 30
0.0
 70
     8
1001
_KTI_ARCHT
1070
 12000
1000
ARCHTVARS
1070
 10003
1000
6020-023
1070
 12030
1000
in
1070
 12020
1070
     1
1070
 12021
1070
     0
1070
 12070
1070
     0
1070
 12071
1070
     1
1070
 12907
1070
     0
1070
 12072
1070
     2
1070
 12073
1070
    48
1070
 12074
1070
     0
1070
 12080
1070
     1
1070
 12092
1070
     1
1070
 12096
1070
     0
1070
 12095
1070
     0
1070
 12081
1070
     1
1070
 12082
1070
     1
1070
 12083
1070
     1
1070
 12084
1070
     1
1070
 12085
1070
     0
1070
 12086
1070
     1
1070
 12087
1070
     0
1070
 12088
1070
     0
1070
 12097
1070
     1
1070
 12089
1070
     4
1070
 12090
1070
     6
1070
 12091
1070
     1
1070
 12045
1000
standard
1070
 12046
1000

1070
 12047
1000
standard
1070
 12048
1000

1070
 12049
1000

1070
 12093
1070
     1
1070
 12094
1070
     1
1070
 12908
1070
     0
1070
 12909
1070
     0
1070
 12911
1070
     0
1070
 12910
1070
     0
1070
 12912
1070
     0
1070
 12098
1070
   640
1070
 12060
1002
{
1000

1000

1000

1000

1002
}
1070
 12904
1002
{
1070
     0
1070
     0
1070
     0
1070
     0
1070
     0
1002
}
1070
 12905
1002
{
1040
0.0
1040
0.0
1040
0.0
1040
0.0
1040
0.0
1002
}
1070
 12906
1002
{
1000

1000

1000

1000

1000

1002
}
1070
 12040
1002
{
1002
}
  0
VERTEX
  5
F7D9
100
AcDbEntity
  8
_KTI_CONTROL
100
AcDbVertex
100
AcDb3dPolylineVertex
 10
0.0
 20
0.0
 30
0.0
 70
    32
  0
VERTEX
  5
F7DA
100
AcDbEntity
  8
_KTI_CONTROL
100
AcDbVertex
100
AcDb3dPolylineVertex
 10
0.0
 20
0.0
 30
0.0
 70
    32
  0
SEQEND
  5
F7DB
100
AcDbEntity
  8
_KTI_CONTROL
  0
VIEWPORT
  5
F7A3
100
AcDbEntity
 67
     1
  8
0
100
AcDbViewport
 10
7.664385
 20
4.5
 30
0.0
 40
15.32877
 41
9.0
 68
    -1
 69
     1
1001
ACAD
1000
MVIEW
1002
{
1070
    16
1010
0.0
1020
0.0
1030
0.0
1010
0.0
1020
0.0
1030
1.0
1040
0.0
1040
9.0
1040
7.664385
1040
4.5
1040
50.0
1040
0.0
1040
0.0
1070
     0
1070
   100
1070
     1
1070
     1
1070
     0
1070
     0
1070
     0
1070
     1
1040
0.0
1040
0.0
1040
0.0
1040
0.125
1040
0.125
1040
1.0
1040
1.0
1070
     0
1002
{
1002
}
1002
}
  0
ENDSEC
  0
SECTION
  2
OBJECTS
  0
DICTIONARY
  5
C
100
AcDbDictionary
  3
ACAD_GROUP
350
D
  3
ACAD_MLINESTYLE
350
E
  0
DICTIONARY
  5
D
102
{ACAD_REACTORS
330
C
102
}
100
AcDbDictionary
  3
*A1
350
13B4
  3
*A2
350
13B5
  0
DICTIONARY
  5
E
102
{ACAD_REACTORS
330
C
102
}
100
AcDbDictionary
  3
STANDARD
350
13
  0
GROUP
  5
13B4
102
{ACAD_REACTORS
330
D
102
}
100
AcDbGroup
300

 70
     3
 71
     1
  0
GROUP
  5
13B5
102
{ACAD_REACTORS
330
D
102
}
100
AcDbGroup
300
stud_3p625x1p625x96_woleEnchala
 70
     3
 71
     1
  0
MLINESTYLE
  5
13
102
{ACAD_REACTORS
330
E
102
}
100
AcDbMlineStyle
  2
STANDARD
 70
     0
  3

 62
     0
 51
90.0
 52
90.0
 71
     2
 49
0.5
 62
   256
  6
BYLAYER
 49
-0.5
 62
   256
  6
BYLAYER
  0
ENDSEC
  0
EOF
