  0
SECTION
  2
HEADER
  9
$ACADVER
  1
AC1012
  9
$DWGCODEPAGE
  3
ansi_1252
  9
$INSBASE
 10
0.0
 20
0.0
 30
0.0
  9
$EXTMIN
 10
-23.642998
 20
-1.780816
 30
0.0
  9
$EXTMAX
 10
163.230826
 20
139.869168
 30
0.0
  9
$LIMMIN
 10
-36.0
 20
-42.0
  9
$LIMMAX
 10
36.0
 20
42.0
  9
$ORTHOMODE
 70
     1
  9
$REGENMODE
 70
     1
  9
$FILLMODE
 70
     1
  9
$QTEXTMODE
 70
     0
  9
$MIRRTEXT
 70
     1
  9
$DRAGMODE
 70
     2
  9
$LTSCALE
 40
4.0
  9
$OSMODE
 70
    39
  9
$ATTMODE
 70
     1
  9
$TEXTSIZE
 40
1.0
  9
$TRACEWID
 40
3.0
  9
$TEXTSTYLE
  7
ARCH
  9
$CLAYER
  8
JOIST
  9
$CELTYPE
  6
HIDDEN2
  9
$CECOLOR
 62
   256
  9
$CELTSCALE
 40
1.0
  9
$DELOBJ
 70
     1
  9
$DISPSILH
 70
     0
  9
$DIMSCALE
 40
8.0
  9
$DIMASZ
 40
0.1875
  9
$DIMEXO
 40
0.0625
  9
$DIMDLI
 40
0.375
  9
$DIMRND
 40
0.0
  9
$DIMDLE
 40
0.0
  9
$DIMEXE
 40
0.1875
  9
$DIMTP
 40
0.0
  9
$DIMTM
 40
0.0
  9
$DIMTXT
 40
0.125
  9
$DIMCEN
 40
0.1875
  9
$DIMTSZ
 40
0.0
  9
$DIMTOL
 70
     0
  9
$DIMLIM
 70
     0
  9
$DIMTIH
 70
     1
  9
$DIMTOH
 70
     1
  9
$DIMSE1
 70
     0
  9
$DIMSE2
 70
     0
  9
$DIMTAD
 70
     0
  9
$DIMZIN
 70
     0
  9
$DIMBLK
  1
OBLIQUE
  9
$DIMASO
 70
     1
  9
$DIMSHO
 70
     1
  9
$DIMPOST
  1

  9
$DIMAPOST
  1

  9
$DIMALT
 70
     0
  9
$DIMALTD
 70
     1
  9
$DIMALTF
 40
25.4
  9
$DIMLFAC
 40
1.0
  9
$DIMTOFL
 70
     0
  9
$DIMTVP
 40
0.0
  9
$DIMTIX
 70
     0
  9
$DIMSOXD
 70
     0
  9
$DIMSAH
 70
     1
  9
$DIMBLK1
  1
_OPEN90
  9
$DIMBLK2
  1
_OPEN90
  9
$DIMSTYLE
  2
LEADER
  9
$DIMCLRD
 70
     0
  9
$DIMCLRE
 70
     0
  9
$DIMCLRT
 70
     0
  9
$DIMTFAC
 40
1.0
  9
$DIMGAP
 40
0.125
  9
$DIMJUST
 70
     0
  9
$DIMSD1
 70
     0
  9
$DIMSD2
 70
     0
  9
$DIMTOLJ
 70
     0
  9
$DIMTZIN
 70
     0
  9
$DIMALTZ
 70
     0
  9
$DIMALTTZ
 70
     0
  9
$DIMFIT
 70
     1
  9
$DIMUPT
 70
     1
  9
$DIMUNIT
 70
     4
  9
$DIMDEC
 70
     4
  9
$DIMTDEC
 70
     2
  9
$DIMALTU
 70
     2
  9
$DIMALTTD
 70
     1
  9
$DIMTXSTY
  7
ARCH
  9
$DIMAUNIT
 70
     0
  9
$LUNITS
 70
     4
  9
$LUPREC
 70
     4
  9
$SKETCHINC
 40
12.0
  9
$FILLETRAD
 40
0.0
  9
$AUNITS
 70
     0
  9
$AUPREC
 70
     0
  9
$MENU
  1
.
  9
$ELEVATION
 40
0.0
  9
$PELEVATION
 40
0.0
  9
$THICKNESS
 40
0.0
  9
$LIMCHECK
 70
     0
  9
$BLIPMODE
 70
     0
  9
$CHAMFERA
 40
24.0
  9
$CHAMFERB
 40
24.0
  9
$CHAMFERC
 40
24.0
  9
$CHAMFERD
 40
0.785398
  9
$SKPOLY
 70
     0
  9
$TDCREATE
 40
2451091.638258912
  9
$TDUPDATE
 40
2451095.554556018
  9
$TDINDWG
 40
0.0353271991
  9
$TDUSRTIMER
 40
0.0353271991
  9
$USRTIMER
 70
     1
  9
$ANGBASE
 50
0.0
  9
$ANGDIR
 70
     0
  9
$PDMODE
 70
     0
  9
$PDSIZE
 40
4.0
  9
$PLINEWID
 40
0.0
  9
$COORDS
 70
     2
  9
$SPLFRAME
 70
     0
  9
$SPLINETYPE
 70
     6
  9
$SPLINESEGS
 70
     8
  9
$ATTDIA
 70
     0
  9
$ATTREQ
 70
     1
  9
$HANDLING
 70
     1
  9
$HANDSEED
  5
F6C5
  9
$SURFTAB1
 70
     6
  9
$SURFTAB2
 70
     6
  9
$SURFTYPE
 70
     6
  9
$SURFU
 70
     6
  9
$SURFV
 70
     6
  9
$UCSNAME
  2

  9
$UCSORG
 10
0.0
 20
0.0
 30
0.0
  9
$UCSXDIR
 10
1.0
 20
0.0
 30
0.0
  9
$UCSYDIR
 10
0.0
 20
1.0
 30
0.0
  9
$PUCSNAME
  2

  9
$PUCSORG
 10
0.0
 20
0.0
 30
0.0
  9
$PUCSXDIR
 10
1.0
 20
0.0
 30
0.0
  9
$PUCSYDIR
 10
0.0
 20
1.0
 30
0.0
  9
$USERI1
 70
     0
  9
$USERI2
 70
     0
  9
$USERI3
 70
     0
  9
$USERI4
 70
     0
  9
$USERI5
 70
     0
  9
$USERR1
 40
0.0
  9
$USERR2
 40
0.0
  9
$USERR3
 40
0.0
  9
$USERR4
 40
0.0
  9
$USERR5
 40
0.0
  9
$WORLDVIEW
 70
     1
  9
$SHADEDGE
 70
     3
  9
$SHADEDIF
 70
    70
  9
$TILEMODE
 70
     1
  9
$MAXACTVP
 70
    16
  9
$PINSBASE
 10
0.0
 20
0.0
 30
0.0
  9
$PLIMCHECK
 70
     0
  9
$PEXTMIN
 10
1.000000E+20
 20
1.000000E+20
 30
1.000000E+20
  9
$PEXTMAX
 10
-1.000000E+20
 20
-1.000000E+20
 30
-1.000000E+20
  9
$PLIMMIN
 10
0.0
 20
0.0
  9
$PLIMMAX
 10
12.0
 20
9.0
  9
$UNITMODE
 70
     0
  9
$VISRETAIN
 70
     0
  9
$PLINEGEN
 70
     0
  9
$PSLTSCALE
 70
     1
  9
$TREEDEPTH
 70
  3020
  9
$PICKSTYLE
 70
     1
  9
$CMLSTYLE
  2
STANDARD
  9
$CMLJUST
 70
     0
  9
$CMLSCALE
 40
1.0
  9
$SAVEIMAGES
 70
     0
  0
ENDSEC
  0
SECTION
  2
CLASSES
  0
ENDSEC
  0
SECTION
  2
TABLES
  0
TABLE
  2
VPORT
  5
8
100
AcDbSymbolTable
 70
     5
  0
VPORT
  5
F6C4
100
AcDbSymbolTableRecord
100
AcDbViewportTableRecord
  2
*ACTIVE
 70
     0
 10
0.0
 20
0.0
 11
1.0
 21
1.0
 12
72.123053
 22
69.044176
 13
0.0
 23
0.0
 14
0.125
 24
0.125
 15
1.0
 25
1.0
 16
0.0
 26
0.0
 36
1.0
 17
0.0
 27
0.0
 37
0.0
 40
141.649984
 41
1.352151
 42
50.0
 43
0.0
 44
0.0
 50
0.0
 51
0.0
 71
     0
 72
   100
 73
     1
 74
     0
 75
     1
 76
     0
 77
     0
 78
     2
  0
ENDTAB
  0
TABLE
  2
LTYPE
  5
5
100
AcDbSymbolTable
 70
     2
  0
LTYPE
  5
14
100
AcDbSymbolTableRecord
100
AcDbLinetypeTableRecord
  2
BYBLOCK
 70
     0
  3

 72
    65
 73
     0
 40
0.0
  0
LTYPE
  5
15
100
AcDbSymbolTableRecord
100
AcDbLinetypeTableRecord
  2
BYLAYER
 70
     0
  3

 72
    65
 73
     0
 40
0.0
  0
LTYPE
  5
16
100
AcDbSymbolTableRecord
100
AcDbLinetypeTableRecord
  2
CONTINUOUS
 70
    64
  3
Solid line
 72
    65
 73
     0
 40
0.0
  0
LTYPE
  5
F546
100
AcDbSymbolTableRecord
100
AcDbLinetypeTableRecord
  2
HIDDEN2
 70
    64
  3
_ _ _ _ _ _ _ _ _ _ _ _ _ _ _ _ _ _ _ _ _ _ _ _
 72
    65
 73
     2
 40
0.1875
 49
0.125
 74
     0
 49
-0.0625
 74
     0
  0
ENDTAB
  0
TABLE
  2
LAYER
  5
2
100
AcDbSymbolTable
 70
    20
  0
LAYER
  5
F
100
AcDbSymbolTableRecord
100
AcDbLayerTableRecord
  2
0
 70
     0
 62
     7
  6
CONTINUOUS
  0
LAYER
  5
2F
100
AcDbSymbolTableRecord
100
AcDbLayerTableRecord
  2
STUD
 70
    64
 62
   171
  6
CONTINUOUS
  0
LAYER
  5
30
100
AcDbSymbolTableRecord
100
AcDbLayerTableRecord
  2
TRACK
 70
    64
 62
     1
  6
CONTINUOUS
  0
LAYER
  5
34
100
AcDbSymbolTableRecord
100
AcDbLayerTableRecord
  2
STEEL
 70
    64
 62
   144
  6
CONTINUOUS
  0
LAYER
  5
37
100
AcDbSymbolTableRecord
100
AcDbLayerTableRecord
  2
FASTENER
 70
    64
 62
   204
  6
CONTINUOUS
  0
LAYER
  5
39
100
AcDbSymbolTableRecord
100
AcDbLayerTableRecord
  2
CLIP
 70
    64
 62
     6
  6
CONTINUOUS
  0
LAYER
  5
3B
100
AcDbSymbolTableRecord
100
AcDbLayerTableRecord
  2
_KTI_CONTROL
 70
     5
 62
     7
  6
CONTINUOUS
  0
LAYER
  5
13AE
100
AcDbSymbolTableRecord
100
AcDbLayerTableRecord
  2
TEXT
 70
    64
 62
    94
  6
CONTINUOUS
  0
LAYER
  5
BFAF
100
AcDbSymbolTableRecord
100
AcDbLayerTableRecord
  2
JOIST
 70
    64
 62
   122
  6
CONTINUOUS
  0
LAYER
  5
D84C
100
AcDbSymbolTableRecord
100
AcDbLayerTableRecord
  2
DETAIL
 70
    64
 62
   202
  6
CONTINUOUS
  0
LAYER
  5
E9D7
100
AcDbSymbolTableRecord
100
AcDbLayerTableRecord
  2
DETAIL_NO
 70
    64
 62
   174
  6
CONTINUOUS
  0
LAYER
  5
E9D8
100
AcDbSymbolTableRecord
100
AcDbLayerTableRecord
  2
LINK
 70
    64
 62
     7
  6
CONTINUOUS
  0
LAYER
  5
EB3D
100
AcDbSymbolTableRecord
100
AcDbLayerTableRecord
  2
5
 70
    64
 62
     5
  6
CONTINUOUS
  0
LAYER
  5
EB3E
100
AcDbSymbolTableRecord
100
AcDbLayerTableRecord
  2
BLD_BOLT
 70
    64
 62
   253
  6
CONTINUOUS
  0
LAYER
  5
EB3F
100
AcDbSymbolTableRecord
100
AcDbLayerTableRecord
  2
BLD_SAW
 70
    64
 62
   144
  6
CONTINUOUS
  0
LAYER
  5
EB40
100
AcDbSymbolTableRecord
100
AcDbLayerTableRecord
  2
BLD_TITLE
 70
    64
 62
    10
  6
CONTINUOUS
  0
LAYER
  5
EB41
100
AcDbSymbolTableRecord
100
AcDbLayerTableRecord
  2
HIDE_THIS
 70
    64
 62
    51
  6
CONTINUOUS
  0
LAYER
  5
EB42
100
AcDbSymbolTableRecord
100
AcDbLayerTableRecord
  2
HATCH_LIGHT
 70
    64
 62
   254
  6
CONTINUOUS
  0
LAYER
  5
EB43
100
AcDbSymbolTableRecord
100
AcDbLayerTableRecord
  2
BLD_RULLER
 70
    64
 62
    54
  6
CONTINUOUS
  0
LAYER
  5
EB44
100
AcDbSymbolTableRecord
100
AcDbLayerTableRecord
  2
BLD_TEXT
 70
    64
 62
     7
  6
CONTINUOUS
  0
ENDTAB
  0
TABLE
  2
STYLE
  5
3
100
AcDbSymbolTable
 70
     5
  0
STYLE
  5
10
100
AcDbSymbolTableRecord
100
AcDbTextStyleTableRecord
  2
STANDARD
 70
     0
 40
0.0
 41
1.0
 50
0.0
 71
     0
 42
12.0
  3
txt
  4

  0
STYLE
  5
4E
100
AcDbSymbolTableRecord
100
AcDbTextStyleTableRecord
  2
ARCH
 70
    64
 40
1.0
 41
1.0
 50
0.0
 71
     0
 42
1.0
  3
F:\r13\com\fonts\Architxt.shx
  4

  0
STYLE
  5
13AF
100
AcDbSymbolTableRecord
100
AcDbTextStyleTableRecord
  2
BLOCK
 70
    64
 40
0.0
 41
1.0
 50
0.0
 71
     0
 42
2.0
  3
F:\r13\com\fonts\monos.ttf
  4

  0
STYLE
  5
D6DC
100
AcDbSymbolTableRecord
100
AcDbTextStyleTableRecord
  2
RIGHT
 70
    64
 40
1.0
 41
1.0
 50
30.0
 71
     0
 42
1.0
  3
F:\r13\com\fonts\Architxt.shx
  4

  0
STYLE
  5
EB45
100
AcDbSymbolTableRecord
100
AcDbTextStyleTableRecord
  2
BLD
 70
    64
 40
0.0
 41
1.0
 50
0.0
 71
     0
 42
1.5
  3
handgotb.ttf
  4

  0
ENDTAB
  0
TABLE
  2
VIEW
  5
6
100
AcDbSymbolTable
 70
     2
  0
VIEW
  5
81B3
100
AcDbSymbolTableRecord
100
AcDbViewTableRecord
  2
ALL
 70
     0
 40
333.126148
 10
-103.458643
 20
185.88084
 41
279.218159
 11
0.0
 21
0.0
 31
1.0
 12
0.0
 22
0.0
 32
0.0
 42
50.0
 43
0.0
 44
0.0
 50
0.0
 71
     0
  0
VIEW
  5
BF56
100
AcDbSymbolTableRecord
100
AcDbViewTableRecord
  2
X
 70
     0
 40
237.125281
 10
-126.99961
 20
121.830869
 41
258.611673
 11
0.0
 21
0.0
 31
1.0
 12
0.0
 22
0.0
 32
0.0
 42
50.0
 43
0.0
 44
0.0
 50
0.0
 71
     0
  0
ENDTAB
  0
TABLE
  2
UCS
  5
7
100
AcDbSymbolTable
 70
     0
  0
ENDTAB
  0
TABLE
  2
APPID
  5
9
100
AcDbSymbolTable
 70
     5
  0
APPID
  5
11
100
AcDbSymbolTableRecord
100
AcDbRegAppTableRecord
  2
ACAD
 70
     0
  0
APPID
  5
3A
100
AcDbSymbolTableRecord
100
AcDbRegAppTableRecord
  2
_KTI_ARCHT
 70
     0
  0
APPID
  5
13B1
100
AcDbSymbolTableRecord
100
AcDbRegAppTableRecord
  2
AVE_FINISH
 70
     0
  0
APPID
  5
13B2
100
AcDbSymbolTableRecord
100
AcDbRegAppTableRecord
  2
ADE
 70
     0
  0
APPID
  5
13B3
100
AcDbSymbolTableRecord
100
AcDbRegAppTableRecord
  2
PE_URL
 70
     0
  0
ENDTAB
  0
TABLE
  2
DIMSTYLE
  5
A
100
AcDbSymbolTable
 70
     3
  0
DIMSTYLE
105
1D
100
AcDbSymbolTableRecord
100
AcDbDimStyleTableRecord
  2
STANDARD
 70
     0
  3

  4

  5

  6

  7

 40
1.0
 41
0.18
 42
0.0625
 43
0.38
 44
0.18
 45
0.0
 46
0.0
 47
0.0
 48
0.0
140
0.18
141
0.09
142
0.0
143
25.4
144
1.0
145
0.0
146
1.0
147
0.09
 71
     0
 72
     0
 73
     1
 74
     1
 75
     0
 76
     0
 77
     0
 78
     0
170
     0
171
     2
172
     0
173
     0
174
     0
175
     0
176
     0
177
     0
178
     0
270
     2
271
     4
272
     4
273
     2
274
     2
340
10
275
     0
280
     0
281
     0
282
     0
283
     1
284
     0
285
     0
286
     0
287
     3
288
     0
  0
DIMSTYLE
105
2B
100
AcDbSymbolTableRecord
100
AcDbDimStyleTableRecord
  2
ARCH
 70
     0
  3

  4

  5
OBLIQUE
  6

  7

 40
48.0
 41
0.1875
 42
0.0625
 43
0.375
 44
0.1875
 45
0.0
 46
0.0
 47
0.0
 48
0.0
140
0.125
141
0.1875
142
0.0
143
25.4
144
1.0
145
0.0
146
1.0
147
0.09375
 71
     0
 72
     0
 73
     1
 74
     1
 75
     0
 76
     0
 77
     1
 78
     0
170
     0
171
     1
172
     0
173
     0
174
     0
175
     0
176
     0
177
     0
178
     0
270
     4
271
     4
272
     2
273
     2
274
     1
340
10
275
     0
280
     0
281
     0
282
     0
283
     0
284
     0
285
     0
286
     0
287
     1
288
     1
  0
DIMSTYLE
105
13B0
100
AcDbSymbolTableRecord
100
AcDbDimStyleTableRecord
  2
LEADER
 70
     0
  3

  4

  5
OBLIQUE
  6
_OPEN90
  7
_OPEN90
 40
8.0
 41
0.1875
 42
0.0625
 43
0.375
 44
0.1875
 45
0.0
 46
0.0
 47
0.0
 48
0.0
140
0.125
141
0.1875
142
0.0
143
25.4
144
1.0
145
0.0
146
1.0
147
0.125
 71
     0
 72
     0
 73
     1
 74
     1
 75
     0
 76
     0
 77
     0
 78
     0
170
     0
171
     1
172
     0
173
     1
174
     0
175
     0
176
     0
177
     0
178
     0
270
     4
271
     4
272
     2
273
     2
274
     1
340
4E
275
     0
280
     0
281
     0
282
     0
283
     0
284
     0
285
     0
286
     0
287
     1
288
     1
  0
ENDTAB
  0
TABLE
  2
BLOCK_RECORD
  5
1
100
AcDbSymbolTable
 70
    10
  0
BLOCK_RECORD
  5
1A
100
AcDbSymbolTableRecord
100
AcDbBlockTableRecord
  2
*MODEL_SPACE
  0
BLOCK_RECORD
  5
17
100
AcDbSymbolTableRecord
100
AcDbBlockTableRecord
  2
*PAPER_SPACE
  0
BLOCK_RECORD
  5
13A3
100
AcDbSymbolTableRecord
100
AcDbBlockTableRecord
  2
CEMCO_BLANK
  0
BLOCK_RECORD
  5
E9CC
100
AcDbSymbolTableRecord
100
AcDbBlockTableRecord
  2
DETAIL_MARK
  0
BLOCK_RECORD
  5
EA2E
100
AcDbSymbolTableRecord
100
AcDbBlockTableRecord
  2
CC3
  0
BLOCK_RECORD
  5
EADB
100
AcDbSymbolTableRecord
100
AcDbBlockTableRecord
  2
CM-5
  0
BLOCK_RECORD
  5
EAE0
100
AcDbSymbolTableRecord
100
AcDbBlockTableRecord
  2
IN-8
  0
BLOCK_RECORD
  5
EAEB
100
AcDbSymbolTableRecord
100
AcDbBlockTableRecord
  2
_25BOLT
  0
BLOCK_RECORD
  5
EAFD
100
AcDbSymbolTableRecord
100
AcDbBlockTableRecord
  2
T2
  0
BLOCK_RECORD
  5
EB24
100
AcDbSymbolTableRecord
100
AcDbBlockTableRecord
  2
*X7
  0
BLOCK_RECORD
  5
EB30
100
AcDbSymbolTableRecord
100
AcDbBlockTableRecord
  2
*X8
  0
BLOCK_RECORD
  5
F6A1
100
AcDbSymbolTableRecord
100
AcDbBlockTableRecord
  2
A$CE091
  0
ENDTAB
  0
ENDSEC
  0
SECTION
  2
BLOCKS
  0
BLOCK
  5
1B
100
AcDbEntity
  8
0
100
AcDbBlockBegin
  2
*MODEL_SPACE
 70
     0
 10
0.0
 20
0.0
 30
0.0
  3
*MODEL_SPACE
  1

  0
ENDBLK
  5
1C
100
AcDbEntity
  8
0
100
AcDbBlockEnd
  0
BLOCK
  5
18
100
AcDbEntity
 67
     1
  8
0
100
AcDbBlockBegin
  2
*PAPER_SPACE
 70
     0
 10
0.0
 20
0.0
 30
0.0
  3
*PAPER_SPACE
  1

  0
ENDBLK
  5
19
100
AcDbEntity
 67
     1
  8
0
100
AcDbBlockEnd
  0
BLOCK
  5
13AC
100
AcDbEntity
  8
0
100
AcDbBlockBegin
  2
CEMCO_BLANK
 70
     0
 10
0.0
 20
0.0
 30
0.0
  3
CEMCO_BLANK
  1

  0
POLYLINE
  5
13A4
100
AcDbEntity
  8
_KTI_CONTROL
 60
     1
100
AcDb3dPolyline
 66
     1
 10
0.0
 20
0.0
 30
0.0
 70
     8
1001
_KTI_ARCHT
1070
 12000
1000
ENVIRONMENT
1070
 10003
1000
cemco_blank
1070
 20000
1000
standard
1070
 20001
1000
f:\archt
1070
 20003
1000
h:\archt
1070
 20002
1000
f:\archt\tmp
1070
 20004
1002
{
1000
f:\archt\blks
1000
f:\archt\blks3d
1000
h:\archt\blks
1000
h:\archt\blks3d
1002
}
1070
 20005
1002
{
1000
f:\archt\slds
1002
}
1070
 20006
1002
{
1000
f:\archt\dclswin
1002
}
1070
 20007
1002
{
1000
f:\archt\docs
1002
}
1070
 20008
1002
{
1000
f:\archt\help
1002
}
  0
VERTEX
  5
13A5
100
AcDbEntity
  8
_KTI_CONTROL
100
AcDbVertex
100
AcDb3dPolylineVertex
 10
0.0
 20
0.0
 30
0.0
 70
    32
  0
VERTEX
  5
13A6
100
AcDbEntity
  8
_KTI_CONTROL
100
AcDbVertex
100
AcDb3dPolylineVertex
 10
0.0
 20
0.0
 30
0.0
 70
    32
  0
SEQEND
  5
13A7
100
AcDbEntity
  8
_KTI_CONTROL
  0
POLYLINE
  5
13A8
100
AcDbEntity
  8
_KTI_CONTROL
 60
     1
100
AcDb3dPolyline
 66
     1
 10
0.0
 20
0.0
 30
0.0
 70
     8
1001
_KTI_ARCHT
1070
 12000
1000
ARCHTVARS
1070
 10003
1000
cemco_blank
1070
 12030
1000
in
1070
 12020
1070
     1
1070
 12021
1070
     0
1070
 12070
1070
     0
1070
 12071
1070
     1
1070
 12907
1070
     0
1070
 12072
1070
     2
1070
 12073
1070
    48
1070
 12074
1070
     0
1070
 12080
1070
     1
1070
 12092
1070
     1
1070
 12096
1070
     0
1070
 12095
1070
     0
1070
 12081
1070
     1
1070
 12082
1070
     1
1070
 12083
1070
     1
1070
 12084
1070
     1
1070
 12085
1070
     0
1070
 12086
1070
     1
1070
 12087
1070
     0
1070
 12088
1070
     0
1070
 12097
1070
     1
1070
 12089
1070
     4
1070
 12090
1070
     6
1070
 12091
1070
     1
1070
 12045
1000
standard
1070
 12046
1000

1070
 12047
1000
standard
1070
 12048
1000

1070
 12049
1000

1070
 12093
1070
     1
1070
 12094
1070
     1
1070
 12908
1070
     0
1070
 12909
1070
     0
1070
 12911
1070
     0
1070
 12910
1070
     0
1070
 12912
1070
     0
1070
 12098
1070
   640
1070
 12060
1002
{
1000

1000

1000

1000

1002
}
1070
 12904
1002
{
1070
     0
1070
     0
1070
     0
1070
     0
1070
     0
1002
}
1070
 12905
1002
{
1040
0.0
1040
0.0
1040
0.0
1040
0.0
1040
0.0
1002
}
1070
 12906
1002
{
1000

1000

1000

1000

1000

1002
}
1070
 12040
1002
{
1002
}
  0
VERTEX
  5
13A9
100
AcDbEntity
  8
_KTI_CONTROL
100
AcDbVertex
100
AcDb3dPolylineVertex
 10
0.0
 20
0.0
 30
0.0
 70
    32
  0
VERTEX
  5
13AA
100
AcDbEntity
  8
_KTI_CONTROL
100
AcDbVertex
100
AcDb3dPolylineVertex
 10
0.0
 20
0.0
 30
0.0
 70
    32
  0
SEQEND
  5
13AB
100
AcDbEntity
  8
_KTI_CONTROL
  0
ENDBLK
  5
13AD
100
AcDbEntity
  8
0
100
AcDbBlockEnd
  0
BLOCK
  5
E9D1
100
AcDbEntity
  8
0
100
AcDbBlockBegin
  2
DETAIL_MARK
 70
    66
 10
0.0
 20
0.0
 30
0.0
  3
DETAIL_MARK
  1

  0
CIRCLE
  5
E9CD
100
AcDbEntity
  8
0
100
AcDbCircle
 10
0.0
 20
0.0
 30
0.0
 40
4.937896
  0
LINE
  5
E9CE
100
AcDbEntity
  8
0
100
AcDbLine
 10
-4.937896
 20
0.0
 30
0.0
 11
4.937896
 21
0.0
 31
0.0
  0
ATTDEF
  5
E9CF
100
AcDbEntity
  8
0
100
AcDbText
 10
-0.655172
 20
0.965517
 30
0.0
 40
2.0
  1
#
  7
ARCH
 72
     1
 11
0.0
 21
0.0
 31
0.0
100
AcDbAttributeDefinition
  3
Enter detail #
  2
DETAIL_#
 70
     0
 74
     1
  0
ATTDEF
  5
E9D0
100
AcDbEntity
  8
0
100
AcDbText
 10
-2.62069
 20
-2.784483
 30
0.0
 40
2.0
  1
S-5
  7
ARCH
 72
     1
 11
0.0
 21
-3.75
 31
0.0
100
AcDbAttributeDefinition
  3
Enter Detail page #
  2
DETAIL_PAGE
 70
     0
 74
     1
  0
ENDBLK
  5
E9D2
100
AcDbEntity
  8
0
100
AcDbBlockEnd
  0
BLOCK
  5
EAD9
100
AcDbEntity
  8
0
100
AcDbBlockBegin
  2
CC3
 70
    64
 10
0.0
 20
0.0
 30
0.0
  3
CC3
  1

  0
LINE
  5
EA2F
100
AcDbEntity
  8
HATCH_LIGHT
100
AcDbLine
 10
-0.069996
 20
0.911693
 30
0.0
 11
-1.097517
 21
-2.923067
 31
0.0
1001
ACAD
1000
ASC_BOUNDS
1002
{
1070
    19
1005
EA6E
1002
}
  0
LINE
  5
EA30
100
AcDbEntity
  8
0
100
AcDbLine
 10
-0.528022
 20
0.288985
 30
0.0
 11
-1.110364
 21
-1.884348
 31
0.0
1001
ACAD
1000
ASC_BOUNDS
1002
{
1070
    19
1005
EA6E
1002
}
  0
LINE
  5
EA31
100
AcDbEntity
  8
HATCH_LIGHT
100
AcDbLine
 10
0.073927
 20
0.911693
 30
0.0
 11
0.925158
 21
-2.265142
 31
0.0
1001
ACAD
1000
ASC_BOUNDS
1002
{
1070
    19
1005
EAB8
1002
}
  0
LINE
  5
EA32
100
AcDbEntity
  8
0
100
AcDbLine
 10
0.531953
 20
0.288985
 30
0.0
 11
1.114296
 21
-1.884348
 31
0.0
1001
ACAD
1000
ASC_BOUNDS
1002
{
1070
    19
1005
EAB8
1002
}
  0
POLYLINE
  5
EA33
100
AcDbEntity
  8
HATCH_LIGHT
100
AcDb2dPolyline
 66
     1
 10
0.0
 20
0.0
 30
0.0
  0
VERTEX
  5
EA34
100
AcDbEntity
  8
HATCH_LIGHT
100
AcDbVertex
100
AcDb2dVertex
 10
-0.232165
 20
1.092413
 30
0.0
  0
VERTEX
  5
EA35
100
AcDbEntity
  8
HATCH_LIGHT
100
AcDbVertex
100
AcDb2dVertex
 10
-0.498057
 20
0.280074
 30
0.0
 50
198.447343
  0
VERTEX
  5
EA36
100
AcDbEntity
  8
HATCH_LIGHT
100
AcDbVertex
100
AcDb2dVertex
 10
-1.079869
 20
-1.891277
 30
0.0
 50
198.447343
  0
VERTEX
  5
EA37
100
AcDbEntity
  8
HATCH_LIGHT
100
AcDbVertex
100
AcDb2dVertex
 10
-1.229568
 20
-2.691088
 30
0.0
  0
VERTEX
  5
EA38
100
AcDbEntity
  8
HATCH_LIGHT
100
AcDbVertex
100
AcDb2dVertex
 10
-1.157356
 20
-2.904552
 30
0.0
  0
SEQEND
  5
EA39
100
AcDbEntity
  8
HATCH_LIGHT
  0
POLYLINE
  5
EA3A
100
AcDbEntity
  8
HATCH_LIGHT
100
AcDb2dPolyline
 66
     1
 10
0.0
 20
0.0
 30
0.0
  0
VERTEX
  5
EA3B
100
AcDbEntity
  8
HATCH_LIGHT
100
AcDbVertex
100
AcDb2dVertex
 10
0.236096
 20
1.092413
 30
0.0
  0
VERTEX
  5
EA3C
100
AcDbEntity
  8
HATCH_LIGHT
100
AcDbVertex
100
AcDb2dVertex
 10
0.501988
 20
0.280074
 30
0.0
 50
198.447343
  0
VERTEX
  5
EA3D
100
AcDbEntity
  8
HATCH_LIGHT
100
AcDbVertex
100
AcDb2dVertex
 10
1.0838
 20
-1.891277
 30
0.0
 50
198.447343
  0
VERTEX
  5
EA3E
100
AcDbEntity
  8
HATCH_LIGHT
100
AcDbVertex
100
AcDb2dVertex
 10
1.158647
 20
-2.29117
 30
0.0
  0
SEQEND
  5
EA3F
100
AcDbEntity
  8
HATCH_LIGHT
  0
LINE
  5
EA40
100
AcDbEntity
  8
0
100
AcDbLine
 10
0.359511
 20
-0.274859
 30
0.0
 11
0.608642
 21
-0.208104
 31
0.0
  0
LINE
  5
EA41
100
AcDbEntity
  8
0
100
AcDbLine
 10
-0.355579
 20
-0.274859
 30
0.0
 11
-0.604711
 21
-0.208104
 31
0.0
  0
LINE
  5
EA42
100
AcDbEntity
  8
HATCH_LIGHT
100
AcDbLine
 10
0.996975
 20
-2.533166
 30
0.0
 11
1.101448
 21
-2.923067
 31
0.0
  0
LINE
  5
EA43
100
AcDbEntity
  8
0
100
AcDbLine
 10
0.961263
 20
-2.520631
 30
0.0
 11
1.071263
 21
-2.931155
 31
0.0
  0
CIRCLE
  5
EA44
100
AcDbEntity
  8
0
100
AcDbCircle
 10
1.030488
 20
-2.380553
 30
0.0
 40
0.15625
  0
CIRCLE
  5
EA45
100
AcDbEntity
  8
0
100
AcDbCircle
 10
1.030488
 20
-2.380553
 30
0.0
 40
0.037281
  0
POLYLINE
  5
EA46
100
AcDbEntity
  8
0
100
AcDb2dPolyline
 66
     1
 10
0.0
 20
0.0
 30
0.0
  0
VERTEX
  5
EA47
100
AcDbEntity
  8
0
100
AcDbVertex
100
AcDb2dVertex
 10
-1.067332
 20
-2.931155
 30
0.0
 50
345.0
  0
VERTEX
  5
EA48
100
AcDbEntity
  8
0
100
AcDbVertex
100
AcDb2dVertex
 10
-1.103848
 20
-2.920556
 30
0.0
 50
352.981966
  0
VERTEX
  5
EA49
100
AcDbEntity
  8
0
100
AcDbVertex
100
AcDb2dVertex
 10
-1.164695
 20
-3.290586
 30
0.0
 50
352.981966
  0
VERTEX
  5
EA4A
100
AcDbEntity
  8
0
100
AcDbVertex
100
AcDb2dVertex
 10
-1.225955
 20
-3.470531
 30
0.0
 50
345.0
  0
VERTEX
  5
EA4B
100
AcDbEntity
  8
0
100
AcDbVertex
100
AcDb2dVertex
 10
-1.226367
 20
-3.280445
 30
0.0
 50
345.0
  0
VERTEX
  5
EA4C
100
AcDbEntity
  8
0
100
AcDbVertex
100
AcDb2dVertex
 10
-1.165519
 20
-2.910415
 30
0.0
 50
345.0
  0
SEQEND
  5
EA4D
100
AcDbEntity
  8
0
  0
ARC
  5
EA4E
100
AcDbEntity
  8
0
100
AcDbCircle
 10
-1.026557
 20
-2.380553
 30
0.0
 40
0.15625
100
AcDbArc
 50
296.297868
 51
33.702132
  0
LINE
  5
EA4F
100
AcDbEntity
  8
0
100
AcDbLine
 10
-0.355579
 20
-0.274859
 30
0.0
 11
-1.067332
 21
-2.931155
 31
0.0
  0
LINE
  5
EA50
100
AcDbEntity
  8
0
100
AcDbLine
 10
-1.110364
 20
-1.884348
 30
0.0
 11
-1.260284
 21
-2.685339
 31
0.0
  0
LINE
  5
EA51
100
AcDbEntity
  8
0
100
AcDbLine
 10
-1.067332
 20
-2.931155
 30
0.0
 11
-1.188072
 21
-2.898802
 31
0.0
  0
LINE
  5
EA52
100
AcDbEntity
  8
0
100
AcDbLine
 10
-1.188072
 20
-2.898802
 30
0.0
 11
-1.260284
 21
-2.685339
 31
0.0
  0
LINE
  5
EA53
100
AcDbEntity
  8
0
100
AcDbLine
 10
-1.226367
 20
-3.280445
 30
0.0
 11
-1.164695
 21
-3.290586
 31
0.0
  0
CIRCLE
  5
EA54
100
AcDbEntity
  8
0
100
AcDbCircle
 10
-1.026557
 20
-2.380553
 30
0.0
 40
0.037281
  0
LINE
  5
EA55
100
AcDbEntity
  8
0
100
AcDbLine
 10
0.359511
 20
-0.274859
 30
0.0
 11
0.900499
 21
-2.293853
 31
0.0
  0
LINE
  5
EA56
100
AcDbEntity
  8
0
100
AcDbLine
 10
1.239832
 20
-3.467488
 30
0.0
 11
1.212792
 21
-3.395301
 31
0.0
  0
LINE
  5
EA57
100
AcDbEntity
  8
0
100
AcDbLine
 10
1.237666
 20
-3.390434
 30
0.0
 11
1.239832
 21
-3.467488
 31
0.0
  0
POLYLINE
  5
EA58
100
AcDbEntity
  8
HATCH_LIGHT
100
AcDb2dPolyline
 66
     1
 10
0.0
 20
0.0
 30
0.0
  0
VERTEX
  5
EA59
100
AcDbEntity
  8
HATCH_LIGHT
100
AcDbVertex
100
AcDb2dVertex
 10
1.182299
 20
-2.417534
 30
0.0
  0
VERTEX
  5
EA5A
100
AcDbEntity
  8
HATCH_LIGHT
100
AcDbVertex
100
AcDb2dVertex
 10
1.233499
 20
-2.691088
 30
0.0
  0
VERTEX
  5
EA5B
100
AcDbEntity
  8
HATCH_LIGHT
100
AcDbVertex
100
AcDb2dVertex
 10
1.161287
 20
-2.904552
 30
0.0
  0
SEQEND
  5
EA5C
100
AcDbEntity
  8
HATCH_LIGHT
  0
LINE
  5
EA5D
100
AcDbEntity
  8
0
100
AcDbLine
 10
1.114296
 20
-1.884348
 30
0.0
 11
1.264216
 21
-2.685339
 31
0.0
  0
POLYLINE
  5
EA5E
100
AcDbEntity
  8
0
100
AcDb2dPolyline
 66
     1
 10
0.0
 20
0.0
 30
0.0
  0
VERTEX
  5
EA5F
100
AcDbEntity
  8
0
100
AcDbVertex
100
AcDb2dVertex
 10
1.162785
 20
-2.911063
 30
0.0
 50
15.0
  0
VERTEX
  5
EA60
100
AcDbEntity
  8
0
100
AcDbVertex
100
AcDb2dVertex
 10
1.247075
 20
-3.341784
 30
0.0
 50
15.0
  0
VERTEX
  5
EA61
100
AcDbEntity
  8
0
100
AcDbVertex
100
AcDb2dVertex
 10
1.248384
 20
-3.388336
 30
0.0
 50
15.0
  0
VERTEX
  5
EA62
100
AcDbEntity
  8
0
100
AcDbVertex
100
AcDb2dVertex
 10
1.202074
 20
-3.397399
 30
0.0
 50
15.0
  0
VERTEX
  5
EA63
100
AcDbEntity
  8
0
100
AcDbVertex
100
AcDb2dVertex
 10
1.185738
 20
-3.353787
 30
0.0
 50
15.0
  0
VERTEX
  5
EA64
100
AcDbEntity
  8
0
100
AcDbVertex
100
AcDb2dVertex
 10
1.101448
 20
-2.923067
 30
0.0
 50
15.0
  0
VERTEX
  5
EA65
100
AcDbEntity
  8
0
100
AcDbVertex
100
AcDb2dVertex
 10
1.071263
 20
-2.931155
 30
0.0
 50
15.0
  0
SEQEND
  5
EA66
100
AcDbEntity
  8
0
  0
LINE
  5
EA67
100
AcDbEntity
  8
0
100
AcDbLine
 10
1.247075
 20
-3.341784
 30
0.0
 11
1.185738
 21
-3.353787
 31
0.0
  0
LINE
  5
EA68
100
AcDbEntity
  8
0
100
AcDbLine
 10
1.192004
 20
-2.898802
 30
0.0
 11
1.264216
 21
-2.685339
 31
0.0
  0
LINE
  5
EA69
100
AcDbEntity
  8
0
100
AcDbLine
 10
1.071263
 20
-2.931155
 30
0.0
 11
1.192004
 21
-2.898802
 31
0.0
  0
LINE
  5
EA6A
100
AcDbEntity
  8
0
100
AcDbLine
 10
1.001966
 20
-0.06037
 30
0.0
 11
1.126966
 21
-0.06037
 31
0.0
  0
LINE
  5
EA6B
100
AcDbEntity
  8
0
100
AcDbLine
 10
1.001966
 20
0.06037
 30
0.0
 11
1.126966
 21
0.06037
 31
0.0
  0
LINE
  5
EA6C
100
AcDbEntity
  8
0
100
AcDbLine
 10
-0.998034
 20
0.023961
 30
0.0
 11
-0.599035
 21
0.023961
 31
0.0
1001
ACAD
1000
ASC_BOUNDS
1002
{
1070
    19
1005
EA6E
1002
}
  0
LINE
  5
EA6D
100
AcDbEntity
  8
0
100
AcDbLine
 10
-0.998034
 20
-0.019282
 30
0.0
 11
-0.610621
 21
-0.019282
 31
0.0
1001
ACAD
1000
ASC_BOUNDS
1002
{
1070
    19
1005
EA6E
1002
}
  0
INSERT
  5
EA6E
100
AcDbEntity
  8
HATCH_LIGHT
100
AcDbBlockReference
  2
*X8
 10
-17.623034
 20
4.751128
 30
0.0
1001
ACAD
1000
HATCH
1002
{
1070
    19
1000
ANSI31
1040
0.5
1040
1.570796
1000
ASC_BOUNDS
1070
     2
1070
     1
1070
     4
1005
EA6C
1005
EA6F
1005
EA6D
1005
EA30
1070
     1
1070
     4
1005
EAAC
1005
EA2F
1005
EAAD
1005
EA95
1000
ASC_SEEDPOINT
1011
-0.171597
1021
-0.000311
1031
0.0
1002
}
  0
LINE
  5
EA6F
100
AcDbEntity
  8
0
100
AcDbLine
 10
-0.998034
 20
-0.06037
 30
0.0
 11
-0.998034
 21
0.06037
 31
0.0
1001
ACAD
1000
ASC_BOUNDS
1002
{
1070
    19
1005
EA6E
1002
}
  0
LINE
  5
EA70
100
AcDbEntity
  8
0
100
AcDbLine
 10
-0.998034
 20
0.06037
 30
0.0
 11
-1.123034
 21
0.06037
 31
0.0
  0
LINE
  5
EA71
100
AcDbEntity
  8
0
100
AcDbLine
 10
-0.998034
 20
-0.06037
 30
0.0
 11
-1.123034
 21
-0.06037
 31
0.0
  0
LINE
  5
EA72
100
AcDbEntity
  8
0
100
AcDbLine
 10
-1.123034
 20
-0.06037
 30
0.0
 11
-1.123034
 21
0.06037
 31
0.0
  0
POLYLINE
  5
EA73
100
AcDbEntity
  8
0
100
AcDb2dPolyline
 66
     1
 10
0.0
 20
0.0
 30
0.0
 70
     1
  0
VERTEX
  5
EA74
100
AcDbEntity
  8
0
100
AcDbVertex
100
AcDb2dVertex
 10
-0.161638
 20
1.094663
 30
0.0
  0
VERTEX
  5
EA75
100
AcDbEntity
  8
0
100
AcDbVertex
100
AcDb2dVertex
 10
-0.172377
 20
1.065316
 30
0.0
 42
-0.089701
 50
319.398705
  0
VERTEX
  5
EA76
100
AcDbEntity
  8
0
100
AcDbVertex
100
AcDb2dVertex
 10
-0.307394
 20
1.144371
 30
0.0
 42
-0.103369
 70
     2
 50
319.398705
  0
VERTEX
  5
EA77
100
AcDbEntity
  8
0
100
AcDbVertex
100
AcDb2dVertex
 10
-0.403359
 20
1.269005
 30
0.0
 42
-0.113017
  0
VERTEX
  5
EA78
100
AcDbEntity
  8
0
100
AcDbVertex
100
AcDb2dVertex
 10
-0.435534
 20
1.409536
 30
0.0
 42
-0.113017
  0
VERTEX
  5
EA79
100
AcDbEntity
  8
0
100
AcDbVertex
100
AcDb2dVertex
 10
-0.403359
 20
1.550068
 30
0.0
 42
-0.103369
 50
220.601295
  0
VERTEX
  5
EA7A
100
AcDbEntity
  8
0
100
AcDbVertex
100
AcDb2dVertex
 10
-0.307394
 20
1.674701
 30
0.0
 42
-0.092126
 70
     2
 50
220.601295
  0
VERTEX
  5
EA7B
100
AcDbEntity
  8
0
100
AcDbVertex
100
AcDb2dVertex
 10
-0.168397
 20
1.755191
 30
0.0
 42
-0.085497
  0
VERTEX
  5
EA7C
100
AcDbEntity
  8
0
100
AcDbVertex
100
AcDb2dVertex
 10
0.001966
 20
1.784536
 30
0.0
 42
-0.085497
  0
VERTEX
  5
EA7D
100
AcDbEntity
  8
0
100
AcDbVertex
100
AcDb2dVertex
 10
0.172329
 20
1.755191
 30
0.0
 42
-0.092126
 50
139.398705
  0
VERTEX
  5
EA7E
100
AcDbEntity
  8
0
100
AcDbVertex
100
AcDb2dVertex
 10
0.311325
 20
1.674701
 30
0.0
 42
-0.103369
 70
     2
 50
139.398705
  0
VERTEX
  5
EA7F
100
AcDbEntity
  8
0
100
AcDbVertex
100
AcDb2dVertex
 10
0.40729
 20
1.550068
 30
0.0
 42
-0.113017
  0
VERTEX
  5
EA80
100
AcDbEntity
  8
0
100
AcDbVertex
100
AcDb2dVertex
 10
0.439466
 20
1.409536
 30
0.0
 42
-0.113017
  0
VERTEX
  5
EA81
100
AcDbEntity
  8
0
100
AcDbVertex
100
AcDb2dVertex
 10
0.40729
 20
1.269005
 30
0.0
 42
-0.103369
 50
40.601295
  0
VERTEX
  5
EA82
100
AcDbEntity
  8
0
100
AcDbVertex
100
AcDb2dVertex
 10
0.311325
 20
1.144371
 30
0.0
 42
-0.089701
 70
     2
 50
40.601295
  0
VERTEX
  5
EA83
100
AcDbEntity
  8
0
100
AcDbVertex
100
AcDb2dVertex
 10
0.176308
 20
1.065316
 30
0.0
  0
VERTEX
  5
EA84
100
AcDbEntity
  8
0
100
AcDbVertex
100
AcDb2dVertex
 10
0.16557
 20
1.094663
 30
0.0
 42
0.089701
  0
VERTEX
  5
EA85
100
AcDbEntity
  8
0
100
AcDbVertex
100
AcDb2dVertex
 10
0.290988
 20
1.168098
 30
0.0
 42
0.103369
 70
     2
 50
40.601295
  0
VERTEX
  5
EA86
100
AcDbEntity
  8
0
100
AcDbVertex
100
AcDb2dVertex
 10
0.379153
 20
1.282602
 30
0.0
 42
0.113017
 50
40.601295
  0
VERTEX
  5
EA87
100
AcDbEntity
  8
0
100
AcDbVertex
100
AcDb2dVertex
 10
0.408216
 20
1.409536
 30
0.0
 42
0.113017
  0
VERTEX
  5
EA88
100
AcDbEntity
  8
0
100
AcDbVertex
100
AcDb2dVertex
 10
0.379153
 20
1.536471
 30
0.0
 42
0.103369
  0
VERTEX
  5
EA89
100
AcDbEntity
  8
0
100
AcDbVertex
100
AcDb2dVertex
 10
0.290988
 20
1.650975
 30
0.0
 42
0.092126
 70
     2
 50
139.398705
  0
VERTEX
  5
EA8A
100
AcDbEntity
  8
0
100
AcDbVertex
100
AcDb2dVertex
 10
0.161873
 20
1.725742
 30
0.0
 42
0.085497
 50
139.398705
  0
VERTEX
  5
EA8B
100
AcDbEntity
  8
0
100
AcDbVertex
100
AcDb2dVertex
 10
0.001966
 20
1.753286
 30
0.0
 42
0.085497
  0
VERTEX
  5
EA8C
100
AcDbEntity
  8
0
100
AcDbVertex
100
AcDb2dVertex
 10
-0.157942
 20
1.725742
 30
0.0
 42
0.092126
  0
VERTEX
  5
EA8D
100
AcDbEntity
  8
0
100
AcDbVertex
100
AcDb2dVertex
 10
-0.287056
 20
1.650975
 30
0.0
 42
0.103369
 70
     2
 50
220.601295
  0
VERTEX
  5
EA8E
100
AcDbEntity
  8
0
100
AcDbVertex
100
AcDb2dVertex
 10
-0.375222
 20
1.536471
 30
0.0
 42
0.113017
 50
220.601295
  0
VERTEX
  5
EA8F
100
AcDbEntity
  8
0
100
AcDbVertex
100
AcDb2dVertex
 10
-0.404284
 20
1.409536
 30
0.0
 42
0.113017
  0
VERTEX
  5
EA90
100
AcDbEntity
  8
0
100
AcDbVertex
100
AcDb2dVertex
 10
-0.375222
 20
1.282602
 30
0.0
 42
0.103369
  0
VERTEX
  5
EA91
100
AcDbEntity
  8
0
100
AcDbVertex
100
AcDb2dVertex
 10
-0.287056
 20
1.168098
 30
0.0
 42
0.089701
 70
     2
 50
319.398705
  0
SEQEND
  5
EA92
100
AcDbEntity
  8
0
  0
LINE
  5
EA93
100
AcDbEntity
  8
0
100
AcDbLine
 10
-0.029284
 20
1.752264
 30
0.0
 11
-0.029284
 21
1.155712
 31
0.0
  0
LINE
  5
EA94
100
AcDbEntity
  8
0
100
AcDbLine
 10
0.033216
 20
1.752264
 30
0.0
 11
0.033216
 21
1.155712
 31
0.0
  0
POLYLINE
  5
EA95
100
AcDbEntity
  8
0
100
AcDb2dPolyline
 66
     1
 10
0.0
 20
0.0
 30
0.0
 70
     1
1001
ACAD
1000
ASC_BOUNDS
1002
{
1070
    19
1005
EAB8
1005
EA6E
1002
}
  0
VERTEX
  5
EA96
100
AcDbEntity
  8
0
100
AcDbVertex
100
AcDb2dVertex
 10
0.036946
 20
-0.18537
 30
0.0
  0
VERTEX
  5
EA97
100
AcDbEntity
  8
0
100
AcDbVertex
100
AcDb2dVertex
 10
-0.036946
 20
-0.18537
 30
0.0
  0
VERTEX
  5
EA98
100
AcDbEntity
  8
0
100
AcDbVertex
100
AcDb2dVertex
 10
-0.036946
 20
0.18537
 30
0.0
  0
VERTEX
  5
EA99
100
AcDbEntity
  8
0
100
AcDbVertex
100
AcDb2dVertex
 10
0.036946
 20
0.18537
 30
0.0
  0
SEQEND
  5
EA9A
100
AcDbEntity
  8
0
  0
LINE
  5
EA9B
100
AcDbEntity
  8
HATCH_LIGHT
100
AcDbLine
 10
-0.036946
 20
-0.154475
 30
0.0
 11
0.036946
 21
-0.154475
 31
0.0
  0
LINE
  5
EA9C
100
AcDbEntity
  8
HATCH_LIGHT
100
AcDbLine
 10
-0.036946
 20
0.154475
 30
0.0
 11
0.036946
 21
0.154475
 31
0.0
  0
LINE
  5
EA9D
100
AcDbEntity
  8
HATCH_LIGHT
100
AcDbLine
 10
-0.036946
 20
-0.12358
 30
0.0
 11
0.036946
 21
-0.12358
 31
0.0
  0
LINE
  5
EA9E
100
AcDbEntity
  8
HATCH_LIGHT
100
AcDbLine
 10
-0.036946
 20
-0.06179
 30
0.0
 11
0.036946
 21
-0.06179
 31
0.0
  0
LINE
  5
EA9F
100
AcDbEntity
  8
HATCH_LIGHT
100
AcDbLine
 10
-0.036946
 20
0.12358
 30
0.0
 11
0.036946
 21
0.12358
 31
0.0
  0
LINE
  5
EAA0
100
AcDbEntity
  8
HATCH_LIGHT
100
AcDbLine
 10
-0.036946
 20
0.06179
 30
0.0
 11
0.036946
 21
0.06179
 31
0.0
  0
LINE
  5
EAA1
100
AcDbEntity
  8
HATCH_LIGHT
100
AcDbLine
 10
-0.036946
 20
0.0
 30
0.0
 11
0.036946
 21
0.0
 31
0.0
  0
CIRCLE
  5
EAA2
100
AcDbEntity
  8
0
100
AcDbCircle
 10
0.001966
 20
1.013901
 30
0.0
 40
0.0625
  0
CIRCLE
  5
EAA3
100
AcDbEntity
  8
0
100
AcDbCircle
 10
0.001966
 20
1.013901
 30
0.0
 40
0.125
  0
POLYLINE
  5
EAA4
100
AcDbEntity
  8
0
100
AcDb2dPolyline
 66
     1
 10
0.0
 20
0.0
 30
0.0
  0
VERTEX
  5
EAA5
100
AcDbEntity
  8
0
100
AcDbVertex
100
AcDb2dVertex
 10
0.019162
 20
1.137712
 30
0.0
 50
15.0
  0
VERTEX
  5
EAA6
100
AcDbEntity
  8
0
100
AcDbVertex
100
AcDb2dVertex
 10
0.067687
 20
1.199862
 30
0.0
 50
15.0
  0
SEQEND
  5
EAA7
100
AcDbEntity
  8
0
  0
LINE
  5
EAA8
100
AcDbEntity
  8
0
100
AcDbLine
 10
-0.22617
 20
0.208104
 30
0.0
 11
-0.041999
 21
0.896887
 31
0.0
  0
LINE
  5
EAA9
100
AcDbEntity
  8
0
100
AcDbLine
 10
-0.259687
 20
1.108787
 30
0.0
 11
-0.528022
 21
0.288985
 31
0.0
  0
LINE
  5
EAAA
100
AcDbEntity
  8
0
100
AcDbLine
 10
-0.22617
 20
0.208104
 30
0.0
 11
-0.475301
 21
0.274859
 31
0.0
  0
CIRCLE
  5
EAAB
100
AcDbEntity
  8
0
100
AcDbCircle
 10
-0.41544
 20
0.0
 30
0.0
 40
0.0625
  0
LINE
  5
EAAC
100
AcDbEntity
  8
0
100
AcDbLine
 10
-0.307863
 20
0.023961
 30
0.0
 11
-0.036946
 21
0.023961
 31
0.0
1001
ACAD
1000
ASC_BOUNDS
1002
{
1070
    19
1005
EA6E
1002
}
  0
LINE
  5
EAAD
100
AcDbEntity
  8
0
100
AcDbLine
 10
-0.31945
 20
-0.019282
 30
0.0
 11
-0.036946
 21
-0.019282
 31
0.0
1001
ACAD
1000
ASC_BOUNDS
1002
{
1070
    19
1005
EA6E
1002
}
  0
POINT
  5
EAAE
100
AcDbEntity
  8
HATCH_LIGHT
100
AcDbPoint
 10
0.0
 20
0.0
 30
0.0
  0
LINE
  5
EAAF
100
AcDbEntity
  8
HATCH_LIGHT
100
AcDbLine
 10
-0.186783
 20
1.231063
 30
0.0
 11
-0.222264
 21
1.122662
 31
0.0
  0
LINE
  5
EAB0
100
AcDbEntity
  8
0
100
AcDbLine
 10
-0.216482
 20
1.240785
 30
0.0
 11
-0.24961
 21
1.139575
 31
0.0
  0
LINE
  5
EAB1
100
AcDbEntity
  8
0
100
AcDbLine
 10
-0.063756
 20
1.199862
 30
0.0
 11
-0.216482
 21
1.240785
 31
0.0
  0
POLYLINE
  5
EAB2
100
AcDbEntity
  8
0
100
AcDb2dPolyline
 66
     1
 10
0.0
 20
0.0
 30
0.0
  0
VERTEX
  5
EAB3
100
AcDbEntity
  8
0
100
AcDbVertex
100
AcDb2dVertex
 10
-0.015231
 20
1.137712
 30
0.0
 50
352.981966
  0
VERTEX
  5
EAB4
100
AcDbEntity
  8
0
100
AcDbVertex
100
AcDb2dVertex
 10
-0.063756
 20
1.199862
 30
0.0
 50
352.981966
  0
SEQEND
  5
EAB5
100
AcDbEntity
  8
0
  0
LINE
  5
EAB6
100
AcDbEntity
  8
0
100
AcDbLine
 10
0.230101
 20
0.208104
 30
0.0
 11
0.04593
 21
0.896887
 31
0.0
  0
LINE
  5
EAB7
100
AcDbEntity
  8
0
100
AcDbLine
 10
0.263618
 20
1.108787
 30
0.0
 11
0.531953
 21
0.288985
 31
0.0
  0
INSERT
  5
EAB8
100
AcDbEntity
  8
HATCH_LIGHT
100
AcDbBlockReference
  2
*X7
 10
-17.623034
 20
4.751128
 30
0.0
1001
ACAD
1000
HATCH
1002
{
1070
    19
1000
ANSI31
1040
0.5
1040
0.0
1000
ASC_BOUNDS
1070
     2
1070
     1
1070
     4
1005
EABD
1005
EA32
1005
EABE
1005
EABF
1070
     1
1070
     4
1005
EAB9
1005
EA95
1005
EABA
1005
EA31
1000
ASC_SEEDPOINT
1011
0.109286
1021
-0.004558
1031
0.0
1002
}
  0
LINE
  5
EAB9
100
AcDbEntity
  8
0
100
AcDbLine
 10
0.036946
 20
0.023961
 30
0.0
 11
0.311794
 21
0.023961
 31
0.0
1001
ACAD
1000
ASC_BOUNDS
1002
{
1070
    19
1005
EAB8
1002
}
  0
LINE
  5
EABA
100
AcDbEntity
  8
0
100
AcDbLine
 10
0.036946
 20
-0.019282
 30
0.0
 11
0.323381
 21
-0.019282
 31
0.0
1001
ACAD
1000
ASC_BOUNDS
1002
{
1070
    19
1005
EAB8
1002
}
  0
CIRCLE
  5
EABB
100
AcDbEntity
  8
0
100
AcDbCircle
 10
0.419372
 20
0.0
 30
0.0
 40
0.0625
  0
LINE
  5
EABC
100
AcDbEntity
  8
0
100
AcDbLine
 10
0.230101
 20
0.208104
 30
0.0
 11
0.479232
 21
0.274859
 31
0.0
  0
LINE
  5
EABD
100
AcDbEntity
  8
0
100
AcDbLine
 10
0.602966
 20
0.023961
 30
0.0
 11
1.001966
 21
0.023961
 31
0.0
1001
ACAD
1000
ASC_BOUNDS
1002
{
1070
    19
1005
EAB8
1002
}
  0
LINE
  5
EABE
100
AcDbEntity
  8
0
100
AcDbLine
 10
0.614553
 20
-0.019282
 30
0.0
 11
1.001966
 21
-0.019282
 31
0.0
1001
ACAD
1000
ASC_BOUNDS
1002
{
1070
    19
1005
EAB8
1002
}
  0
LINE
  5
EABF
100
AcDbEntity
  8
0
100
AcDbLine
 10
1.001966
 20
-0.06037
 30
0.0
 11
1.001966
 21
0.06037
 31
0.0
1001
ACAD
1000
ASC_BOUNDS
1002
{
1070
    19
1005
EAB8
1002
}
  0
LINE
  5
EAC0
100
AcDbEntity
  8
HATCH_LIGHT
100
AcDbLine
 10
0.190714
 20
1.231063
 30
0.0
 11
0.226195
 21
1.122662
 31
0.0
  0
LINE
  5
EAC1
100
AcDbEntity
  8
0
100
AcDbLine
 10
0.067687
 20
1.199862
 30
0.0
 11
0.220413
 21
1.240785
 31
0.0
  0
LINE
  5
EAC2
100
AcDbEntity
  8
0
100
AcDbLine
 10
0.220413
 20
1.240785
 30
0.0
 11
0.253541
 21
1.139575
 31
0.0
  0
LINE
  5
EAC3
100
AcDbEntity
  8
0
100
AcDbLine
 10
-0.123034
 20
2.732651
 30
0.0
 11
0.126966
 21
2.732651
 31
0.0
  0
LINE
  5
EAC4
100
AcDbEntity
  8
0
100
AcDbLine
 10
-0.123034
 20
2.013901
 30
0.0
 11
0.126966
 21
2.013901
 31
0.0
  0
POLYLINE
  5
EAC5
100
AcDbEntity
  8
0
100
AcDb2dPolyline
 66
     1
 10
0.0
 20
0.0
 30
0.0
 70
     1
  0
VERTEX
  5
EAC6
100
AcDbEntity
  8
0
100
AcDbVertex
100
AcDb2dVertex
 10
-0.076159
 20
2.763901
 30
0.0
  0
VERTEX
  5
EAC7
100
AcDbEntity
  8
0
100
AcDbVertex
100
AcDb2dVertex
 10
0.080091
 20
2.763901
 30
0.0
  0
VERTEX
  5
EAC8
100
AcDbEntity
  8
0
100
AcDbVertex
100
AcDb2dVertex
 10
0.126966
 20
2.732651
 30
0.0
  0
VERTEX
  5
EAC9
100
AcDbEntity
  8
0
100
AcDbVertex
100
AcDb2dVertex
 10
0.126966
 20
2.013901
 30
0.0
  0
VERTEX
  5
EACA
100
AcDbEntity
  8
0
100
AcDbVertex
100
AcDb2dVertex
 10
0.080091
 20
1.888901
 30
0.0
  0
VERTEX
  5
EACB
100
AcDbEntity
  8
0
100
AcDbVertex
100
AcDb2dVertex
 10
-0.076159
 20
1.888901
 30
0.0
  0
VERTEX
  5
EACC
100
AcDbEntity
  8
0
100
AcDbVertex
100
AcDb2dVertex
 10
-0.123034
 20
2.013901
 30
0.0
 50
198.447343
  0
VERTEX
  5
EACD
100
AcDbEntity
  8
0
100
AcDbVertex
100
AcDb2dVertex
 10
-0.123034
 20
2.732651
 30
0.0
 50
198.447343
  0
SEQEND
  5
EACE
100
AcDbEntity
  8
0
  0
LINE
  5
EACF
100
AcDbEntity
  8
0
100
AcDbLine
 10
-0.102201
 20
2.722971
 30
0.0
 11
-0.102201
 21
2.018045
 31
0.0
  0
LINE
  5
EAD0
100
AcDbEntity
  8
0
100
AcDbLine
 10
-0.039701
 20
2.722971
 30
0.0
 11
-0.039701
 21
2.018045
 31
0.0
  0
LINE
  5
EAD1
100
AcDbEntity
  8
0
100
AcDbLine
 10
-0.081368
 20
2.722971
 30
0.0
 11
-0.081368
 21
2.018045
 31
0.0
  0
LINE
  5
EAD2
100
AcDbEntity
  8
0
100
AcDbLine
 10
0.001966
 20
2.722971
 30
0.0
 11
0.001966
 21
2.018045
 31
0.0
  0
LINE
  5
EAD3
100
AcDbEntity
  8
0
100
AcDbLine
 10
-0.029284
 20
1.888901
 30
0.0
 11
-0.029284
 21
1.783577
 31
0.0
  0
LINE
  5
EAD4
100
AcDbEntity
  8
0
100
AcDbLine
 10
0.033216
 20
1.888901
 30
0.0
 11
0.033216
 21
1.783577
 31
0.0
  0
LINE
  5
EAD5
100
AcDbEntity
  8
0
100
AcDbLine
 10
0.106132
 20
2.722971
 30
0.0
 11
0.106132
 21
2.018045
 31
0.0
  0
LINE
  5
EAD6
100
AcDbEntity
  8
0
100
AcDbLine
 10
0.085299
 20
2.722971
 30
0.0
 11
0.085299
 21
2.018045
 31
0.0
  0
LINE
  5
EAD7
100
AcDbEntity
  8
0
100
AcDbLine
 10
0.043632
 20
2.722971
 30
0.0
 11
0.043632
 21
2.018045
 31
0.0
  0
LINE
  5
EAD8
100
AcDbEntity
  8
0
100
AcDbLine
 10
1.126966
 20
-0.06037
 30
0.0
 11
1.126966
 21
0.06037
 31
0.0
  0
ENDBLK
  5
EADA
100
AcDbEntity
  8
0
100
AcDbBlockEnd
  0
BLOCK
  5
EADE
100
AcDbEntity
  8
0
100
AcDbBlockBegin
  2
CM-5
 70
    64
 10
0.0
 20
0.0
 30
0.0
  3
CM-5
  1

  0
LINE
  5
EADC
100
AcDbEntity
  8
0
100
AcDbLine
 10
0.220477
 20
0.057911
 30
0.0
 11
0.139194
 21
0.139194
 31
0.0
  0
LINE
  5
EADD
100
AcDbEntity
  8
0
100
AcDbLine
 10
0.455165
 20
0.101611
 30
0.0
 11
0.278388
 21
0.278388
 31
0.0
  0
ENDBLK
  5
EADF
100
AcDbEntity
  8
0
100
AcDbBlockEnd
  0
BLOCK
  5
EAE9
100
AcDbEntity
  8
0
100
AcDbBlockBegin
  2
IN-8
 70
    64
 10
0.0
 20
0.0
 30
0.0
  3
IN-8
  1

  0
LINE
  5
EAE1
100
AcDbEntity
  8
0
100
AcDbLine
 10
0.088388
 20
0.088388
 30
0.0
 11
-0.041314
 21
0.218091
 31
0.0
  0
LINE
  5
EAE2
100
AcDbEntity
  8
0
100
AcDbLine
 10
0.176777
 20
0.176777
 30
0.0
 11
0.0
 21
0.353553
 31
0.0
  0
LINE
  5
EAE3
100
AcDbEntity
  8
0
100
AcDbLine
 10
0.265165
 20
0.265165
 30
0.0
 11
0.135463
 21
0.394867
 31
0.0
  0
LINE
  5
EAE4
100
AcDbEntity
  8
0
100
AcDbLine
 10
0.353553
 20
0.353553
 30
0.0
 11
0.138909
 21
0.568198
 31
0.0
  0
LINE
  5
EAE5
100
AcDbEntity
  8
0
100
AcDbLine
 10
0.441942
 20
0.441942
 30
0.0
 11
0.312239
 21
0.571644
 31
0.0
  0
LINE
  5
EAE6
100
AcDbEntity
  8
0
100
AcDbLine
 10
0.53033
 20
0.53033
 30
0.0
 11
0.353553
 21
0.707107
 31
0.0
  0
LINE
  5
EAE7
100
AcDbEntity
  8
0
100
AcDbLine
 10
0.618718
 20
0.618718
 30
0.0
 11
0.489016
 21
0.748421
 31
0.0
  0
LINE
  5
EAE8
100
AcDbEntity
  8
0
100
AcDbLine
 10
0.707107
 20
0.707107
 30
0.0
 11
0.492462
 21
0.921752
 31
0.0
  0
ENDBLK
  5
EAEA
100
AcDbEntity
  8
0
100
AcDbBlockEnd
  0
BLOCK
  5
EAF8
100
AcDbEntity
  8
0
100
AcDbBlockBegin
  2
_25BOLT
 70
    64
 10
0.0
 20
0.0
 30
0.0
  3
_25BOLT
  1

  0
CIRCLE
  5
EAEC
100
AcDbEntity
  8
0
100
AcDbCircle
 10
0.0
 20
0.0
 30
0.0
 40
0.125
  0
POLYLINE
  5
EAED
100
AcDbEntity
  8
0
100
AcDb2dPolyline
 66
     1
 10
0.0
 20
0.0
 30
0.0
 70
     1
  0
VERTEX
  5
EAEE
100
AcDbEntity
  8
0
100
AcDbVertex
100
AcDb2dVertex
 10
0.072169
 20
-0.125
 30
0.0
  0
VERTEX
  5
EAEF
100
AcDbEntity
  8
0
100
AcDbVertex
100
AcDb2dVertex
 10
0.144338
 20
0.0
 30
0.0
  0
VERTEX
  5
EAF0
100
AcDbEntity
  8
0
100
AcDbVertex
100
AcDb2dVertex
 10
0.072169
 20
0.125
 30
0.0
  0
VERTEX
  5
EAF1
100
AcDbEntity
  8
0
100
AcDbVertex
100
AcDb2dVertex
 10
-0.072169
 20
0.125
 30
0.0
  0
VERTEX
  5
EAF2
100
AcDbEntity
  8
0
100
AcDbVertex
100
AcDb2dVertex
 10
-0.144338
 20
0.0
 30
0.0
  0
VERTEX
  5
EAF3
100
AcDbEntity
  8
0
100
AcDbVertex
100
AcDb2dVertex
 10
-0.072169
 20
-0.125
 30
0.0
  0
SEQEND
  5
EAF4
100
AcDbEntity
  8
0
  0
LINE
  5
EAF5
100
AcDbEntity
  8
0
100
AcDbLine
 10
-0.05741
 20
-0.033146
 30
0.0
 11
-0.020297
 21
-0.011719
 31
0.0
  0
LINE
  5
EAF6
100
AcDbEntity
  8
0
100
AcDbLine
 10
0.05741
 20
-0.033146
 30
0.0
 11
0.020297
 21
-0.011719
 31
0.0
  0
LINE
  5
EAF7
100
AcDbEntity
  8
0
100
AcDbLine
 10
0.0
 20
0.066291
 30
0.0
 11
0.0
 21
0.023438
 31
0.0
  0
ENDBLK
  5
EAF9
100
AcDbEntity
  8
0
100
AcDbBlockEnd
  0
BLOCK
  5
EB22
100
AcDbEntity
  8
0
100
AcDbBlockBegin
  2
T2
 70
    64
 10
0.0
 20
0.0
 30
0.0
  3
T2
  1

  0
CIRCLE
  5
EAFE
100
AcDbEntity
  8
HIDE_THIS
 62
     2
100
AcDbCircle
 10
0.0
 20
0.0
 30
0.0
 40
2.558643
  0
CIRCLE
  5
EAFF
100
AcDbEntity
  8
HIDE_THIS
 62
   170
100
AcDbCircle
 10
0.0
 20
0.0
 30
0.0
 40
1.891976
  0
CIRCLE
  5
EB00
100
AcDbEntity
  8
HIDE_THIS
 62
   170
100
AcDbCircle
 10
0.0
 20
0.0
 30
0.0
 40
2.725309
  0
CIRCLE
  5
EB01
100
AcDbEntity
  8
HIDE_THIS
 62
     2
100
AcDbCircle
 10
0.0
 20
0.0
 30
0.0
 40
3.391976
  0
TEXT
  5
EB02
100
AcDbEntity
  8
0
100
AcDbText
 10
-1.434152
 20
-3.076232
 30
0.0
 40
0.421875
  1
f
 50
337.0374
  7
BLD
 72
     1
 11
-1.323314
 21
-3.123194
 31
0.0
100
AcDbText
  0
TEXT
  5
EB03
100
AcDbEntity
  8
0
100
AcDbText
 10
-2.229045
 20
-2.561849
 30
0.0
 40
0.421875
  1
r
 50
321.7061
  7
BLD
 72
     1
 11
-2.101993
 21
-2.662166
 31
0.0
100
AcDbText
  0
TEXT
  5
EB04
100
AcDbEntity
  8
0
100
AcDbText
 10
-1.882169
 20
-2.827543
 30
0.0
 40
0.421875
  1
a
 50
329.3717
  7
BLD
 72
     1
 11
-1.728097
 21
-2.918764
 31
0.0
100
AcDbText
  0
TEXT
  5
EB05
100
AcDbEntity
  8
0
100
AcDbText
 10
-2.550854
 20
-2.241618
 30
0.0
 40
0.421875
  1
c
 50
314.0405
  7
BLD
 72
     1
 11
-2.438319
 21
-2.357987
 31
0.0
100
AcDbText
  0
TEXT
  5
EB06
100
AcDbEntity
  8
0
100
AcDbText
 10
0.550748
 20
-2.503747
 30
0.0
 40
0.421875
  1
e
 50
15.9712
  7
BLD
 72
     1
 11
0.704023
 21
-2.459879
 31
0.0
100
AcDbText
  0
TEXT
  5
EB07
100
AcDbEntity
  8
0
100
AcDbText
 10
0.721414
 20
-3.319474
 30
0.0
 40
0.421875
  1
n
 50
15.3656
  7
BLD
 72
     1
 11
0.898795
 21
-3.270729
 31
0.0
100
AcDbText
  0
TEXT
  5
EB08
100
AcDbEntity
  8
0
100
AcDbText
 10
0.054918
 20
-2.564659
 30
0.0
 40
0.421875
  1
u
 50
5.339
  7
BLD
 72
     1
 11
0.238077
 21
-2.547542
 31
0.0
100
AcDbText
  0
TEXT
  5
EB09
100
AcDbEntity
  8
0
100
AcDbText
 10
-0.397235
 20
-2.532797
 30
0.0
 40
0.421875
  1
r
 50
354.7067
  7
BLD
 72
     1
 11
-0.236043
 21
-2.547732
 31
0.0
100
AcDbText
  0
TEXT
  5
EB0A
100
AcDbEntity
  8
0
100
AcDbText
 10
-0.257962
 20
-3.392131
 30
0.0
 40
0.421875
  1
m
 50
0.0343
  7
BLD
 72
     1
 11
0.00203
 21
-3.391975
 31
0.0
100
AcDbText
  0
TEXT
  5
EB0B
100
AcDbEntity
  8
0
100
AcDbText
 10
-0.623053
 20
-3.338807
 30
0.0
 40
0.421875
  1
s
 50
352.3687
  7
BLD
 72
     1
 11
-0.45045
 21
-3.361933
 31
0.0
100
AcDbText
  0
TEXT
  5
EB0C
100
AcDbEntity
  8
0
100
AcDbText
 10
-1.00844
 20
-3.240742
 30
0.0
 40
0.421875
  1
t
 50
344.703
  7
BLD
 72
     1
 11
-0.894879
 21
-3.271803
 31
0.0
100
AcDbText
  0
TEXT
  5
EB0D
100
AcDbEntity
  8
0
100
AcDbText
 10
0.277037
 20
-3.385382
 30
0.0
 40
0.421875
  1
a
 50
7.6999
  7
BLD
 72
     1
 11
0.454474
 21
-3.361392
 31
0.0
100
AcDbText
  0
TEXT
  5
EB0E
100
AcDbEntity
  8
0
100
AcDbText
 10
-0.815273
 20
-2.428136
 30
0.0
 40
0.421875
  1
t
 50
344.0745
  7
BLD
 72
     1
 11
-0.702059
 21
-2.46044
 31
0.0
100
AcDbText
  0
TEXT
  5
EB0F
100
AcDbEntity
  8
0
100
AcDbText
 10
2.306606
 20
-2.494517
 30
0.0
 40
0.421875
  1
p
 50
46.0281
  7
BLD
 72
     1
 11
2.44114
 21
-2.355066
 31
0.0
100
AcDbText
  0
TEXT
  5
EB10
100
AcDbEntity
  8
0
100
AcDbText
 10
2.041712
 20
-2.709883
 30
0.0
 40
0.421875
  1
i
 50
38.3625
  7
BLD
 72
     1
 11
2.105178
 21
-2.659648
 31
0.0
100
AcDbText
  0
TEXT
  5
EB11
100
AcDbEntity
  8
0
100
AcDbText
 10
1.56919
 20
-3.013107
 30
0.0
 40
0.421875
  1
h
 50
30.6969
  7
BLD
 72
     1
 11
1.731589
 21
-2.916693
 31
0.0
100
AcDbText
  0
TEXT
  5
EB12
100
AcDbEntity
  8
0
100
AcDbText
 10
1.166786
 20
-3.189739
 30
0.0
 40
0.421875
  1
s
 50
23.0312
  7
BLD
 72
     1
 11
1.327052
 21
-3.121608
 31
0.0
100
AcDbText
  0
TEXT
  5
EB13
100
AcDbEntity
  8
0
100
AcDbText
 10
2.127788
 20
1.721714
 30
0.0
 40
0.671875
  1
e
 50
303.6556
  7
BLD
 72
     1
 11
2.268502
 21
1.510367
 31
0.0
100
AcDbText
  0
TEXT
  5
EB14
100
AcDbEntity
  8
0
100
AcDbText
 10
-1.170558
 20
1.507925
 30
0.0
 40
0.671875
  1
e
 50
30.1776
  7
BLD
 72
     1
 11
-0.951063
 21
1.635559
 31
0.0
100
AcDbText
  0
TEXT
  5
EB15
100
AcDbEntity
  8
0
100
AcDbText
 10
-1.529689
 20
2.273472
 30
0.0
 40
0.671875
  1
a
 50
27.9611
  7
BLD
 72
     1
 11
-1.277821
 21
2.407174
 31
0.0
100
AcDbText
  0
TEXT
  5
EB16
100
AcDbEntity
  8
0
100
AcDbText
 10
-1.91979
 20
1.938643
 30
0.0
 40
0.671875
  1
l
 50
42.012
  7
BLD
 72
     1
 11
-1.824012
 21
2.024918
 31
0.0
100
AcDbText
  0
TEXT
  5
EB17
100
AcDbEntity
  8
0
100
AcDbText
 10
-1.700474
 20
0.911885
 30
0.0
 40
0.671875
  1
D
 50
50.4726
  7
BLD
 72
     1
 11
-1.45932
 21
1.204143
 31
0.0
100
AcDbText
  0
TEXT
  5
EB18
100
AcDbEntity
  8
0
100
AcDbText
 10
-2.46605
 20
1.216855
 30
0.0
 40
0.671875
  1
B
 50
56.0629
  7
BLD
 72
     1
 11
-2.261056
 21
1.521492
 31
0.0
100
AcDbText
  0
TEXT
  5
EB19
100
AcDbEntity
  8
0
100
AcDbText
 10
0.215154
 20
1.884118
 30
0.0
 40
0.671875
  1
i
 50
349.5877
  7
BLD
 72
     1
 11
0.341938
 21
1.86082
 31
0.0
100
AcDbText
  0
TEXT
  5
EB1A
100
AcDbEntity
  8
0
100
AcDbText
 10
-0.59795
 20
1.816301
 30
0.0
 40
0.671875
  1
s
 50
9.8827
  7
BLD
 72
     1
 11
-0.324722
 21
1.863902
 31
0.0
100
AcDbText
  0
TEXT
  5
EB1B
100
AcDbEntity
  8
0
100
AcDbText
 10
1.617226
 20
2.21308
 30
0.0
 40
0.671875
  1
n
 50
317.7065
  7
BLD
 72
     1
 11
1.833937
 21
2.015933
 31
0.0
100
AcDbText
  0
TEXT
  5
EB1C
100
AcDbEntity
  8
0
100
AcDbText
 10
0.724327
 20
1.770318
 30
0.0
 40
0.671875
  1
g
 50
329.2927
  7
BLD
 72
     1
 11
0.966142
 21
1.626697
 31
0.0
100
AcDbText
  0
TEXT
  5
EB1D
100
AcDbEntity
  8
0
100
AcDbText
 10
1.286027
 20
1.418288
 30
0.0
 40
0.671875
  1
n
 50
308.9977
  7
BLD
 72
     1
 11
1.470389
 21
1.190601
 31
0.0
100
AcDbText
  0
TEXT
  5
EB1E
100
AcDbEntity
  8
0
100
AcDbText
 10
0.384125
 20
2.713962
 30
0.0
 40
0.671875
  1
L
 50
345.8084
  7
BLD
 72
     1
 11
0.668153
 21
2.642136
 31
0.0
100
AcDbText
  0
TEXT
  5
EB1F
100
AcDbEntity
  8
0
100
AcDbText
 10
-0.289509
 20
2.726029
 30
0.0
 40
0.671875
  1
k
 50
359.8593
  7
BLD
 72
     1
 11
0.006694
 21
2.725301
 31
0.0
100
AcDbText
  0
TEXT
  5
EB20
100
AcDbEntity
  8
0
100
AcDbText
 10
-0.905417
 20
2.583408
 30
0.0
 40
0.671875
  1
c
 50
13.9102
  7
BLD
 72
     1
 11
-0.655166
 21
2.645386
 31
0.0
100
AcDbText
  0
TEXT
  5
EB21
100
AcDbEntity
  8
0
100
AcDbText
 10
1.17607
 20
2.461867
 30
0.0
 40
0.671875
  1
i
 50
331.7575
  7
BLD
 72
     1
 11
1.28963
 21
2.400868
 31
0.0
100
AcDbText
  0
ENDBLK
  5
EB23
100
AcDbEntity
  8
0
100
AcDbBlockEnd
  0
BLOCK
  5
EB2E
100
AcDbEntity
  8
0
100
AcDbBlockBegin
  2
*X7
 70
    65
 10
0.0
 20
0.0
 30
0.0
  3
*X7
  1

  0
LINE
  5
EB25
100
AcDbEntity
  8
0
 62
     0
100
AcDbLine
 10
17.945396
 20
-4.770409
 30
0.0
 11
17.9462
 21
-4.769605
 31
0.0
  0
LINE
  5
EB26
100
AcDbEntity
  8
0
 62
     0
100
AcDbLine
 10
17.857008
 20
-4.770409
 30
0.0
 11
17.90025
 21
-4.727167
 31
0.0
  0
LINE
  5
EB27
100
AcDbEntity
  8
0
 62
     0
100
AcDbLine
 10
17.768619
 20
-4.770409
 30
0.0
 11
17.811862
 21
-4.727167
 31
0.0
  0
LINE
  5
EB28
100
AcDbEntity
  8
0
 62
     0
100
AcDbLine
 10
17.680231
 20
-4.770409
 30
0.0
 11
17.723473
 21
-4.727167
 31
0.0
  0
LINE
  5
EB29
100
AcDbEntity
  8
0
 62
     0
100
AcDbLine
 10
18.231876
 20
-4.749095
 30
0.0
 11
18.253803
 21
-4.727167
 31
0.0
  0
LINE
  5
EB2A
100
AcDbEntity
  8
0
 62
     0
100
AcDbLine
 10
18.298949
 20
-4.770409
 30
0.0
 11
18.342192
 21
-4.727167
 31
0.0
  0
LINE
  5
EB2B
100
AcDbEntity
  8
0
 62
     0
100
AcDbLine
 10
18.387338
 20
-4.770409
 30
0.0
 11
18.43058
 21
-4.727167
 31
0.0
  0
LINE
  5
EB2C
100
AcDbEntity
  8
0
 62
     0
100
AcDbLine
 10
18.475726
 20
-4.770409
 30
0.0
 11
18.518968
 21
-4.727167
 31
0.0
  0
LINE
  5
EB2D
100
AcDbEntity
  8
0
 62
     0
100
AcDbLine
 10
18.564114
 20
-4.770409
 30
0.0
 11
18.607357
 21
-4.727167
 31
0.0
  0
ENDBLK
  5
EB2F
100
AcDbEntity
  8
0
100
AcDbBlockEnd
  0
BLOCK
  5
EB3A
100
AcDbEntity
  8
0
100
AcDbBlockBegin
  2
*X8
 70
    65
 10
0.0
 20
0.0
 30
0.0
  3
*X8
  1

  0
LINE
  5
EB31
100
AcDbEntity
  8
0
 62
     0
100
AcDbLine
 10
17.021706
 20
-4.735726
 30
0.0
 11
17.013147
 21
-4.727167
 31
0.0
  0
LINE
  5
EB32
100
AcDbEntity
  8
0
 62
     0
100
AcDbLine
 10
16.968001
 20
-4.770409
 30
0.0
 11
16.924759
 21
-4.727167
 31
0.0
  0
LINE
  5
EB33
100
AcDbEntity
  8
0
 62
     0
100
AcDbLine
 10
16.879613
 20
-4.770409
 30
0.0
 11
16.836371
 21
-4.727167
 31
0.0
  0
LINE
  5
EB34
100
AcDbEntity
  8
0
 62
     0
100
AcDbLine
 10
16.791225
 20
-4.770409
 30
0.0
 11
16.747982
 21
-4.727167
 31
0.0
  0
LINE
  5
EB35
100
AcDbEntity
  8
0
 62
     0
100
AcDbLine
 10
16.702836
 20
-4.770409
 30
0.0
 11
16.659594
 21
-4.727167
 31
0.0
  0
LINE
  5
EB36
100
AcDbEntity
  8
0
 62
     0
100
AcDbLine
 10
17.321555
 20
-4.770409
 30
0.0
 11
17.307382
 21
-4.756237
 31
0.0
  0
LINE
  5
EB37
100
AcDbEntity
  8
0
 62
     0
100
AcDbLine
 10
17.409943
 20
-4.770409
 30
0.0
 11
17.366701
 21
-4.727167
 31
0.0
  0
LINE
  5
EB38
100
AcDbEntity
  8
0
 62
     0
100
AcDbLine
 10
17.498332
 20
-4.770409
 30
0.0
 11
17.455089
 21
-4.727167
 31
0.0
  0
LINE
  5
EB39
100
AcDbEntity
  8
0
 62
     0
100
AcDbLine
 10
17.586088
 20
-4.769778
 30
0.0
 11
17.543477
 21
-4.727167
 31
0.0
  0
ENDBLK
  5
EB3B
100
AcDbEntity
  8
0
100
AcDbBlockEnd
  0
BLOCK
  5
F6AD
100
AcDbEntity
  8
JOIST
  6
HIDDEN2
100
AcDbBlockBegin
  2
A$CE091
 70
     0
 10
0.0
 20
0.0
 30
0.0
  3
A$CE091
  1

  0
ELLIPSE
  5
F6A2
100
AcDbEntity
  8
FASTENER
100
AcDbEllipse
 10
0.369035
 20
1.020479
 30
0.0
 11
-0.1148198316929626
 21
-0.1988737822087152
 31
0.0
210
0.0
220
0.0
230
1.0
 40
0.57735
 41
0.0000000000000115
 42
6.283185307179611
  0
LINE
  5
F6A3
100
AcDbEntity
  8
FASTENER
100
AcDbLine
 10
0.042447
 20
2.48369
 30
0.0
 11
0.695624
 21
2.852281
 31
0.0
  0
LINE
  5
F6A4
100
AcDbEntity
  8
FASTENER
100
AcDbLine
 10
0.369035
 20
3.042986
 30
0.0
 11
0.369035
 21
2.292986
 31
0.0
  0
TEXT
  5
F6A5
100
AcDbEntity
  8
TEXT
100
AcDbText
 10
0.885448
 20
0.514897
 30
0.0
 40
1.0
  1
Fastner point side & or hidden
  7
ARCH
 11
0.885448
 21
0.032139
 31
0.0
100
AcDbText
 73
     1
  0
TEXT
  5
F6A6
100
AcDbEntity
  8
TEXT
100
AcDbText
 10
0.885448
 20
2.17007
 30
0.0
 40
1.0
  1
Fastner hidden
  7
ARCH
 11
0.885448
 21
1.687311
 31
0.0
100
AcDbText
 73
     1
  0
TEXT
  5
F6A7
100
AcDbEntity
  8
TEXT
100
AcDbText
 10
0.885448
 20
3.825242
 30
0.0
 40
1.0
  1
fastner
  7
ARCH
 11
0.885448
 21
3.342483
 31
0.0
100
AcDbText
 73
     1
  0
LINE
  5
F6A8
100
AcDbEntity
  8
FASTENER
100
AcDbLine
 10
0.369035
 20
1.395479
 30
0.0
 11
0.369035
 21
0.645479
 31
0.0
  0
LINE
  5
F6A9
100
AcDbEntity
  8
FASTENER
100
AcDbLine
 10
0.042447
 20
0.836183
 30
0.0
 11
0.695624
 21
1.204775
 31
0.0
  0
LINE
  5
F6AA
100
AcDbEntity
  8
FASTENER
100
AcDbLine
 10
0.347025
 20
4.724695
 30
0.0
 11
0.347025
 21
3.974695
 31
0.0
  0
LINE
  5
F6AB
100
AcDbEntity
  8
FASTENER
100
AcDbLine
 10
0.020437
 20
4.1654
 30
0.0
 11
0.673614
 21
4.533991
 31
0.0
  0
ELLIPSE
  5
F6AC
100
AcDbEntity
  8
FASTENER
100
AcDbEllipse
 10
0.347025
 20
4.349695
 30
0.0
 11
-0.2296396633858981
 21
-0.3977475644174473
 31
0.0
210
0.0
220
0.0
230
1.0
 40
0.57735
 41
0.0000000000000056
 42
6.283185307179605
  0
ENDBLK
  5
F6AE
100
AcDbEntity
  8
JOIST
  6
HIDDEN2
100
AcDbBlockEnd
  0
ENDSEC
  0
SECTION
  2
ENTITIES
  0
LINE
  5
1ACA
100
AcDbEntity
  8
TRACK
100
AcDbLine
 10
-15.423153
 20
69.491797
 30
0.0
 11
31.325924
 21
42.499984
 31
0.0
  0
LINE
  5
1ACB
100
AcDbEntity
  8
TRACK
100
AcDbLine
 10
-15.390228
 20
71.175758
 30
0.0
 11
34.822951
 21
42.183946
 31
0.0
  0
LINE
  5
1B12
100
AcDbEntity
  8
TRACK
100
AcDbLine
 10
-13.770336
 20
73.793289
 30
0.0
 11
34.435692
 21
45.960362
 31
0.0
  0
LINE
  5
1BED
100
AcDbEntity
  8
TRACK
100
AcDbLine
 10
73.47557
 20
139.869168
 30
0.0
 11
127.147065
 21
108.882525
 31
0.0
  0
LINE
  5
1BF5
100
AcDbEntity
  8
TRACK
100
AcDbLine
 10
70.878456
 20
137.739745
 30
0.0
 11
126.445074
 21
105.658952
 31
0.0
  0
LINE
  5
1BF6
100
AcDbEntity
  8
TRACK
100
AcDbLine
 10
70.911381
 20
137.796772
 30
0.0
 11
126.526496
 21
105.68798
 31
0.0
  0
LINE
  5
1BF7
100
AcDbEntity
  8
TRACK
100
AcDbLine
 10
70.880131
 20
136.113777
 30
0.0
 11
124.902214
 21
104.922875
 31
0.0
  0
LINE
  5
755E
100
AcDbEntity
  8
STUD
100
AcDbLine
 10
-9.418156
 20
66.024375
 30
0.0
 11
-9.418156
 21
30.928776
 31
0.0
  0
LINE
  5
7591
100
AcDbEntity
  8
STUD
100
AcDbLine
 10
-9.452756
 20
66.044352
 30
0.0
 11
-9.452756
 21
30.948752
 31
0.0
  0
LINE
  5
7592
100
AcDbEntity
  8
STUD
100
AcDbLine
 10
-9.024767
 20
65.797244
 30
0.0
 11
-9.024767
 21
31.155899
 31
0.0
  0
LINE
  5
7593
100
AcDbEntity
  8
STUD
100
AcDbLine
 10
-10.324358
 20
66.547588
 30
0.0
 11
-10.324358
 21
31.974519
 31
0.0
  0
LINE
  5
7594
100
AcDbEntity
  8
STUD
100
AcDbLine
 10
-10.352258
 20
66.563697
 30
0.0
 11
-10.352258
 21
31.974519
 31
0.0
  0
LINE
  5
7596
100
AcDbEntity
  8
STUD
100
AcDbLine
 10
-12.101609
 20
67.573719
 30
0.0
 11
-12.101609
 21
30.80861
 31
0.0
  0
LINE
  5
7597
100
AcDbEntity
  8
STUD
100
AcDbLine
 10
-12.039109
 20
67.537633
 30
0.0
 11
-12.039109
 21
30.772526
 31
0.0
  0
LINE
  5
7598
100
AcDbEntity
  8
STUD
100
AcDbLine
 10
-11.58322
 20
67.274416
 30
0.0
 11
-11.58322
 21
30.509318
 31
0.0
  0
ELLIPSE
  5
75BA
100
AcDbEntity
  8
FASTENER
100
AcDbEllipse
 10
0.84271
 20
60.941146
 30
0.0
 11
-0.0765465544619697
 21
0.132582521472475
 31
0.0
210
0.0
220
0.0
230
1.0
 40
0.57735
 41
0.0000000000000362
 42
6.283185307179636
  0
LINE
  5
75BB
100
AcDbEntity
  8
FASTENER
100
AcDbLine
 10
0.950963
 20
60.878646
 30
0.0
 11
0.734457
 21
61.003646
 31
0.0
  0
LINE
  5
75BC
100
AcDbEntity
  8
FASTENER
100
AcDbLine
 10
0.84394
 20
61.06614
 30
0.0
 11
0.84148
 21
60.816152
 31
0.0
  0
LINE
  5
75C7
100
AcDbEntity
  8
STUD
100
AcDbLine
 10
4.43825
 20
58.024108
 30
0.0
 11
4.43825
 21
23.693533
 31
0.0
  0
LINE
  5
75FA
100
AcDbEntity
  8
STUD
100
AcDbLine
 10
4.40365
 20
58.044085
 30
0.0
 11
4.40365
 21
23.71351
 31
0.0
  0
LINE
  5
75FB
100
AcDbEntity
  8
STUD
100
AcDbLine
 10
4.83164
 20
57.796977
 30
0.0
 11
4.83164
 21
23.920657
 31
0.0
  0
LINE
  5
75FC
100
AcDbEntity
  8
STUD
100
AcDbLine
 10
3.532048
 20
58.547321
 30
0.0
 11
3.532048
 21
24.739277
 31
0.0
  0
LINE
  5
75FD
100
AcDbEntity
  8
STUD
100
AcDbLine
 10
3.504148
 20
58.56343
 30
0.0
 11
3.504148
 21
24.739277
 31
0.0
  0
LINE
  5
75FE
100
AcDbEntity
  8
STUD
100
AcDbLine
 10
0.472506
 20
60.313808
 30
0.0
 11
0.472506
 21
24.313699
 31
0.0
  0
LINE
  5
75FF
100
AcDbEntity
  8
STUD
100
AcDbLine
 10
1.754797
 20
59.573452
 30
0.0
 11
1.754797
 21
23.573368
 31
0.0
  0
LINE
  5
7600
100
AcDbEntity
  8
STUD
100
AcDbLine
 10
1.817297
 20
59.537366
 30
0.0
 11
1.817297
 21
23.537283
 31
0.0
  0
LINE
  5
7601
100
AcDbEntity
  8
STUD
100
AcDbLine
 10
2.273187
 20
59.27415
 30
0.0
 11
2.273187
 21
23.274076
 31
0.0
  0
ELLIPSE
  5
7623
100
AcDbEntity
  8
FASTENER
100
AcDbEllipse
 10
14.699116
 20
52.941146
 30
0.0
 11
-0.0765465544619697
 21
0.132582521472475
 31
0.0
210
0.0
220
0.0
230
1.0
 40
0.57735
 41
0.0000000000000404
 42
6.28318530717964
  0
LINE
  5
7624
100
AcDbEntity
  8
FASTENER
100
AcDbLine
 10
14.807369
 20
52.878646
 30
0.0
 11
14.590863
 21
53.003646
 31
0.0
  0
LINE
  5
7625
100
AcDbEntity
  8
FASTENER
100
AcDbLine
 10
14.700346
 20
53.06614
 30
0.0
 11
14.697886
 21
52.816152
 31
0.0
  0
LINE
  5
7630
100
AcDbEntity
  8
STUD
100
AcDbLine
 10
18.294657
 20
50.023841
 30
0.0
 11
18.294657
 21
25.125553
 31
0.0
  0
LINE
  5
7663
100
AcDbEntity
  8
STUD
100
AcDbLine
 10
18.260057
 20
50.043818
 30
0.0
 11
18.260057
 21
25.145529
 31
0.0
  0
LINE
  5
7664
100
AcDbEntity
  8
STUD
100
AcDbLine
 10
18.688046
 20
49.79671
 30
0.0
 11
18.688046
 21
25.352676
 31
0.0
  0
LINE
  5
7665
100
AcDbEntity
  8
STUD
100
AcDbLine
 10
17.388455
 20
50.547055
 30
0.0
 11
17.388455
 21
26.171296
 31
0.0
  0
LINE
  5
7666
100
AcDbEntity
  8
STUD
100
AcDbLine
 10
17.360555
 20
50.563163
 30
0.0
 11
17.360555
 21
26.171296
 31
0.0
  0
LINE
  5
7667
100
AcDbEntity
  8
STUD
100
AcDbLine
 10
14.328913
 20
52.313541
 30
0.0
 11
14.328913
 21
25.745718
 31
0.0
  0
LINE
  5
7668
100
AcDbEntity
  8
STUD
100
AcDbLine
 10
15.611204
 20
51.573185
 30
0.0
 11
15.611204
 21
25.005387
 31
0.0
  0
LINE
  5
7669
100
AcDbEntity
  8
STUD
100
AcDbLine
 10
15.673704
 20
51.537099
 30
0.0
 11
15.673704
 21
24.969303
 31
0.0
  0
LINE
  5
766A
100
AcDbEntity
  8
STUD
100
AcDbLine
 10
16.129593
 20
51.273883
 30
0.0
 11
16.129593
 21
24.706095
 31
0.0
  0
LINE
  5
7C28
100
AcDbEntity
  8
STUD
100
AcDbLine
 10
75.36138
 20
133.526503
 30
0.0
 11
75.36138
 21
117.083601
 31
0.0
  0
LINE
  5
7C29
100
AcDbEntity
  8
STUD
100
AcDbLine
 10
74.905491
 20
133.78972
 30
0.0
 11
74.905491
 21
117.346834
 31
0.0
  0
LINE
  5
7C2A
100
AcDbEntity
  8
STUD
100
AcDbLine
 10
74.842991
 20
133.825805
 30
0.0
 11
74.842991
 21
117.382922
 31
0.0
  0
LINE
  5
7C2B
100
AcDbEntity
  8
STUD
100
AcDbLine
 10
73.5607
 20
134.566161
 30
0.0
 11
73.5607
 21
118.123322
 31
0.0
  0
LINE
  5
7C2C
100
AcDbEntity
  8
STUD
100
AcDbLine
 10
76.592342
 20
132.815783
 30
0.0
 11
76.592342
 21
116.372839
 31
0.0
  0
LINE
  5
7C2D
100
AcDbEntity
  8
STUD
100
AcDbLine
 10
76.620242
 20
132.799675
 30
0.0
 11
76.620242
 21
116.35673
 31
0.0
  0
LINE
  5
7C2E
100
AcDbEntity
  8
STUD
100
AcDbLine
 10
77.919833
 20
132.04933
 30
0.0
 11
77.919833
 21
115.60634
 31
0.0
  0
LINE
  5
7C2F
100
AcDbEntity
  8
STUD
100
AcDbLine
 10
77.491844
 20
132.296438
 30
0.0
 11
77.491844
 21
115.853463
 31
0.0
  0
LINE
  5
7C30
100
AcDbEntity
  8
STUD
100
AcDbLine
 10
77.526444
 20
132.276461
 30
0.0
 11
77.526444
 21
115.833485
 31
0.0
  0
LINE
  5
7C8B
100
AcDbEntity
  8
STUD
100
AcDbLine
 10
89.217787
 20
125.526236
 30
0.0
 11
89.217787
 21
109.082854
 31
0.0
  0
LINE
  5
7C8C
100
AcDbEntity
  8
STUD
100
AcDbLine
 10
88.761897
 20
125.789452
 30
0.0
 11
88.761897
 21
109.346086
 31
0.0
  0
LINE
  5
7C8D
100
AcDbEntity
  8
STUD
100
AcDbLine
 10
88.699397
 20
125.825538
 30
0.0
 11
88.699397
 21
109.382174
 31
0.0
  0
LINE
  5
7C8E
100
AcDbEntity
  8
STUD
100
AcDbLine
 10
87.417106
 20
126.565894
 30
0.0
 11
87.417106
 21
110.122574
 31
0.0
  0
LINE
  5
7C8F
100
AcDbEntity
  8
STUD
100
AcDbLine
 10
90.448748
 20
124.815516
 30
0.0
 11
90.448748
 21
108.372091
 31
0.0
  0
LINE
  5
7C90
100
AcDbEntity
  8
STUD
100
AcDbLine
 10
90.476648
 20
124.799407
 30
0.0
 11
90.476648
 21
108.355982
 31
0.0
  0
LINE
  5
7C91
100
AcDbEntity
  8
STUD
100
AcDbLine
 10
91.776239
 20
124.049063
 30
0.0
 11
91.776239
 21
107.605592
 31
0.0
  0
LINE
  5
7C92
100
AcDbEntity
  8
STUD
100
AcDbLine
 10
91.34825
 20
124.296171
 30
0.0
 11
91.34825
 21
107.852715
 31
0.0
  0
LINE
  5
7C93
100
AcDbEntity
  8
STUD
100
AcDbLine
 10
91.38285
 20
124.276194
 30
0.0
 11
91.38285
 21
107.832737
 31
0.0
  0
LINE
  5
7CEE
100
AcDbEntity
  8
STUD
100
AcDbLine
 10
103.074193
 20
117.525968
 30
0.0
 11
103.074193
 21
101.082106
 31
0.0
  0
LINE
  5
7CEF
100
AcDbEntity
  8
STUD
100
AcDbLine
 10
102.618304
 20
117.789185
 30
0.0
 11
102.618304
 21
101.345338
 31
0.0
  0
LINE
  5
7CF0
100
AcDbEntity
  8
STUD
100
AcDbLine
 10
102.555804
 20
117.82527
 30
0.0
 11
102.555804
 21
101.381426
 31
0.0
  0
LINE
  5
7CF1
100
AcDbEntity
  8
STUD
100
AcDbLine
 10
101.273513
 20
118.565626
 30
0.0
 11
101.273513
 21
102.121826
 31
0.0
  0
LINE
  5
7CF2
100
AcDbEntity
  8
STUD
100
AcDbLine
 10
104.305155
 20
116.815249
 30
0.0
 11
104.305155
 21
100.371343
 31
0.0
  0
LINE
  5
7CF3
100
AcDbEntity
  8
STUD
100
AcDbLine
 10
104.333055
 20
116.79914
 30
0.0
 11
104.333055
 21
100.355234
 31
0.0
  0
LINE
  5
7CF4
100
AcDbEntity
  8
STUD
100
AcDbLine
 10
105.632646
 20
116.048795
 30
0.0
 11
105.632646
 21
99.604844
 31
0.0
  0
LINE
  5
7CF5
100
AcDbEntity
  8
STUD
100
AcDbLine
 10
105.204657
 20
116.295903
 30
0.0
 11
105.204657
 21
99.851967
 31
0.0
  0
LINE
  5
7CF6
100
AcDbEntity
  8
STUD
100
AcDbLine
 10
105.239257
 20
116.275926
 30
0.0
 11
105.239257
 21
99.831989
 31
0.0
  0
LINE
  5
7D51
100
AcDbEntity
  8
STUD
100
AcDbLine
 10
116.9306
 20
109.525701
 30
0.0
 11
116.9306
 21
93.081358
 31
0.0
  0
LINE
  5
7D52
100
AcDbEntity
  8
STUD
100
AcDbLine
 10
116.47471
 20
109.788918
 30
0.0
 11
116.47471
 21
93.34459
 31
0.0
  0
LINE
  5
7D53
100
AcDbEntity
  8
STUD
100
AcDbLine
 10
116.41221
 20
109.825003
 30
0.0
 11
116.41221
 21
93.380678
 31
0.0
  0
LINE
  5
7D54
100
AcDbEntity
  8
STUD
100
AcDbLine
 10
115.129919
 20
110.565359
 30
0.0
 11
115.129919
 21
94.121079
 31
0.0
  0
LINE
  5
7D55
100
AcDbEntity
  8
STUD
100
AcDbLine
 10
118.161561
 20
108.814981
 30
0.0
 11
118.161561
 21
93.572016
 31
0.0
  0
LINE
  5
7D56
100
AcDbEntity
  8
STUD
100
AcDbLine
 10
118.189461
 20
108.798873
 30
0.0
 11
118.189461
 21
93.588124
 31
0.0
  0
LINE
  5
7D57
100
AcDbEntity
  8
STUD
100
AcDbLine
 10
119.489052
 20
108.048528
 30
0.0
 11
119.489052
 21
94.338443
 31
0.0
  0
LINE
  5
7D58
100
AcDbEntity
  8
STUD
100
AcDbLine
 10
119.061063
 20
108.295636
 30
0.0
 11
119.061063
 21
94.091343
 31
0.0
  0
LINE
  5
7D59
100
AcDbEntity
  8
STUD
100
AcDbLine
 10
119.095663
 20
108.275659
 30
0.0
 11
119.095663
 21
94.11132
 31
0.0
  0
LINE
  5
81D8
100
AcDbEntity
  8
FASTENER
100
AcDbLine
 10
74.160943
 20
135.185649
 30
0.0
 11
74.158483
 21
134.935661
 31
0.0
  0
LINE
  5
81D9
100
AcDbEntity
  8
FASTENER
100
AcDbLine
 10
74.267966
 20
134.998155
 30
0.0
 11
74.05146
 21
135.123155
 31
0.0
  0
ELLIPSE
  5
81DA
100
AcDbEntity
  8
FASTENER
100
AcDbEllipse
 10
74.159713
 20
135.060655
 30
0.0
 11
-0.0765465544619697
 21
0.132582521472475
 31
0.0
210
0.0
220
0.0
230
1.0
 40
0.57735
 41
-0.0000000000004163
 42
6.283185307179183
  0
LINE
  5
81DB
100
AcDbEntity
  8
FASTENER
100
AcDbLine
 10
88.017349
 20
127.185649
 30
0.0
 11
88.01489
 21
126.935661
 31
0.0
  0
LINE
  5
81DC
100
AcDbEntity
  8
FASTENER
100
AcDbLine
 10
88.124373
 20
126.998155
 30
0.0
 11
87.907866
 21
127.123155
 31
0.0
  0
ELLIPSE
  5
81DD
100
AcDbEntity
  8
FASTENER
100
AcDbEllipse
 10
88.01612
 20
127.060655
 30
0.0
 11
-0.0765465544619697
 21
0.132582521472475
 31
0.0
210
0.0
220
0.0
230
1.0
 40
0.57735
 41
-0.0000000000003359
 42
6.283185307179264
  0
LINE
  5
81DE
100
AcDbEntity
  8
FASTENER
100
AcDbLine
 10
101.873756
 20
119.185649
 30
0.0
 11
101.871296
 21
118.935661
 31
0.0
  0
LINE
  5
81DF
100
AcDbEntity
  8
FASTENER
100
AcDbLine
 10
101.980779
 20
118.998155
 30
0.0
 11
101.764273
 21
119.123155
 31
0.0
  0
ELLIPSE
  5
81E0
100
AcDbEntity
  8
FASTENER
100
AcDbEllipse
 10
101.872526
 20
119.060655
 30
0.0
 11
-0.0765465544619697
 21
0.132582521472475
 31
0.0
210
0.0
220
0.0
230
1.0
 40
0.57735
 41
-0.0000000000003359
 42
6.283185307179264
  0
LINE
  5
81E1
100
AcDbEntity
  8
FASTENER
100
AcDbLine
 10
115.730162
 20
111.185649
 30
0.0
 11
115.727703
 21
110.935661
 31
0.0
  0
LINE
  5
81E2
100
AcDbEntity
  8
FASTENER
100
AcDbLine
 10
115.837186
 20
110.998155
 30
0.0
 11
115.620679
 21
111.123155
 31
0.0
  0
ELLIPSE
  5
81E3
100
AcDbEntity
  8
FASTENER
100
AcDbEllipse
 10
115.728932
 20
111.060655
 30
0.0
 11
-0.0765465544619697
 21
0.132582521472475
 31
0.0
210
0.0
220
0.0
230
1.0
 40
0.57735
 41
-0.0000000000003359
 42
6.283185307179264
  0
POLYLINE
  5
8494
100
AcDbEntity
  8
STUD
100
AcDb2dPolyline
 66
     1
 10
0.0
 20
0.0
 30
0.0
  0
VERTEX
  5
8495
100
AcDbEntity
  8
STUD
100
AcDbVertex
100
AcDb2dVertex
 10
89.217787
 20
119.738366
 30
0.0
  0
VERTEX
  5
8496
100
AcDbEntity
  8
STUD
100
AcDbVertex
100
AcDb2dVertex
 10
89.323796
 20
119.799571
 30
0.0
 42
-0.57735
  0
VERTEX
  5
8497
100
AcDbEntity
  8
STUD
100
AcDbVertex
100
AcDb2dVertex
 10
89.698796
 20
119.583065
 30
0.0
  0
VERTEX
  5
8498
100
AcDbEntity
  8
STUD
100
AcDbVertex
100
AcDb2dVertex
 10
89.698796
 20
116.910415
 30
0.0
 42
-0.267949
  0
VERTEX
  5
8499
100
AcDbEntity
  8
STUD
100
AcDbVertex
100
AcDb2dVertex
 10
89.573796
 20
116.693909
 30
0.0
  0
VERTEX
  5
849A
100
AcDbEntity
  8
STUD
100
AcDbVertex
100
AcDb2dVertex
 10
89.217787
 20
116.488366
 30
0.0
 42
-0.57735
  0
SEQEND
  5
849B
100
AcDbEntity
  8
STUD
  0
POLYLINE
  5
849C
100
AcDbEntity
  8
STUD
100
AcDb2dPolyline
 66
     1
 10
0.0
 20
0.0
 30
0.0
  0
VERTEX
  5
849D
100
AcDbEntity
  8
STUD
100
AcDbVertex
100
AcDb2dVertex
 10
103.074193
 20
111.738366
 30
0.0
  0
VERTEX
  5
849E
100
AcDbEntity
  8
STUD
100
AcDbVertex
100
AcDb2dVertex
 10
103.180203
 20
111.799571
 30
0.0
 42
-0.57735
  0
VERTEX
  5
849F
100
AcDbEntity
  8
STUD
100
AcDbVertex
100
AcDb2dVertex
 10
103.555203
 20
111.583065
 30
0.0
  0
VERTEX
  5
84A0
100
AcDbEntity
  8
STUD
100
AcDbVertex
100
AcDb2dVertex
 10
103.555203
 20
108.910415
 30
0.0
 42
-0.267949
  0
VERTEX
  5
84A1
100
AcDbEntity
  8
STUD
100
AcDbVertex
100
AcDb2dVertex
 10
103.430203
 20
108.693909
 30
0.0
  0
VERTEX
  5
84A2
100
AcDbEntity
  8
STUD
100
AcDbVertex
100
AcDb2dVertex
 10
103.074193
 20
108.488366
 30
0.0
 42
-0.57735
  0
SEQEND
  5
84A3
100
AcDbEntity
  8
STUD
  0
POLYLINE
  5
84CC
100
AcDbEntity
  8
STUD
100
AcDb2dPolyline
 66
     1
 10
0.0
 20
0.0
 30
0.0
  0
VERTEX
  5
84CD
100
AcDbEntity
  8
STUD
100
AcDbVertex
100
AcDb2dVertex
 10
116.9306
 20
103.738366
 30
0.0
  0
VERTEX
  5
84CE
100
AcDbEntity
  8
STUD
100
AcDbVertex
100
AcDb2dVertex
 10
117.036609
 20
103.799571
 30
0.0
 42
-0.57735
  0
VERTEX
  5
84CF
100
AcDbEntity
  8
STUD
100
AcDbVertex
100
AcDb2dVertex
 10
117.411609
 20
103.583065
 30
0.0
  0
VERTEX
  5
84D0
100
AcDbEntity
  8
STUD
100
AcDbVertex
100
AcDb2dVertex
 10
117.411609
 20
100.910415
 30
0.0
 42
-0.267949
  0
VERTEX
  5
84D1
100
AcDbEntity
  8
STUD
100
AcDbVertex
100
AcDb2dVertex
 10
117.286609
 20
100.693909
 30
0.0
  0
VERTEX
  5
84D2
100
AcDbEntity
  8
STUD
100
AcDbVertex
100
AcDb2dVertex
 10
116.9306
 20
100.488366
 30
0.0
 42
-0.57735
  0
SEQEND
  5
84D3
100
AcDbEntity
  8
STUD
  0
POLYLINE
  5
84DC
100
AcDbEntity
  8
STUD
100
AcDb2dPolyline
 66
     1
 10
0.0
 20
0.0
 30
0.0
  0
VERTEX
  5
84DD
100
AcDbEntity
  8
STUD
100
AcDbVertex
100
AcDb2dVertex
 10
75.36138
 20
127.738366
 30
0.0
  0
VERTEX
  5
84DE
100
AcDbEntity
  8
STUD
100
AcDbVertex
100
AcDb2dVertex
 10
75.46739
 20
127.799571
 30
0.0
 42
-0.57735
  0
VERTEX
  5
84DF
100
AcDbEntity
  8
STUD
100
AcDbVertex
100
AcDb2dVertex
 10
75.84239
 20
127.583065
 30
0.0
  0
VERTEX
  5
84E0
100
AcDbEntity
  8
STUD
100
AcDbVertex
100
AcDb2dVertex
 10
75.84239
 20
124.910415
 30
0.0
 42
-0.267949
  0
VERTEX
  5
84E1
100
AcDbEntity
  8
STUD
100
AcDbVertex
100
AcDb2dVertex
 10
75.71739
 20
124.693909
 30
0.0
  0
VERTEX
  5
84E2
100
AcDbEntity
  8
STUD
100
AcDbVertex
100
AcDb2dVertex
 10
75.36138
 20
124.488366
 30
0.0
 42
-0.57735
  0
SEQEND
  5
84E3
100
AcDbEntity
  8
STUD
  0
POLYLINE
  5
B286
100
AcDbEntity
  8
STUD
100
AcDb2dPolyline
 66
     1
 10
0.0
 20
0.0
 30
0.0
  0
VERTEX
  5
B287
100
AcDbEntity
  8
STUD
100
AcDbVertex
100
AcDb2dVertex
 10
-11.58322
 20
37.515454
 30
0.0
  0
VERTEX
  5
B288
100
AcDbEntity
  8
STUD
100
AcDbVertex
100
AcDb2dVertex
 10
-11.47721
 20
37.576658
 30
0.0
 42
-0.57735
  0
VERTEX
  5
B289
100
AcDbEntity
  8
STUD
100
AcDbVertex
100
AcDb2dVertex
 10
-11.10221
 20
37.360152
 30
0.0
  0
VERTEX
  5
B28A
100
AcDbEntity
  8
STUD
100
AcDbVertex
100
AcDb2dVertex
 10
-11.10221
 20
34.687502
 30
0.0
 42
-0.267949
  0
VERTEX
  5
B28B
100
AcDbEntity
  8
STUD
100
AcDbVertex
100
AcDb2dVertex
 10
-11.22721
 20
34.470996
 30
0.0
  0
VERTEX
  5
B28C
100
AcDbEntity
  8
STUD
100
AcDbVertex
100
AcDb2dVertex
 10
-11.58322
 20
34.265454
 30
0.0
 42
-0.57735
  0
SEQEND
  5
B28D
100
AcDbEntity
  8
STUD
  0
POLYLINE
  5
B296
100
AcDbEntity
  8
STUD
100
AcDb2dPolyline
 66
     1
 10
0.0
 20
0.0
 30
0.0
  0
VERTEX
  5
B297
100
AcDbEntity
  8
STUD
100
AcDbVertex
100
AcDb2dVertex
 10
-11.58322
 20
61.515454
 30
0.0
  0
VERTEX
  5
B298
100
AcDbEntity
  8
STUD
100
AcDbVertex
100
AcDb2dVertex
 10
-11.47721
 20
61.576658
 30
0.0
 42
-0.57735
  0
VERTEX
  5
B299
100
AcDbEntity
  8
STUD
100
AcDbVertex
100
AcDb2dVertex
 10
-11.10221
 20
61.360152
 30
0.0
  0
VERTEX
  5
B29A
100
AcDbEntity
  8
STUD
100
AcDbVertex
100
AcDb2dVertex
 10
-11.10221
 20
58.687502
 30
0.0
 42
-0.267949
  0
VERTEX
  5
B29B
100
AcDbEntity
  8
STUD
100
AcDbVertex
100
AcDb2dVertex
 10
-11.22721
 20
58.470996
 30
0.0
  0
VERTEX
  5
B29C
100
AcDbEntity
  8
STUD
100
AcDbVertex
100
AcDb2dVertex
 10
-11.58322
 20
58.265454
 30
0.0
 42
-0.57735
  0
SEQEND
  5
B29D
100
AcDbEntity
  8
STUD
  0
POLYLINE
  5
B29E
100
AcDbEntity
  8
STUD
100
AcDb2dPolyline
 66
     1
 10
0.0
 20
0.0
 30
0.0
  0
VERTEX
  5
B29F
100
AcDbEntity
  8
STUD
100
AcDbVertex
100
AcDb2dVertex
 10
2.273187
 20
53.515454
 30
0.0
  0
VERTEX
  5
B2A0
100
AcDbEntity
  8
STUD
100
AcDbVertex
100
AcDb2dVertex
 10
2.379196
 20
53.576658
 30
0.0
 42
-0.57735
  0
VERTEX
  5
B2A1
100
AcDbEntity
  8
STUD
100
AcDbVertex
100
AcDb2dVertex
 10
2.754196
 20
53.360152
 30
0.0
  0
VERTEX
  5
B2A2
100
AcDbEntity
  8
STUD
100
AcDbVertex
100
AcDb2dVertex
 10
2.754196
 20
50.687502
 30
0.0
 42
-0.267949
  0
VERTEX
  5
B2A3
100
AcDbEntity
  8
STUD
100
AcDbVertex
100
AcDb2dVertex
 10
2.629196
 20
50.470996
 30
0.0
  0
VERTEX
  5
B2A4
100
AcDbEntity
  8
STUD
100
AcDbVertex
100
AcDb2dVertex
 10
2.273187
 20
50.265454
 30
0.0
 42
-0.57735
  0
SEQEND
  5
B2A5
100
AcDbEntity
  8
STUD
  0
POLYLINE
  5
B2A6
100
AcDbEntity
  8
STUD
100
AcDb2dPolyline
 66
     1
 10
0.0
 20
0.0
 30
0.0
  0
VERTEX
  5
B2A7
100
AcDbEntity
  8
STUD
100
AcDbVertex
100
AcDb2dVertex
 10
16.129593
 20
45.515454
 30
0.0
  0
VERTEX
  5
B2A8
100
AcDbEntity
  8
STUD
100
AcDbVertex
100
AcDb2dVertex
 10
16.235603
 20
45.576658
 30
0.0
 42
-0.57735
  0
VERTEX
  5
B2A9
100
AcDbEntity
  8
STUD
100
AcDbVertex
100
AcDb2dVertex
 10
16.610603
 20
45.360152
 30
0.0
  0
VERTEX
  5
B2AA
100
AcDbEntity
  8
STUD
100
AcDbVertex
100
AcDb2dVertex
 10
16.610603
 20
42.687502
 30
0.0
 42
-0.267949
  0
VERTEX
  5
B2AB
100
AcDbEntity
  8
STUD
100
AcDbVertex
100
AcDb2dVertex
 10
16.485603
 20
42.470996
 30
0.0
  0
VERTEX
  5
B2AC
100
AcDbEntity
  8
STUD
100
AcDbVertex
100
AcDb2dVertex
 10
16.129593
 20
42.265454
 30
0.0
 42
-0.57735
  0
SEQEND
  5
B2AD
100
AcDbEntity
  8
STUD
  0
POLYLINE
  5
B2AE
100
AcDbEntity
  8
STUD
100
AcDb2dPolyline
 66
     1
 10
0.0
 20
0.0
 30
0.0
  0
VERTEX
  5
B2AF
100
AcDbEntity
  8
STUD
100
AcDbVertex
100
AcDb2dVertex
 10
2.273187
 20
29.515454
 30
0.0
  0
VERTEX
  5
B2B0
100
AcDbEntity
  8
STUD
100
AcDbVertex
100
AcDb2dVertex
 10
2.379196
 20
29.576658
 30
0.0
 42
-0.57735
  0
VERTEX
  5
B2B1
100
AcDbEntity
  8
STUD
100
AcDbVertex
100
AcDb2dVertex
 10
2.754196
 20
29.360152
 30
0.0
  0
VERTEX
  5
B2B2
100
AcDbEntity
  8
STUD
100
AcDbVertex
100
AcDb2dVertex
 10
2.754196
 20
26.687502
 30
0.0
 42
-0.267949
  0
VERTEX
  5
B2B3
100
AcDbEntity
  8
STUD
100
AcDbVertex
100
AcDb2dVertex
 10
2.629196
 20
26.470996
 30
0.0
  0
VERTEX
  5
B2B4
100
AcDbEntity
  8
STUD
100
AcDbVertex
100
AcDb2dVertex
 10
2.273187
 20
26.265454
 30
0.0
 42
-0.57735
  0
SEQEND
  5
B2B5
100
AcDbEntity
  8
STUD
  0
POLYLINE
  5
BEDC
100
AcDbEntity
  8
JOIST
100
AcDb2dPolyline
 66
     1
 10
0.0
 20
0.0
 30
0.0
 70
     1
  0
VERTEX
  5
BEDD
100
AcDbEntity
  8
JOIST
100
AcDbVertex
100
AcDb2dVertex
 10
81.006208
 20
103.689572
 30
0.0
 42
-0.267949
  0
VERTEX
  5
BEDE
100
AcDbEntity
  8
JOIST
100
AcDbVertex
100
AcDb2dVertex
 10
81.131208
 20
103.473065
 30
0.0
  0
VERTEX
  5
BEDF
100
AcDbEntity
  8
JOIST
100
AcDbVertex
100
AcDb2dVertex
 10
81.131208
 20
102.550416
 30
0.0
 42
-0.57735
  0
VERTEX
  5
BEE0
100
AcDbEntity
  8
JOIST
100
AcDbVertex
100
AcDb2dVertex
 10
80.756208
 20
102.333909
 30
0.0
  0
VERTEX
  5
BEE1
100
AcDbEntity
  8
JOIST
100
AcDbVertex
100
AcDb2dVertex
 10
78.441625
 20
103.670234
 30
0.0
 42
-0.267949
  0
VERTEX
  5
BEE2
100
AcDbEntity
  8
JOIST
100
AcDbVertex
100
AcDb2dVertex
 10
78.316625
 20
103.88674
 30
0.0
  0
VERTEX
  5
BEE3
100
AcDbEntity
  8
JOIST
100
AcDbVertex
100
AcDb2dVertex
 10
78.316625
 20
104.80939
 30
0.0
 42
-0.57735
  0
VERTEX
  5
BEE4
100
AcDbEntity
  8
JOIST
100
AcDbVertex
100
AcDb2dVertex
 10
78.691625
 20
105.025897
 30
0.0
  0
SEQEND
  5
BEE5
100
AcDbEntity
  8
JOIST
  0
POLYLINE
  5
C04D
100
AcDbEntity
  8
JOIST
100
AcDb2dPolyline
 66
     1
 10
0.0
 20
0.0
 30
0.0
 70
     1
  0
VERTEX
  5
C04E
100
AcDbEntity
  8
JOIST
100
AcDbVertex
100
AcDb2dVertex
 10
60.221598
 20
67.689572
 30
0.0
 42
-0.267949
  0
VERTEX
  5
C04F
100
AcDbEntity
  8
JOIST
100
AcDbVertex
100
AcDb2dVertex
 10
60.346598
 20
67.473065
 30
0.0
  0
VERTEX
  5
C050
100
AcDbEntity
  8
JOIST
100
AcDbVertex
100
AcDb2dVertex
 10
60.346598
 20
66.550416
 30
0.0
 42
-0.57735
  0
VERTEX
  5
C051
100
AcDbEntity
  8
JOIST
100
AcDbVertex
100
AcDb2dVertex
 10
59.971598
 20
66.333909
 30
0.0
  0
VERTEX
  5
C052
100
AcDbEntity
  8
JOIST
100
AcDbVertex
100
AcDb2dVertex
 10
57.657015
 20
67.670234
 30
0.0
 42
-0.267949
  0
VERTEX
  5
C053
100
AcDbEntity
  8
JOIST
100
AcDbVertex
100
AcDb2dVertex
 10
57.532015
 20
67.88674
 30
0.0
  0
VERTEX
  5
C054
100
AcDbEntity
  8
JOIST
100
AcDbVertex
100
AcDb2dVertex
 10
57.532015
 20
68.80939
 30
0.0
 42
-0.57735
  0
VERTEX
  5
C055
100
AcDbEntity
  8
JOIST
100
AcDbVertex
100
AcDb2dVertex
 10
57.907015
 20
69.025897
 30
0.0
  0
SEQEND
  5
C056
100
AcDbEntity
  8
JOIST
  0
POLYLINE
  5
C12F
100
AcDbEntity
  8
JOIST
100
AcDb2dPolyline
 66
     1
 10
0.0
 20
0.0
 30
0.0
 70
     1
  0
VERTEX
  5
C130
100
AcDbEntity
  8
JOIST
100
AcDbVertex
100
AcDb2dVertex
 10
11.724175
 20
63.689572
 30
0.0
 42
-0.267949
  0
VERTEX
  5
C131
100
AcDbEntity
  8
JOIST
100
AcDbVertex
100
AcDb2dVertex
 10
11.849175
 20
63.473065
 30
0.0
  0
VERTEX
  5
C132
100
AcDbEntity
  8
JOIST
100
AcDbVertex
100
AcDb2dVertex
 10
11.849175
 20
62.550416
 30
0.0
 42
-0.57735
  0
VERTEX
  5
C133
100
AcDbEntity
  8
JOIST
100
AcDbVertex
100
AcDb2dVertex
 10
11.474175
 20
62.333909
 30
0.0
  0
VERTEX
  5
C134
100
AcDbEntity
  8
JOIST
100
AcDbVertex
100
AcDb2dVertex
 10
9.159593
 20
63.670234
 30
0.0
 42
-0.267949
  0
VERTEX
  5
C135
100
AcDbEntity
  8
JOIST
100
AcDbVertex
100
AcDb2dVertex
 10
9.034593
 20
63.88674
 30
0.0
  0
VERTEX
  5
C136
100
AcDbEntity
  8
JOIST
100
AcDbVertex
100
AcDb2dVertex
 10
9.034593
 20
64.80939
 30
0.0
 42
-0.57735
  0
VERTEX
  5
C137
100
AcDbEntity
  8
JOIST
100
AcDbVertex
100
AcDb2dVertex
 10
9.409593
 20
65.025897
 30
0.0
  0
SEQEND
  5
C138
100
AcDbEntity
  8
JOIST
  0
POLYLINE
  5
C139
100
AcDbEntity
  8
JOIST
100
AcDb2dPolyline
 66
     1
 10
0.0
 20
0.0
 30
0.0
 70
     1
  0
VERTEX
  5
C13A
100
AcDbEntity
  8
JOIST
100
AcDbVertex
100
AcDb2dVertex
 10
32.508785
 20
51.689572
 30
0.0
 42
-0.267949
  0
VERTEX
  5
C13B
100
AcDbEntity
  8
JOIST
100
AcDbVertex
100
AcDb2dVertex
 10
32.633785
 20
51.473065
 30
0.0
  0
VERTEX
  5
C13C
100
AcDbEntity
  8
JOIST
100
AcDbVertex
100
AcDb2dVertex
 10
32.633785
 20
50.550416
 30
0.0
 42
-0.57735
  0
VERTEX
  5
C13D
100
AcDbEntity
  8
JOIST
100
AcDbVertex
100
AcDb2dVertex
 10
32.258785
 20
50.333909
 30
0.0
  0
VERTEX
  5
C13E
100
AcDbEntity
  8
JOIST
100
AcDbVertex
100
AcDb2dVertex
 10
29.944202
 20
51.670234
 30
0.0
 42
-0.267949
  0
VERTEX
  5
C13F
100
AcDbEntity
  8
JOIST
100
AcDbVertex
100
AcDb2dVertex
 10
29.819202
 20
51.88674
 30
0.0
  0
VERTEX
  5
C140
100
AcDbEntity
  8
JOIST
100
AcDbVertex
100
AcDb2dVertex
 10
29.819202
 20
52.80939
 30
0.0
 42
-0.57735
  0
VERTEX
  5
C141
100
AcDbEntity
  8
JOIST
100
AcDbVertex
100
AcDb2dVertex
 10
30.194202
 20
53.025897
 30
0.0
  0
SEQEND
  5
C142
100
AcDbEntity
  8
JOIST
  0
ELLIPSE
  5
C82F
100
AcDbEntity
  8
FASTENER
100
AcDbEllipse
 10
120.577267
 20
52.245535
 30
0.0
 11
0.0765465544619741
 21
-0.1325825214724725
 31
0.0
210
0.0
220
0.0
230
-1.0
 40
0.57735
 41
0.0000000000000337
 42
6.283185307179634
  0
LINE
  5
C830
100
AcDbEntity
  8
FASTENER
100
AcDbLine
 10
120.577267
 20
52.370535
 30
0.0
 11
120.577267
 21
52.120535
 31
0.0
  0
LINE
  5
C831
100
AcDbEntity
  8
FASTENER
100
AcDbLine
 10
120.68613
 20
52.184103
 30
0.0
 11
120.468404
 21
52.306967
 31
0.0
  0
ELLIPSE
  5
C832
100
AcDbEntity
  8
FASTENER
100
AcDbEllipse
 10
120.577267
 20
54.745535
 30
0.0
 11
0.0765465544619741
 21
-0.1325825214724724
 31
0.0
210
0.0
220
0.0
230
-1.0
 40
0.57735
 41
0.0000000000000351
 42
6.283185307179635
  0
LINE
  5
C833
100
AcDbEntity
  8
FASTENER
100
AcDbLine
 10
120.577267
 20
54.870535
 30
0.0
 11
120.577267
 21
54.620535
 31
0.0
  0
LINE
  5
C834
100
AcDbEntity
  8
FASTENER
100
AcDbLine
 10
120.68613
 20
54.684103
 30
0.0
 11
120.468404
 21
54.806967
 31
0.0
  0
ELLIPSE
  5
C835
100
AcDbEntity
  8
FASTENER
100
AcDbEllipse
 10
115.207132
 20
49.138577
 30
0.0
 11
0.0765465544619741
 21
-0.1325825214724725
 31
0.0
210
0.0
220
0.0
230
-1.0
 40
0.57735
 41
0.0000000000000337
 42
6.283185307179634
  0
LINE
  5
C836
100
AcDbEntity
  8
FASTENER
100
AcDbLine
 10
115.207132
 20
49.263577
 30
0.0
 11
115.207132
 21
49.013577
 31
0.0
  0
LINE
  5
C837
100
AcDbEntity
  8
FASTENER
100
AcDbLine
 10
115.315995
 20
49.077145
 30
0.0
 11
115.098269
 21
49.200009
 31
0.0
  0
ELLIPSE
  5
C838
100
AcDbEntity
  8
FASTENER
100
AcDbEllipse
 10
115.207132
 20
51.638577
 30
0.0
 11
0.0765465544619741
 21
-0.1325825214724724
 31
0.0
210
0.0
220
0.0
230
-1.0
 40
0.57735
 41
0.0000000000000351
 42
6.283185307179635
  0
LINE
  5
C839
100
AcDbEntity
  8
FASTENER
100
AcDbLine
 10
115.207132
 20
51.763577
 30
0.0
 11
115.207132
 21
51.513577
 31
0.0
  0
LINE
  5
C83A
100
AcDbEntity
  8
FASTENER
100
AcDbLine
 10
115.315995
 20
51.577145
 30
0.0
 11
115.098269
 21
51.700009
 31
0.0
  0
LINE
  5
C83B
100
AcDbEntity
  8
TRACK
100
AcDbLine
 10
114.569447
 20
52.643231
 30
0.0
 11
114.569447
 21
48.893231
 31
0.0
  0
LINE
  5
C83C
100
AcDbEntity
  8
TRACK
100
AcDbLine
 10
115.814688
 20
48.220424
 30
0.0
 11
115.814688
 21
51.970424
 31
0.0
  0
LINE
  5
C83D
100
AcDbEntity
  8
TRACK
100
AcDbLine
 10
115.774736
 20
51.947358
 30
0.0
 11
115.774736
 21
48.197358
 31
0.0
  0
LINE
  5
C83E
100
AcDbEntity
  8
TRACK
100
AcDbLine
 10
121.187394
 20
55.118491
 30
0.0
 11
121.187394
 21
51.368491
 31
0.0
  0
ELLIPSE
  5
C85E
100
AcDbEntity
  8
FASTENER
100
AcDbEllipse
 10
119.238138
 20
54.964841
 30
0.0
 11
-0.0765465544619745
 21
-0.1325825214724722
 31
0.0
210
0.0
220
0.0
230
1.0
 40
0.57735
 41
0.000000000000039
 42
6.283185307179639
  0
ELLIPSE
  5
C85F
100
AcDbEntity
  8
FASTENER
100
AcDbEllipse
 10
115.223016
 20
52.66943
 30
0.0
 11
-0.0765465544619744
 21
-0.1325825214724723
 31
0.0
210
0.0
220
0.0
230
1.0
 40
0.57735
 41
0.0000000000000374
 42
6.283185307179637
  0
LINE
  5
C860
100
AcDbEntity
  8
FASTENER
100
AcDbLine
 10
119.238138
 20
55.089841
 30
0.0
 11
119.238138
 21
54.839841
 31
0.0
  0
LINE
  5
C861
100
AcDbEntity
  8
FASTENER
100
AcDbLine
 10
119.129275
 20
54.903409
 30
0.0
 11
119.347001
 21
55.026273
 31
0.0
  0
LINE
  5
C862
100
AcDbEntity
  8
FASTENER
100
AcDbLine
 10
115.223016
 20
52.79443
 30
0.0
 11
115.223016
 21
52.54443
 31
0.0
  0
LINE
  5
C863
100
AcDbEntity
  8
FASTENER
100
AcDbLine
 10
115.114153
 20
52.607998
 30
0.0
 11
115.331879
 21
52.730862
 31
0.0
  0
LINE
  5
C864
100
AcDbEntity
  8
TRACK
100
AcDbLine
 10
119.939583
 20
55.838916
 30
0.0
 11
119.939583
 21
52.088916
 31
0.0
  0
LINE
  5
C865
100
AcDbEntity
  8
TRACK
100
AcDbLine
 10
119.877083
 20
55.838916
 30
0.0
 11
119.877083
 21
52.088916
 31
0.0
  0
LINE
  5
C866
100
AcDbEntity
  8
FASTENER
100
AcDbLine
 10
115.114153
 20
49.857998
 30
0.0
 11
115.331879
 21
49.980862
 31
0.0
  0
LINE
  5
C867
100
AcDbEntity
  8
FASTENER
100
AcDbLine
 10
115.223016
 20
50.04443
 30
0.0
 11
115.223016
 21
49.79443
 31
0.0
  0
LINE
  5
C868
100
AcDbEntity
  8
FASTENER
100
AcDbLine
 10
119.129275
 20
52.153409
 30
0.0
 11
119.347001
 21
52.276273
 31
0.0
  0
LINE
  5
C869
100
AcDbEntity
  8
FASTENER
100
AcDbLine
 10
119.238138
 20
52.339841
 30
0.0
 11
119.238138
 21
52.089841
 31
0.0
  0
ELLIPSE
  5
C86A
100
AcDbEntity
  8
FASTENER
100
AcDbEllipse
 10
115.223016
 20
49.91943
 30
0.0
 11
-0.0765465544619744
 21
-0.1325825214724723
 31
0.0
210
0.0
220
0.0
230
1.0
 40
0.57735
 41
0.0000000000000374
 42
6.283185307179637
  0
ELLIPSE
  5
C86B
100
AcDbEntity
  8
FASTENER
100
AcDbEllipse
 10
119.238138
 20
52.214841
 30
0.0
 11
-0.0765465544619745
 21
-0.1325825214724722
 31
0.0
210
0.0
220
0.0
230
1.0
 40
0.57735
 41
0.000000000000039
 42
6.283185307179639
  0
ELLIPSE
  5
C909
100
AcDbEntity
  8
JOIST
100
AcDbEllipse
 10
150.504902
 20
40.283817
 30
0.0
 11
-0.153093108923944
 21
-0.0000000000000025
 31
0.0
210
0.0
220
0.0
230
-1.0
 40
0.57735
 41
0.0000000000000286
 42
6.283185307179628
  0
LINE
  5
C90A
100
AcDbEntity
  8
JOIST
100
AcDbLine
 10
150.613156
 20
40.221317
 30
0.0
 11
150.396649
 21
40.346317
 31
0.0
  0
LINE
  5
C90B
100
AcDbEntity
  8
JOIST
100
AcDbLine
 10
150.397269
 20
40.220255
 30
0.0
 11
150.612535
 21
40.347379
 31
0.0
  0
ELLIPSE
  5
C90C
100
AcDbEntity
  8
JOIST
100
AcDbEllipse
 10
151.161247
 20
35.568367
 30
0.0
 11
-0.0765465544619697
 21
0.132582521472475
 31
0.0
210
0.0
220
0.0
230
1.0
 40
0.57735
 41
0.0000000000000231
 42
6.283185307179623
  0
LINE
  5
C90D
100
AcDbEntity
  8
JOIST
100
AcDbLine
 10
151.2695
 20
35.505867
 30
0.0
 11
151.052994
 21
35.630867
 31
0.0
  0
LINE
  5
C90E
100
AcDbEntity
  8
JOIST
100
AcDbLine
 10
151.162477
 20
35.693361
 30
0.0
 11
151.160017
 21
35.443373
 31
0.0
  0
ELLIPSE
  5
C90F
100
AcDbEntity
  8
JOIST
100
AcDbEllipse
 10
151.180923
 20
39.943271
 30
0.0
 11
-0.0765465544619698
 21
0.1325825214724749
 31
0.0
210
0.0
220
0.0
230
1.0
 40
0.57735
 41
0.0000000000000219
 42
6.283185307179622
  0
LINE
  5
C910
100
AcDbEntity
  8
JOIST
100
AcDbLine
 10
151.289176
 20
39.880771
 30
0.0
 11
151.07267
 21
40.005771
 31
0.0
  0
LINE
  5
C911
100
AcDbEntity
  8
JOIST
100
AcDbLine
 10
151.182153
 20
40.068265
 30
0.0
 11
151.179693
 21
39.818277
 31
0.0
  0
LINE
  5
C912
100
AcDbEntity
  8
JOIST
100
AcDbLine
 10
137.839901
 20
47.470255
 30
0.0
 11
138.055167
 21
47.597379
 31
0.0
  0
LINE
  5
C913
100
AcDbEntity
  8
JOIST
100
AcDbLine
 10
138.055787
 20
47.471317
 30
0.0
 11
137.839281
 21
47.596317
 31
0.0
  0
ELLIPSE
  5
C914
100
AcDbEntity
  8
JOIST
100
AcDbEllipse
 10
137.947534
 20
47.533817
 30
0.0
 11
-0.153093108923944
 21
-0.0000000000000025
 31
0.0
210
0.0
220
0.0
230
-1.0
 40
0.57735
 41
0.0000000000000286
 42
6.283185307179628
  0
LINE
  5
C922
100
AcDbEntity
  8
JOIST
100
AcDbLine
 10
150.266006
 20
34.31188
 30
0.0
 11
143.770816
 21
38.06188
 31
0.0
  0
LINE
  5
C923
100
AcDbEntity
  8
JOIST
100
AcDbLine
 10
136.808013
 20
42.041903
 30
0.0
 11
139.337459
 21
40.581527
 31
0.0
  0
LINE
  5
C924
100
AcDbEntity
  8
JOIST
100
AcDbLine
 10
150.262656
 20
39.747446
 30
0.0
 11
136.839263
 21
47.497446
 31
0.0
  0
LINE
  5
C925
100
AcDbEntity
  8
JOIST
100
AcDbLine
 10
136.808013
 20
46.916903
 30
0.0
 11
143.559333
 21
43.019027
 31
0.0
  0
LINE
  5
C926
100
AcDbEntity
  8
JOIST
100
AcDbLine
 10
151.544948
 20
40.487777
 30
0.0
 11
138.121554
 21
48.237777
 31
0.0
  0
POLYLINE
  5
C927
100
AcDbEntity
  8
JOIST
100
AcDb2dPolyline
 66
     1
 10
0.0
 20
0.0
 30
0.0
 70
     1
  0
VERTEX
  5
C928
100
AcDbEntity
  8
JOIST
100
AcDbVertex
100
AcDb2dVertex
 10
150.231406
 20
39.166903
 30
0.0
  0
VERTEX
  5
C929
100
AcDbEntity
  8
JOIST
100
AcDbVertex
100
AcDb2dVertex
 10
150.231406
 20
39.693319
 30
0.0
 42
-0.267949
  0
VERTEX
  5
C92A
100
AcDbEntity
  8
JOIST
100
AcDbVertex
100
AcDb2dVertex
 10
150.262656
 20
39.747446
 30
0.0
  0
VERTEX
  5
C92B
100
AcDbEntity
  8
JOIST
100
AcDbVertex
100
AcDb2dVertex
 10
151.544948
 20
40.487777
 30
0.0
 42
-0.57735
  0
VERTEX
  5
C92C
100
AcDbEntity
  8
JOIST
100
AcDbVertex
100
AcDb2dVertex
 10
151.638698
 20
40.43365
 30
0.0
  0
VERTEX
  5
C92D
100
AcDbEntity
  8
JOIST
100
AcDbVertex
100
AcDb2dVertex
 10
151.638698
 20
34.577988
 30
0.0
 42
-0.267949
  0
VERTEX
  5
C92E
100
AcDbEntity
  8
JOIST
100
AcDbVertex
100
AcDb2dVertex
 10
151.607448
 20
34.523861
 30
0.0
  0
VERTEX
  5
C92F
100
AcDbEntity
  8
JOIST
100
AcDbVertex
100
AcDb2dVertex
 10
150.325156
 20
33.78353
 30
0.0
 42
-0.57735
  0
VERTEX
  5
C930
100
AcDbEntity
  8
JOIST
100
AcDbVertex
100
AcDb2dVertex
 10
150.231406
 20
33.837657
 30
0.0
  0
VERTEX
  5
C931
100
AcDbEntity
  8
JOIST
100
AcDbVertex
100
AcDb2dVertex
 10
150.231406
 20
34.291903
 30
0.0
  0
VERTEX
  5
C932
100
AcDbEntity
  8
JOIST
100
AcDbVertex
100
AcDb2dVertex
 10
150.266006
 20
34.31188
 30
0.0
  0
VERTEX
  5
C933
100
AcDbEntity
  8
JOIST
100
AcDbVertex
100
AcDb2dVertex
 10
150.266006
 20
33.837657
 30
0.0
 42
0.57735
  0
VERTEX
  5
C934
100
AcDbEntity
  8
JOIST
100
AcDbVertex
100
AcDb2dVertex
 10
150.307856
 20
33.813494
 30
0.0
  0
VERTEX
  5
C935
100
AcDbEntity
  8
JOIST
100
AcDbVertex
100
AcDb2dVertex
 10
151.590148
 20
34.553826
 30
0.0
 42
0.267949
  0
VERTEX
  5
C936
100
AcDbEntity
  8
JOIST
100
AcDbVertex
100
AcDb2dVertex
 10
151.604098
 20
34.577988
 30
0.0
  0
VERTEX
  5
C937
100
AcDbEntity
  8
JOIST
100
AcDbVertex
100
AcDb2dVertex
 10
151.604098
 20
40.43365
 30
0.0
 42
0.57735
  0
VERTEX
  5
C938
100
AcDbEntity
  8
JOIST
100
AcDbVertex
100
AcDb2dVertex
 10
151.562248
 20
40.457812
 30
0.0
  0
VERTEX
  5
C939
100
AcDbEntity
  8
JOIST
100
AcDbVertex
100
AcDb2dVertex
 10
150.279956
 20
39.717481
 30
0.0
 42
0.267949
  0
VERTEX
  5
C93A
100
AcDbEntity
  8
JOIST
100
AcDbVertex
100
AcDb2dVertex
 10
150.266006
 20
39.693319
 30
0.0
  0
VERTEX
  5
C93B
100
AcDbEntity
  8
JOIST
100
AcDbVertex
100
AcDb2dVertex
 10
150.266006
 20
39.18688
 30
0.0
  0
SEQEND
  5
C93C
100
AcDbEntity
  8
JOIST
  0
LINE
  5
C93D
100
AcDbEntity
  8
JOIST
100
AcDbLine
 10
150.231406
 20
39.693319
 30
0.0
 11
136.808013
 21
47.443319
 31
0.0
  0
LINE
  5
C93E
100
AcDbEntity
  8
JOIST
100
AcDbLine
 10
151.604098
 20
34.577988
 30
0.0
 11
143.770816
 21
39.100535
 31
0.0
  0
LINE
  5
C93F
100
AcDbEntity
  8
JOIST
100
AcDbLine
 10
136.808013
 20
41.587657
 30
0.0
 11
138.94407
 21
40.354403
 31
0.0
  0
LINE
  5
C940
100
AcDbEntity
  8
JOIST
100
AcDbLine
 10
151.590148
 20
34.553826
 30
0.0
 11
143.770816
 21
39.068319
 31
0.0
  0
POLYLINE
  5
C944
100
AcDbEntity
  8
JOIST
100
AcDb2dPolyline
 66
     1
 10
0.0
 20
0.0
 30
0.0
  0
VERTEX
  5
C945
100
AcDbEntity
  8
JOIST
100
AcDbVertex
100
AcDb2dVertex
 10
136.901763
 20
41.53353
 30
0.0
 42
-0.57735
  0
VERTEX
  5
C946
100
AcDbEntity
  8
JOIST
100
AcDbVertex
100
AcDb2dVertex
 10
136.808013
 20
41.587657
 30
0.0
  0
VERTEX
  5
C947
100
AcDbEntity
  8
JOIST
100
AcDbVertex
100
AcDb2dVertex
 10
136.808013
 20
42.041903
 30
0.0
  0
VERTEX
  5
C948
100
AcDbEntity
  8
JOIST
100
AcDbVertex
100
AcDb2dVertex
 10
136.842613
 20
42.06188
 30
0.0
  0
SEQEND
  5
C949
100
AcDbEntity
  8
JOIST
  0
POLYLINE
  5
C94A
100
AcDbEntity
  8
JOIST
100
AcDb2dPolyline
 66
     1
 10
0.0
 20
0.0
 30
0.0
  0
VERTEX
  5
C94B
100
AcDbEntity
  8
JOIST
100
AcDbVertex
100
AcDb2dVertex
 10
137.295152
 20
41.800606
 30
0.0
  0
VERTEX
  5
C94C
100
AcDbEntity
  8
JOIST
100
AcDbVertex
100
AcDb2dVertex
 10
138.166754
 20
42.303826
 30
0.0
 42
0.267949
  0
VERTEX
  5
C94D
100
AcDbEntity
  8
JOIST
100
AcDbVertex
100
AcDb2dVertex
 10
138.180704
 20
42.327988
 30
0.0
  0
VERTEX
  5
C94E
100
AcDbEntity
  8
JOIST
100
AcDbVertex
100
AcDb2dVertex
 10
138.180704
 20
46.12438
 30
0.0
 42
0.57735
  0
SEQEND
  5
C94F
100
AcDbEntity
  8
JOIST
  0
POLYLINE
  5
C950
100
AcDbEntity
  8
JOIST
100
AcDb2dPolyline
 66
     1
 10
0.0
 20
0.0
 30
0.0
  0
VERTEX
  5
C951
100
AcDbEntity
  8
JOIST
100
AcDbVertex
100
AcDb2dVertex
 10
136.808013
 20
46.916903
 30
0.0
  0
VERTEX
  5
C952
100
AcDbEntity
  8
JOIST
100
AcDbVertex
100
AcDb2dVertex
 10
136.808013
 20
47.443319
 30
0.0
 42
-0.267949
  0
VERTEX
  5
C953
100
AcDbEntity
  8
JOIST
100
AcDbVertex
100
AcDb2dVertex
 10
136.839263
 20
47.497446
 30
0.0
  0
VERTEX
  5
C954
100
AcDbEntity
  8
JOIST
100
AcDbVertex
100
AcDb2dVertex
 10
138.121554
 20
48.237777
 30
0.0
 42
-0.57735
  0
VERTEX
  5
C955
100
AcDbEntity
  8
JOIST
100
AcDbVertex
100
AcDb2dVertex
 10
138.215304
 20
48.18365
 30
0.0
  0
SEQEND
  5
C956
100
AcDbEntity
  8
JOIST
  0
POLYLINE
  5
C957
100
AcDbEntity
  8
JOIST
100
AcDb2dPolyline
 66
     1
 10
0.0
 20
0.0
 30
0.0
  0
VERTEX
  5
C958
100
AcDbEntity
  8
JOIST
100
AcDbVertex
100
AcDb2dVertex
 10
122.951606
 20
38.916903
 30
0.0
  0
VERTEX
  5
C959
100
AcDbEntity
  8
JOIST
100
AcDbVertex
100
AcDb2dVertex
 10
122.951606
 20
39.443319
 30
0.0
 42
-0.267949
  0
VERTEX
  5
C95A
100
AcDbEntity
  8
JOIST
100
AcDbVertex
100
AcDb2dVertex
 10
122.982856
 20
39.497446
 30
0.0
  0
VERTEX
  5
C95B
100
AcDbEntity
  8
JOIST
100
AcDbVertex
100
AcDb2dVertex
 10
124.265148
 20
40.237777
 30
0.0
 42
-0.57735
  0
VERTEX
  5
C95C
100
AcDbEntity
  8
JOIST
100
AcDbVertex
100
AcDb2dVertex
 10
124.358898
 20
40.18365
 30
0.0
  0
SEQEND
  5
C95D
100
AcDbEntity
  8
JOIST
  0
POLYLINE
  5
C95E
100
AcDbEntity
  8
JOIST
100
AcDb2dPolyline
 66
     1
 10
0.0
 20
0.0
 30
0.0
  0
VERTEX
  5
C95F
100
AcDbEntity
  8
JOIST
100
AcDbVertex
100
AcDb2dVertex
 10
123.438746
 20
33.800606
 30
0.0
  0
VERTEX
  5
C960
100
AcDbEntity
  8
JOIST
100
AcDbVertex
100
AcDb2dVertex
 10
124.310348
 20
34.303826
 30
0.0
 42
0.267949
  0
VERTEX
  5
C961
100
AcDbEntity
  8
JOIST
100
AcDbVertex
100
AcDb2dVertex
 10
124.324298
 20
34.327988
 30
0.0
  0
VERTEX
  5
C962
100
AcDbEntity
  8
JOIST
100
AcDbVertex
100
AcDb2dVertex
 10
124.324298
 20
38.12438
 30
0.0
 42
0.57735
  0
SEQEND
  5
C963
100
AcDbEntity
  8
JOIST
  0
POLYLINE
  5
C964
100
AcDbEntity
  8
JOIST
100
AcDb2dPolyline
 66
     1
 10
0.0
 20
0.0
 30
0.0
  0
VERTEX
  5
C965
100
AcDbEntity
  8
JOIST
100
AcDbVertex
100
AcDb2dVertex
 10
123.045356
 20
33.53353
 30
0.0
 42
-0.57735
  0
VERTEX
  5
C966
100
AcDbEntity
  8
JOIST
100
AcDbVertex
100
AcDb2dVertex
 10
122.951606
 20
33.587657
 30
0.0
  0
VERTEX
  5
C967
100
AcDbEntity
  8
JOIST
100
AcDbVertex
100
AcDb2dVertex
 10
122.951606
 20
34.041903
 30
0.0
  0
VERTEX
  5
C968
100
AcDbEntity
  8
JOIST
100
AcDbVertex
100
AcDb2dVertex
 10
122.986206
 20
34.06188
 30
0.0
  0
SEQEND
  5
C969
100
AcDbEntity
  8
JOIST
  0
LINE
  5
C96D
100
AcDbEntity
  8
JOIST
  6
HIDDEN2
100
AcDbLine
 10
137.733741
 20
26.553826
 30
0.0
 11
124.310348
 21
34.303826
 31
0.0
  0
LINE
  5
C96E
100
AcDbEntity
  8
JOIST
  6
HIDDEN2
100
AcDbLine
 10
122.951606
 20
33.587657
 30
0.0
 11
136.375
 21
25.837657
 31
0.0
  0
LINE
  5
C96F
100
AcDbEntity
  8
JOIST
  6
HIDDEN2
100
AcDbLine
 10
137.747691
 20
26.577988
 30
0.0
 11
124.324298
 21
34.327988
 31
0.0
  0
LINE
  5
C970
100
AcDbEntity
  8
JOIST
  6
HIDDEN2
100
AcDbLine
 10
136.375
 20
31.693319
 30
0.0
 11
122.951606
 21
39.443319
 31
0.0
  0
POLYLINE
  5
C971
100
AcDbEntity
  8
JOIST
100
AcDb2dPolyline
 66
     1
 10
0.0
 20
0.0
 30
0.0
 70
     1
  0
VERTEX
  5
C972
100
AcDbEntity
  8
JOIST
100
AcDbVertex
100
AcDb2dVertex
 10
136.375
 20
31.166903
 30
0.0
  0
VERTEX
  5
C973
100
AcDbEntity
  8
JOIST
100
AcDbVertex
100
AcDb2dVertex
 10
136.375
 20
31.693319
 30
0.0
 42
-0.267949
  0
VERTEX
  5
C974
100
AcDbEntity
  8
JOIST
100
AcDbVertex
100
AcDb2dVertex
 10
136.40625
 20
31.747446
 30
0.0
  0
VERTEX
  5
C975
100
AcDbEntity
  8
JOIST
100
AcDbVertex
100
AcDb2dVertex
 10
137.688541
 20
32.487777
 30
0.0
 42
-0.57735
  0
VERTEX
  5
C976
100
AcDbEntity
  8
JOIST
100
AcDbVertex
100
AcDb2dVertex
 10
137.782291
 20
32.43365
 30
0.0
  0
VERTEX
  5
C977
100
AcDbEntity
  8
JOIST
100
AcDbVertex
100
AcDb2dVertex
 10
137.782291
 20
26.577988
 30
0.0
 42
-0.267949
  0
VERTEX
  5
C978
100
AcDbEntity
  8
JOIST
100
AcDbVertex
100
AcDb2dVertex
 10
137.751041
 20
26.523861
 30
0.0
  0
VERTEX
  5
C979
100
AcDbEntity
  8
JOIST
100
AcDbVertex
100
AcDb2dVertex
 10
136.46875
 20
25.78353
 30
0.0
 42
-0.57735
  0
VERTEX
  5
C97A
100
AcDbEntity
  8
JOIST
100
AcDbVertex
100
AcDb2dVertex
 10
136.375
 20
25.837657
 30
0.0
  0
VERTEX
  5
C97B
100
AcDbEntity
  8
JOIST
100
AcDbVertex
100
AcDb2dVertex
 10
136.375
 20
26.291903
 30
0.0
  0
VERTEX
  5
C97C
100
AcDbEntity
  8
JOIST
100
AcDbVertex
100
AcDb2dVertex
 10
136.4096
 20
26.31188
 30
0.0
  0
VERTEX
  5
C97D
100
AcDbEntity
  8
JOIST
100
AcDbVertex
100
AcDb2dVertex
 10
136.4096
 20
25.837657
 30
0.0
 42
0.57735
  0
VERTEX
  5
C97E
100
AcDbEntity
  8
JOIST
100
AcDbVertex
100
AcDb2dVertex
 10
136.45145
 20
25.813494
 30
0.0
  0
VERTEX
  5
C97F
100
AcDbEntity
  8
JOIST
100
AcDbVertex
100
AcDb2dVertex
 10
137.733741
 20
26.553826
 30
0.0
 42
0.267949
  0
VERTEX
  5
C980
100
AcDbEntity
  8
JOIST
100
AcDbVertex
100
AcDb2dVertex
 10
137.747691
 20
26.577988
 30
0.0
  0
VERTEX
  5
C981
100
AcDbEntity
  8
JOIST
100
AcDbVertex
100
AcDb2dVertex
 10
137.747691
 20
32.43365
 30
0.0
 42
0.57735
  0
VERTEX
  5
C982
100
AcDbEntity
  8
JOIST
100
AcDbVertex
100
AcDb2dVertex
 10
137.705841
 20
32.457812
 30
0.0
  0
VERTEX
  5
C983
100
AcDbEntity
  8
JOIST
100
AcDbVertex
100
AcDb2dVertex
 10
136.42355
 20
31.717481
 30
0.0
 42
0.267949
  0
VERTEX
  5
C984
100
AcDbEntity
  8
JOIST
100
AcDbVertex
100
AcDb2dVertex
 10
136.4096
 20
31.693319
 30
0.0
  0
VERTEX
  5
C985
100
AcDbEntity
  8
JOIST
100
AcDbVertex
100
AcDb2dVertex
 10
136.4096
 20
31.18688
 30
0.0
  0
SEQEND
  5
C986
100
AcDbEntity
  8
JOIST
  0
LINE
  5
C987
100
AcDbEntity
  8
JOIST
  6
HIDDEN2
100
AcDbLine
 10
137.688541
 20
32.487777
 30
0.0
 11
124.265148
 21
40.237777
 31
0.0
  0
LINE
  5
C988
100
AcDbEntity
  8
JOIST
  6
HIDDEN2
100
AcDbLine
 10
122.951606
 20
38.916903
 30
0.0
 11
136.375
 21
31.166903
 31
0.0
  0
LINE
  5
C989
100
AcDbEntity
  8
JOIST
  6
HIDDEN2
100
AcDbLine
 10
136.40625
 20
31.747446
 30
0.0
 11
122.982856
 21
39.497446
 31
0.0
  0
LINE
  5
C98A
100
AcDbEntity
  8
JOIST
  6
HIDDEN2
100
AcDbLine
 10
122.951606
 20
34.041903
 30
0.0
 11
136.375
 21
26.291903
 31
0.0
  0
LINE
  5
C98B
100
AcDbEntity
  8
JOIST
  6
HIDDEN2
100
AcDbLine
 10
136.4096
 20
26.31188
 30
0.0
 11
122.986206
 21
34.06188
 31
0.0
  0
POLYLINE
  5
C98F
100
AcDbEntity
  8
JOIST
  6
HIDDEN2
100
AcDb2dPolyline
 66
     1
 10
0.0
 20
0.0
 30
0.0
 70
     1
  0
VERTEX
  5
C990
100
AcDbEntity
  8
JOIST
  6
HIDDEN2
100
AcDbVertex
100
AcDb2dVertex
 10
131.235754
 20
34.179802
 30
0.0
 42
-0.267949
  0
VERTEX
  5
C991
100
AcDbEntity
  8
JOIST
  6
HIDDEN2
100
AcDbVertex
100
AcDb2dVertex
 10
131.360754
 20
33.963295
 30
0.0
  0
VERTEX
  5
C992
100
AcDbEntity
  8
JOIST
  6
HIDDEN2
100
AcDbVertex
100
AcDb2dVertex
 10
131.360754
 20
33.040646
 30
0.0
 42
-0.57735
  0
VERTEX
  5
C993
100
AcDbEntity
  8
JOIST
  6
HIDDEN2
100
AcDbVertex
100
AcDb2dVertex
 10
130.985754
 20
32.824139
 30
0.0
  0
VERTEX
  5
C994
100
AcDbEntity
  8
JOIST
  6
HIDDEN2
100
AcDbVertex
100
AcDb2dVertex
 10
128.671171
 20
34.160464
 30
0.0
 42
-0.267949
  0
VERTEX
  5
C995
100
AcDbEntity
  8
JOIST
  6
HIDDEN2
100
AcDbVertex
100
AcDb2dVertex
 10
128.546171
 20
34.37697
 30
0.0
  0
VERTEX
  5
C996
100
AcDbEntity
  8
JOIST
  6
HIDDEN2
100
AcDbVertex
100
AcDb2dVertex
 10
128.546171
 20
35.29962
 30
0.0
 42
-0.57735
  0
VERTEX
  5
C997
100
AcDbEntity
  8
JOIST
  6
HIDDEN2
100
AcDbVertex
100
AcDb2dVertex
 10
128.921171
 20
35.516127
 30
0.0
  0
SEQEND
  5
C998
100
AcDbEntity
  8
JOIST
  6
HIDDEN2
  0
ELLIPSE
  5
C999
100
AcDbEntity
  8
JOIST
100
AcDbEllipse
 10
124.091128
 20
39.533817
 30
0.0
 11
-0.153093108923944
 21
-0.0000000000000025
 31
0.0
210
0.0
220
0.0
230
-1.0
 40
0.57735
 41
0.0000000000000286
 42
6.283185307179628
  0
LINE
  5
C99A
100
AcDbEntity
  8
JOIST
100
AcDbLine
 10
124.199381
 20
39.471317
 30
0.0
 11
123.982874
 21
39.596317
 31
0.0
  0
LINE
  5
C99B
100
AcDbEntity
  8
JOIST
100
AcDbLine
 10
123.983494
 20
39.470255
 30
0.0
 11
124.198761
 21
39.597379
 31
0.0
  0
LINE
  5
C99C
100
AcDbEntity
  8
JOIST
100
AcDbLine
 10
137.325747
 20
32.068265
 30
0.0
 11
137.323287
 21
31.818277
 31
0.0
  0
LINE
  5
C99D
100
AcDbEntity
  8
JOIST
100
AcDbLine
 10
137.43277
 20
31.880771
 30
0.0
 11
137.216264
 21
32.005771
 31
0.0
  0
ELLIPSE
  5
C99E
100
AcDbEntity
  8
JOIST
100
AcDbEllipse
 10
137.324517
 20
31.943271
 30
0.0
 11
-0.0765465544619698
 21
0.1325825214724749
 31
0.0
210
0.0
220
0.0
230
1.0
 40
0.57735
 41
0.0000000000000219
 42
6.283185307179622
  0
LINE
  5
C99F
100
AcDbEntity
  8
JOIST
100
AcDbLine
 10
137.30607
 20
27.693361
 30
0.0
 11
137.303611
 21
27.443373
 31
0.0
  0
LINE
  5
C9A0
100
AcDbEntity
  8
JOIST
100
AcDbLine
 10
137.413094
 20
27.505867
 30
0.0
 11
137.196587
 21
27.630867
 31
0.0
  0
ELLIPSE
  5
C9A1
100
AcDbEntity
  8
JOIST
100
AcDbEllipse
 10
137.30484
 20
27.568367
 30
0.0
 11
-0.0765465544619697
 21
0.132582521472475
 31
0.0
210
0.0
220
0.0
230
1.0
 40
0.57735
 41
0.0000000000000231
 42
6.283185307179623
  0
LINE
  5
C9A2
100
AcDbEntity
  8
JOIST
100
AcDbLine
 10
136.540863
 20
32.220255
 30
0.0
 11
136.756129
 21
32.347379
 31
0.0
  0
LINE
  5
C9A3
100
AcDbEntity
  8
JOIST
100
AcDbLine
 10
136.756749
 20
32.221317
 30
0.0
 11
136.540243
 21
32.346317
 31
0.0
  0
ELLIPSE
  5
C9A4
100
AcDbEntity
  8
JOIST
100
AcDbEllipse
 10
136.648496
 20
32.283817
 30
0.0
 11
-0.153093108923944
 21
-0.0000000000000025
 31
0.0
210
0.0
220
0.0
230
-1.0
 40
0.57735
 41
0.0000000000000286
 42
6.283185307179628
  0
ELLIPSE
  5
C9A8
100
AcDbEntity
  8
FASTENER
100
AcDbEllipse
 10
133.752918
 20
32.996243
 30
0.0
 11
0.0765465544619697
 21
0.132582521472475
 31
0.0
210
0.0
220
0.0
230
-1.0
 40
0.57735
 41
0.0000000000000231
 42
6.283185307179623
  0
LINE
  5
C9A9
100
AcDbEntity
  8
FASTENER
100
AcDbLine
 10
133.644665
 20
32.933743
 30
0.0
 11
133.861171
 21
33.058743
 31
0.0
  0
LINE
  5
C9AA
100
AcDbEntity
  8
FASTENER
100
AcDbLine
 10
133.751688
 20
33.121237
 30
0.0
 11
133.754148
 21
32.871249
 31
0.0
  0
ELLIPSE
  5
C9AB
100
AcDbEntity
  8
FASTENER
100
AcDbEllipse
 10
133.77363
 20
35.758201
 30
0.0
 11
0.0765465544619698
 21
0.1325825214724749
 31
0.0
210
0.0
220
0.0
230
-1.0
 40
0.57735
 41
0.0000000000000219
 42
6.283185307179622
  0
LINE
  5
C9AC
100
AcDbEntity
  8
FASTENER
100
AcDbLine
 10
133.665377
 20
35.695701
 30
0.0
 11
133.881884
 21
35.820701
 31
0.0
  0
LINE
  5
C9AD
100
AcDbEntity
  8
FASTENER
100
AcDbLine
 10
133.772401
 20
35.883195
 30
0.0
 11
133.77486
 21
35.633207
 31
0.0
  0
POLYLINE
  5
C9B1
100
AcDbEntity
  8
STUD
100
AcDb2dPolyline
 66
     1
 10
0.0
 20
0.0
 30
0.0
 70
     1
  0
VERTEX
  5
C9B2
100
AcDbEntity
  8
STUD
100
AcDbVertex
100
AcDb2dVertex
 10
138.050144
 20
37.804802
 30
0.0
 42
0.267949
  0
VERTEX
  5
C9B3
100
AcDbEntity
  8
STUD
100
AcDbVertex
100
AcDb2dVertex
 10
137.925144
 20
37.588295
 30
0.0
  0
VERTEX
  5
C9B4
100
AcDbEntity
  8
STUD
100
AcDbVertex
100
AcDb2dVertex
 10
137.925144
 20
36.665646
 30
0.0
 42
0.57735
  0
VERTEX
  5
C9B5
100
AcDbEntity
  8
STUD
100
AcDbVertex
100
AcDb2dVertex
 10
138.300144
 20
36.449139
 30
0.0
  0
VERTEX
  5
C9B6
100
AcDbEntity
  8
STUD
100
AcDbVertex
100
AcDb2dVertex
 10
140.614727
 20
37.785464
 30
0.0
 42
0.267949
  0
VERTEX
  5
C9B7
100
AcDbEntity
  8
STUD
100
AcDbVertex
100
AcDb2dVertex
 10
140.739727
 20
38.00197
 30
0.0
  0
VERTEX
  5
C9B8
100
AcDbEntity
  8
STUD
100
AcDbVertex
100
AcDb2dVertex
 10
140.739727
 20
38.92462
 30
0.0
 42
0.57735
  0
VERTEX
  5
C9B9
100
AcDbEntity
  8
STUD
100
AcDbVertex
100
AcDb2dVertex
 10
140.364727
 20
39.141127
 30
0.0
  0
SEQEND
  5
C9BA
100
AcDbEntity
  8
STUD
  0
LINE
  5
C9BE
100
AcDbEntity
  8
STUD
100
AcDbLine
 10
133.092805
 20
30.06188
 30
0.0
 11
145.108907
 21
36.99938
 31
0.0
  0
LINE
  5
C9BF
100
AcDbEntity
  8
STUD
100
AcDbLine
 10
145.143507
 20
36.979403
 30
0.0
 11
133.127405
 21
30.041903
 31
0.0
  0
LINE
  5
C9C0
100
AcDbEntity
  8
STUD
100
AcDbLine
 10
133.096155
 20
35.497446
 30
0.0
 11
145.112257
 21
42.434946
 31
0.0
  0
LINE
  5
C9C1
100
AcDbEntity
  8
STUD
100
AcDbLine
 10
145.143507
 20
41.854403
 30
0.0
 11
133.127405
 21
34.916903
 31
0.0
  0
LINE
  5
C9C2
100
AcDbEntity
  8
STUD
100
AcDbLine
 10
131.813863
 20
36.237777
 30
0.0
 11
143.829966
 21
43.175277
 31
0.0
  0
POLYLINE
  5
C9C3
100
AcDbEntity
  8
STUD
100
AcDb2dPolyline
 66
     1
 10
0.0
 20
0.0
 30
0.0
 70
     1
  0
VERTEX
  5
C9C4
100
AcDbEntity
  8
STUD
100
AcDbVertex
100
AcDb2dVertex
 10
133.127405
 20
34.916903
 30
0.0
  0
VERTEX
  5
C9C5
100
AcDbEntity
  8
STUD
100
AcDbVertex
100
AcDb2dVertex
 10
133.127405
 20
35.443319
 30
0.0
 42
0.267949
  0
VERTEX
  5
C9C6
100
AcDbEntity
  8
STUD
100
AcDbVertex
100
AcDb2dVertex
 10
133.096155
 20
35.497446
 30
0.0
  0
VERTEX
  5
C9C7
100
AcDbEntity
  8
STUD
100
AcDbVertex
100
AcDb2dVertex
 10
131.813863
 20
36.237777
 30
0.0
 42
0.57735
  0
VERTEX
  5
C9C8
100
AcDbEntity
  8
STUD
100
AcDbVertex
100
AcDb2dVertex
 10
131.720113
 20
36.18365
 30
0.0
  0
VERTEX
  5
C9C9
100
AcDbEntity
  8
STUD
100
AcDbVertex
100
AcDb2dVertex
 10
131.720113
 20
30.327988
 30
0.0
 42
0.267949
  0
VERTEX
  5
C9CA
100
AcDbEntity
  8
STUD
100
AcDbVertex
100
AcDb2dVertex
 10
131.751363
 20
30.273861
 30
0.0
  0
VERTEX
  5
C9CB
100
AcDbEntity
  8
STUD
100
AcDbVertex
100
AcDb2dVertex
 10
133.033655
 20
29.53353
 30
0.0
 42
0.57735
  0
VERTEX
  5
C9CC
100
AcDbEntity
  8
STUD
100
AcDbVertex
100
AcDb2dVertex
 10
133.127405
 20
29.587657
 30
0.0
  0
VERTEX
  5
C9CD
100
AcDbEntity
  8
STUD
100
AcDbVertex
100
AcDb2dVertex
 10
133.127405
 20
30.041903
 30
0.0
  0
VERTEX
  5
C9CE
100
AcDbEntity
  8
STUD
100
AcDbVertex
100
AcDb2dVertex
 10
133.092805
 20
30.06188
 30
0.0
  0
VERTEX
  5
C9CF
100
AcDbEntity
  8
STUD
100
AcDbVertex
100
AcDb2dVertex
 10
133.092805
 20
29.587657
 30
0.0
 42
-0.57735
  0
VERTEX
  5
C9D0
100
AcDbEntity
  8
STUD
100
AcDbVertex
100
AcDb2dVertex
 10
133.050955
 20
29.563494
 30
0.0
  0
VERTEX
  5
C9D1
100
AcDbEntity
  8
STUD
100
AcDbVertex
100
AcDb2dVertex
 10
131.768663
 20
30.303826
 30
0.0
 42
-0.267949
  0
VERTEX
  5
C9D2
100
AcDbEntity
  8
STUD
100
AcDbVertex
100
AcDb2dVertex
 10
131.754713
 20
30.327988
 30
0.0
  0
VERTEX
  5
C9D3
100
AcDbEntity
  8
STUD
100
AcDbVertex
100
AcDb2dVertex
 10
131.754713
 20
36.18365
 30
0.0
 42
-0.57735
  0
VERTEX
  5
C9D4
100
AcDbEntity
  8
STUD
100
AcDbVertex
100
AcDb2dVertex
 10
131.796563
 20
36.207812
 30
0.0
  0
VERTEX
  5
C9D5
100
AcDbEntity
  8
STUD
100
AcDbVertex
100
AcDb2dVertex
 10
133.078855
 20
35.467481
 30
0.0
 42
-0.267949
  0
VERTEX
  5
C9D6
100
AcDbEntity
  8
STUD
100
AcDbVertex
100
AcDb2dVertex
 10
133.092805
 20
35.443319
 30
0.0
  0
VERTEX
  5
C9D7
100
AcDbEntity
  8
STUD
100
AcDbVertex
100
AcDb2dVertex
 10
133.092805
 20
34.93688
 30
0.0
  0
SEQEND
  5
C9D8
100
AcDbEntity
  8
STUD
  0
LINE
  5
C9D9
100
AcDbEntity
  8
STUD
100
AcDbLine
 10
133.127405
 20
35.443319
 30
0.0
 11
145.143507
 21
42.380819
 31
0.0
  0
LINE
  5
C9DA
100
AcDbEntity
  8
STUD
100
AcDbLine
 10
131.754713
 20
30.327988
 30
0.0
 11
143.770816
 21
37.265488
 31
0.0
  0
LINE
  5
C9DB
100
AcDbEntity
  8
STUD
100
AcDbLine
 10
145.143507
 20
36.525157
 30
0.0
 11
133.127405
 21
29.587657
 31
0.0
  0
LINE
  5
C9DC
100
AcDbEntity
  8
STUD
100
AcDbLine
 10
131.768663
 20
30.303826
 30
0.0
 11
143.784766
 21
37.241326
 31
0.0
  0
POLYLINE
  5
C9E0
100
AcDbEntity
  8
STUD
100
AcDb2dPolyline
 66
     1
 10
0.0
 20
0.0
 30
0.0
  0
VERTEX
  5
C9E1
100
AcDbEntity
  8
STUD
100
AcDbVertex
100
AcDb2dVertex
 10
145.049757
 20
36.47103
 30
0.0
 42
0.57735
  0
VERTEX
  5
C9E2
100
AcDbEntity
  8
STUD
100
AcDbVertex
100
AcDb2dVertex
 10
145.143507
 20
36.525157
 30
0.0
  0
VERTEX
  5
C9E3
100
AcDbEntity
  8
STUD
100
AcDbVertex
100
AcDb2dVertex
 10
145.143507
 20
36.979403
 30
0.0
  0
VERTEX
  5
C9E4
100
AcDbEntity
  8
STUD
100
AcDbVertex
100
AcDb2dVertex
 10
145.108907
 20
36.99938
 30
0.0
  0
SEQEND
  5
C9E5
100
AcDbEntity
  8
STUD
  0
POLYLINE
  5
C9E6
100
AcDbEntity
  8
STUD
100
AcDb2dPolyline
 66
     1
 10
0.0
 20
0.0
 30
0.0
  0
VERTEX
  5
C9E7
100
AcDbEntity
  8
STUD
100
AcDbVertex
100
AcDb2dVertex
 10
144.656368
 20
36.738106
 30
0.0
  0
VERTEX
  5
C9E8
100
AcDbEntity
  8
STUD
100
AcDbVertex
100
AcDb2dVertex
 10
143.784766
 20
37.241326
 30
0.0
 42
-0.267949
  0
VERTEX
  5
C9E9
100
AcDbEntity
  8
STUD
100
AcDbVertex
100
AcDb2dVertex
 10
143.770816
 20
37.265488
 30
0.0
  0
VERTEX
  5
C9EA
100
AcDbEntity
  8
STUD
100
AcDbVertex
100
AcDb2dVertex
 10
143.770816
 20
41.06188
 30
0.0
 42
-0.57735
  0
SEQEND
  5
C9EB
100
AcDbEntity
  8
STUD
  0
POLYLINE
  5
C9EC
100
AcDbEntity
  8
STUD
100
AcDb2dPolyline
 66
     1
 10
0.0
 20
0.0
 30
0.0
  0
VERTEX
  5
C9ED
100
AcDbEntity
  8
STUD
100
AcDbVertex
100
AcDb2dVertex
 10
145.143507
 20
41.854403
 30
0.0
  0
VERTEX
  5
C9EE
100
AcDbEntity
  8
STUD
100
AcDbVertex
100
AcDb2dVertex
 10
145.143507
 20
42.380819
 30
0.0
 42
0.267949
  0
VERTEX
  5
C9EF
100
AcDbEntity
  8
STUD
100
AcDbVertex
100
AcDb2dVertex
 10
145.112257
 20
42.434946
 30
0.0
  0
VERTEX
  5
C9F0
100
AcDbEntity
  8
STUD
100
AcDbVertex
100
AcDb2dVertex
 10
143.829966
 20
43.175277
 30
0.0
 42
0.57735
  0
VERTEX
  5
C9F1
100
AcDbEntity
  8
STUD
100
AcDbVertex
100
AcDb2dVertex
 10
143.736216
 20
43.12115
 30
0.0
  0
SEQEND
  5
C9F2
100
AcDbEntity
  8
STUD
  0
LINE
  5
C9FF
100
AcDbEntity
  8
TRACK
100
AcDbLine
 10
117.341506
 20
54.375
 30
0.0
 11
117.341506
 21
50.625
 31
0.0
  0
LINE
  5
CA00
100
AcDbEntity
  8
TRACK
100
AcDbLine
 10
117.341506
 20
54.375
 30
0.0
 11
117.301554
 21
54.398067
 31
0.0
  0
POLYLINE
  5
CA01
100
AcDbEntity
  8
TRACK
100
AcDb2dPolyline
 66
     1
 10
0.0
 20
0.0
 30
0.0
  0
VERTEX
  5
CA02
100
AcDbEntity
  8
TRACK
100
AcDbVertex
100
AcDb2dVertex
 10
121.187394
 20
55.118491
 30
0.0
  0
VERTEX
  5
CA03
100
AcDbEntity
  8
TRACK
100
AcDbVertex
100
AcDb2dVertex
 10
119.939583
 20
55.838916
 30
0.0
 42
0.267949
  0
VERTEX
  5
CA04
100
AcDbEntity
  8
TRACK
100
AcDbVertex
100
AcDb2dVertex
 10
119.877083
 20
55.838916
 30
0.0
  0
VERTEX
  5
CA05
100
AcDbEntity
  8
TRACK
100
AcDbVertex
100
AcDb2dVertex
 10
117.341506
 20
54.375
 30
0.0
 42
0.57735
  0
SEQEND
  5
CA06
100
AcDbEntity
  8
TRACK
  0
POLYLINE
  5
CA14
100
AcDbEntity
  8
TRACK
100
AcDb2dPolyline
 66
     1
 10
0.0
 20
0.0
 30
0.0
  0
VERTEX
  5
CA15
100
AcDbEntity
  8
TRACK
100
AcDbVertex
100
AcDb2dVertex
 10
117.125
 20
54.25
 30
0.0
  0
VERTEX
  5
CA16
100
AcDbEntity
  8
TRACK
100
AcDbVertex
100
AcDb2dVertex
 10
114.589424
 20
52.786084
 30
0.0
 42
0.57735
  0
VERTEX
  5
CA17
100
AcDbEntity
  8
TRACK
100
AcDbVertex
100
AcDb2dVertex
 10
114.589424
 20
52.677831
 30
0.0
  0
VERTEX
  5
CA18
100
AcDbEntity
  8
TRACK
100
AcDbVertex
100
AcDb2dVertex
 10
115.814688
 20
51.970424
 30
0.0
  0
VERTEX
  5
CA19
100
AcDbEntity
  8
TRACK
100
AcDbVertex
100
AcDb2dVertex
 10
115.774736
 20
51.947358
 30
0.0
  0
VERTEX
  5
CA1A
100
AcDbEntity
  8
TRACK
100
AcDbVertex
100
AcDb2dVertex
 10
114.569447
 20
52.643231
 30
0.0
 42
-0.57735
  0
VERTEX
  5
CA1B
100
AcDbEntity
  8
TRACK
100
AcDbVertex
100
AcDb2dVertex
 10
114.569447
 20
52.820684
 30
0.0
  0
VERTEX
  5
CA1C
100
AcDbEntity
  8
TRACK
100
AcDbVertex
100
AcDb2dVertex
 10
117.085047
 20
54.273067
 30
0.0
 42
-0.267949
  0
SEQEND
  5
CA1D
100
AcDbEntity
  8
TRACK
  0
POLYLINE
  5
CA1E
100
AcDbEntity
  8
TRACK
100
AcDb2dPolyline
 66
     1
 10
0.0
 20
0.0
 30
0.0
  0
VERTEX
  5
CA1F
100
AcDbEntity
  8
TRACK
100
AcDbVertex
100
AcDb2dVertex
 10
117.301554
 20
54.398067
 30
0.0
  0
VERTEX
  5
CA20
100
AcDbEntity
  8
TRACK
100
AcDbVertex
100
AcDb2dVertex
 10
119.857106
 20
55.873516
 30
0.0
 42
-0.267949
  0
VERTEX
  5
CA21
100
AcDbEntity
  8
TRACK
100
AcDbVertex
100
AcDb2dVertex
 10
119.959559
 20
55.873516
 30
0.0
  0
VERTEX
  5
CA22
100
AcDbEntity
  8
TRACK
100
AcDbVertex
100
AcDb2dVertex
 10
121.227347
 20
55.141558
 30
0.0
  0
VERTEX
  5
CA23
100
AcDbEntity
  8
TRACK
100
AcDbVertex
100
AcDb2dVertex
 10
121.187394
 20
55.118491
 30
0.0
  0
SEQEND
  5
CA24
100
AcDbEntity
  8
TRACK
  0
LINE
  5
CA25
100
AcDbEntity
  8
TRACK
100
AcDbLine
 10
117.341506
 20
50.625
 30
0.0
 11
117.301554
 21
50.648067
 31
0.0
  0
POLYLINE
  5
CA26
100
AcDbEntity
  8
TRACK
100
AcDb2dPolyline
 66
     1
 10
0.0
 20
0.0
 30
0.0
  0
VERTEX
  5
CA69
100
AcDbEntity
  8
TRACK
100
AcDbVertex
100
AcDb2dVertex
 10
121.227347
 20
55.141558
 30
0.0
  0
VERTEX
  5
CA68
100
AcDbEntity
  8
TRACK
100
AcDbVertex
100
AcDb2dVertex
 10
121.227347
 20
51.391558
 30
0.0
  0
VERTEX
  5
CA27
100
AcDbEntity
  8
TRACK
100
AcDbVertex
100
AcDb2dVertex
 10
121.187394
 20
51.368491
 30
0.0
  0
VERTEX
  5
CA28
100
AcDbEntity
  8
TRACK
100
AcDbVertex
100
AcDb2dVertex
 10
119.939583
 20
52.088916
 30
0.0
 42
0.267949
  0
VERTEX
  5
CA29
100
AcDbEntity
  8
TRACK
100
AcDbVertex
100
AcDb2dVertex
 10
119.877083
 20
52.088916
 30
0.0
  0
VERTEX
  5
CA2A
100
AcDbEntity
  8
TRACK
100
AcDbVertex
100
AcDb2dVertex
 10
117.341506
 20
50.625
 30
0.0
 42
0.57735
  0
SEQEND
  5
CA2B
100
AcDbEntity
  8
TRACK
  0
POLYLINE
  5
CA56
100
AcDbEntity
  8
TRACK
100
AcDb2dPolyline
 66
     1
 10
0.0
 20
0.0
 30
0.0
  0
VERTEX
  5
CA57
100
AcDbEntity
  8
TRACK
100
AcDbVertex
100
AcDb2dVertex
 10
117.125
 20
50.5
 30
0.0
  0
VERTEX
  5
CA58
100
AcDbEntity
  8
TRACK
100
AcDbVertex
100
AcDb2dVertex
 10
115.814688
 20
49.743491
 30
0.0
 42
0.439766
  0
SEQEND
  5
CA59
100
AcDbEntity
  8
TRACK
  0
POLYLINE
  5
CA5A
100
AcDbEntity
  8
TRACK
100
AcDb2dPolyline
 66
     1
 10
0.0
 20
0.0
 30
0.0
  0
VERTEX
  5
CA5B
100
AcDbEntity
  8
TRACK
100
AcDbVertex
100
AcDb2dVertex
 10
114.558174
 20
48.982254
 30
0.0
 42
0.154918
  0
VERTEX
  5
CA5C
100
AcDbEntity
  8
TRACK
100
AcDbVertex
100
AcDb2dVertex
 10
114.569447
 20
48.946151
 30
0.0
  0
SEQEND
  5
CA5D
100
AcDbEntity
  8
TRACK
  0
POLYLINE
  5
CA5E
100
AcDbEntity
  8
TRACK
100
AcDb2dPolyline
 66
     1
 10
0.0
 20
0.0
 30
0.0
  0
VERTEX
  5
CA5F
100
AcDbEntity
  8
TRACK
100
AcDbVertex
100
AcDb2dVertex
 10
115.814688
 20
48.220424
 30
0.0
  0
VERTEX
  5
CA60
100
AcDbEntity
  8
TRACK
100
AcDbVertex
100
AcDb2dVertex
 10
115.774736
 20
48.197358
 30
0.0
  0
VERTEX
  5
CA61
100
AcDbEntity
  8
TRACK
100
AcDbVertex
100
AcDb2dVertex
 10
114.569447
 20
48.893231
 30
0.0
 42
-0.57735
  0
VERTEX
  5
CA62
100
AcDbEntity
  8
TRACK
100
AcDbVertex
100
AcDb2dVertex
 10
114.569447
 20
49.070684
 30
0.0
  0
SEQEND
  5
CA63
100
AcDbEntity
  8
TRACK
  0
LINE
  5
CA64
100
AcDbEntity
  8
TRACK
100
AcDbLine
 10
117.125
 20
54.25
 30
0.0
 11
117.085047
 21
54.273067
 31
0.0
  0
LINE
  5
CA65
100
AcDbEntity
  8
TRACK
100
AcDbLine
 10
117.301554
 20
54.398067
 30
0.0
 11
117.301554
 21
50.648067
 31
0.0
  0
LINE
  5
CA66
100
AcDbEntity
  8
TRACK
100
AcDbLine
 10
117.125
 20
54.25
 30
0.0
 11
117.125
 21
50.5
 31
0.0
  0
LINE
  5
CA6B
100
AcDbEntity
  8
TRACK
100
AcDbLine
 10
142.698658
 20
41.512328
 30
0.0
 11
142.698658
 21
37.762328
 31
0.0
  0
POLYLINE
  5
CA6D
100
AcDbEntity
  8
TRACK
100
AcDb2dPolyline
 66
     1
 10
0.0
 20
0.0
 30
0.0
  0
VERTEX
  5
CA6E
100
AcDbEntity
  8
TRACK
100
AcDbVertex
100
AcDb2dVertex
 10
146.624452
 20
42.255819
 30
0.0
  0
VERTEX
  5
CA6F
100
AcDbEntity
  8
TRACK
100
AcDbVertex
100
AcDb2dVertex
 10
146.624452
 20
38.505819
 30
0.0
  0
VERTEX
  5
CA70
100
AcDbEntity
  8
TRACK
100
AcDbVertex
100
AcDb2dVertex
 10
146.584499
 20
38.482752
 30
0.0
  0
VERTEX
  5
CA71
100
AcDbEntity
  8
TRACK
100
AcDbVertex
100
AcDb2dVertex
 10
145.336687
 20
39.203177
 30
0.0
 42
0.267949
  0
VERTEX
  5
CA72
100
AcDbEntity
  8
TRACK
100
AcDbVertex
100
AcDb2dVertex
 10
145.274187
 20
39.203177
 30
0.0
  0
VERTEX
  5
CA73
100
AcDbEntity
  8
TRACK
100
AcDbVertex
100
AcDb2dVertex
 10
142.738611
 20
37.739261
 30
0.0
 42
0.57735
  0
SEQEND
  5
CA74
100
AcDbEntity
  8
TRACK
  0
LINE
  5
CA75
100
AcDbEntity
  8
TRACK
100
AcDbLine
 10
142.738611
 20
37.739261
 30
0.0
 11
142.698658
 21
37.762328
 31
0.0
  0
POLYLINE
  5
CA76
100
AcDbEntity
  8
TRACK
100
AcDb2dPolyline
 66
     1
 10
0.0
 20
0.0
 30
0.0
  0
VERTEX
  5
CA77
100
AcDbEntity
  8
TRACK
100
AcDbVertex
100
AcDb2dVertex
 10
142.698658
 20
41.512328
 30
0.0
  0
VERTEX
  5
CA78
100
AcDbEntity
  8
TRACK
100
AcDbVertex
100
AcDb2dVertex
 10
145.254211
 20
42.987777
 30
0.0
 42
-0.267949
  0
VERTEX
  5
CA79
100
AcDbEntity
  8
TRACK
100
AcDbVertex
100
AcDb2dVertex
 10
145.356664
 20
42.987777
 30
0.0
  0
VERTEX
  5
CA7A
100
AcDbEntity
  8
TRACK
100
AcDbVertex
100
AcDb2dVertex
 10
146.624452
 20
42.255819
 30
0.0
  0
VERTEX
  5
CA7B
100
AcDbEntity
  8
TRACK
100
AcDbVertex
100
AcDb2dVertex
 10
146.584499
 20
42.232752
 30
0.0
  0
SEQEND
  5
CA7C
100
AcDbEntity
  8
TRACK
  0
POLYLINE
  5
CA7D
100
AcDbEntity
  8
TRACK
100
AcDb2dPolyline
 66
     1
 10
0.0
 20
0.0
 30
0.0
  0
VERTEX
  5
CA7E
100
AcDbEntity
  8
TRACK
100
AcDbVertex
100
AcDb2dVertex
 10
146.584499
 20
42.232752
 30
0.0
  0
VERTEX
  5
CA7F
100
AcDbEntity
  8
TRACK
100
AcDbVertex
100
AcDb2dVertex
 10
145.336687
 20
42.953177
 30
0.0
 42
0.267949
  0
VERTEX
  5
CA80
100
AcDbEntity
  8
TRACK
100
AcDbVertex
100
AcDb2dVertex
 10
145.274187
 20
42.953177
 30
0.0
  0
VERTEX
  5
CA81
100
AcDbEntity
  8
TRACK
100
AcDbVertex
100
AcDb2dVertex
 10
142.738611
 20
41.489261
 30
0.0
 42
0.57735
  0
SEQEND
  5
CA82
100
AcDbEntity
  8
TRACK
  0
LINE
  5
CA83
100
AcDbEntity
  8
TRACK
100
AcDbLine
 10
142.738611
 20
41.489261
 30
0.0
 11
142.698658
 21
41.512328
 31
0.0
  0
LINE
  5
CA84
100
AcDbEntity
  8
TRACK
100
AcDbLine
 10
142.738611
 20
41.489261
 30
0.0
 11
142.738611
 21
37.739261
 31
0.0
  0
LINE
  5
CA88
100
AcDbEntity
  8
TRACK
100
AcDbLine
 10
145.274187
 20
42.953177
 30
0.0
 11
145.274187
 21
39.203177
 31
0.0
  0
LINE
  5
CA89
100
AcDbEntity
  8
TRACK
100
AcDbLine
 10
145.336687
 20
42.953177
 30
0.0
 11
145.336687
 21
39.203177
 31
0.0
  0
LINE
  5
CA8D
100
AcDbEntity
  8
TRACK
100
AcDbLine
 10
146.584499
 20
42.232752
 30
0.0
 11
146.584499
 21
38.482752
 31
0.0
  0
LINE
  5
CA8E
100
AcDbEntity
  8
FASTENER
100
AcDbLine
 10
146.083235
 20
41.798364
 30
0.0
 11
145.865509
 21
41.921228
 31
0.0
  0
LINE
  5
CA8F
100
AcDbEntity
  8
FASTENER
100
AcDbLine
 10
145.974372
 20
41.984796
 30
0.0
 11
145.974372
 21
41.734796
 31
0.0
  0
ELLIPSE
  5
CA90
100
AcDbEntity
  8
FASTENER
100
AcDbEllipse
 10
145.974372
 20
41.859796
 30
0.0
 11
0.0765465544619741
 21
-0.1325825214724724
 31
0.0
210
0.0
220
0.0
230
-1.0
 40
0.57735
 41
0.0000000000000351
 42
6.283185307179635
  0
LINE
  5
CA91
100
AcDbEntity
  8
FASTENER
100
AcDbLine
 10
146.083235
 20
39.298364
 30
0.0
 11
145.865509
 21
39.421228
 31
0.0
  0
LINE
  5
CA92
100
AcDbEntity
  8
FASTENER
100
AcDbLine
 10
145.974372
 20
39.484796
 30
0.0
 11
145.974372
 21
39.234796
 31
0.0
  0
ELLIPSE
  5
CA93
100
AcDbEntity
  8
FASTENER
100
AcDbEllipse
 10
145.974372
 20
39.359796
 30
0.0
 11
0.0765465544619741
 21
-0.1325825214724725
 31
0.0
210
0.0
220
0.0
230
-1.0
 40
0.57735
 41
0.0000000000000337
 42
6.283185307179634
  0
LINE
  5
CA97
100
AcDbEntity
  8
TRACK
100
AcDbLine
 10
134.155586
 20
36.556916
 30
0.0
 11
134.155586
 21
32.806916
 31
0.0
  0
LINE
  5
CA99
100
AcDbEntity
  8
TRACK
100
AcDbLine
 10
134.155586
 20
36.556916
 30
0.0
 11
134.115633
 21
36.579983
 31
0.0
  0
POLYLINE
  5
CA9A
100
AcDbEntity
  8
TRACK
100
AcDb2dPolyline
 66
     1
 10
0.0
 20
0.0
 30
0.0
  0
VERTEX
  5
CA9B
100
AcDbEntity
  8
TRACK
100
AcDbVertex
100
AcDb2dVertex
 10
132.845274
 20
30.527341
 30
0.0
  0
VERTEX
  5
CA9C
100
AcDbEntity
  8
TRACK
100
AcDbVertex
100
AcDb2dVertex
 10
132.805322
 20
30.504274
 30
0.0
  0
VERTEX
  5
CA9D
100
AcDbEntity
  8
TRACK
100
AcDbVertex
100
AcDb2dVertex
 10
131.600033
 20
31.200147
 30
0.0
 42
-0.57735
  0
VERTEX
  5
CA9E
100
AcDbEntity
  8
TRACK
100
AcDbVertex
100
AcDb2dVertex
 10
131.600033
 20
31.3776
 30
0.0
  0
SEQEND
  5
CA9F
100
AcDbEntity
  8
TRACK
  0
POLYLINE
  5
CAA0
100
AcDbEntity
  8
TRACK
100
AcDb2dPolyline
 66
     1
 10
0.0
 20
0.0
 30
0.0
  0
VERTEX
  5
CAA1
100
AcDbEntity
  8
TRACK
100
AcDbVertex
100
AcDb2dVertex
 10
131.58876
 20
31.28917
 30
0.0
 42
0.154918
  0
VERTEX
  5
CAA2
100
AcDbEntity
  8
TRACK
100
AcDbVertex
100
AcDb2dVertex
 10
131.600033
 20
31.253067
 30
0.0
  0
SEQEND
  5
CAA3
100
AcDbEntity
  8
TRACK
  0
POLYLINE
  5
CAA4
100
AcDbEntity
  8
TRACK
100
AcDb2dPolyline
 66
     1
 10
0.0
 20
0.0
 30
0.0
  0
VERTEX
  5
CAA5
100
AcDbEntity
  8
TRACK
100
AcDbVertex
100
AcDb2dVertex
 10
134.155586
 20
32.806916
 30
0.0
  0
VERTEX
  5
CAA6
100
AcDbEntity
  8
TRACK
100
AcDbVertex
100
AcDb2dVertex
 10
132.845274
 20
32.050407
 30
0.0
 42
0.439766
  0
SEQEND
  5
CAA7
100
AcDbEntity
  8
TRACK
  0
POLYLINE
  5
CAA9
100
AcDbEntity
  8
TRACK
100
AcDb2dPolyline
 66
     1
 10
0.0
 20
0.0
 30
0.0
  0
VERTEX
  5
CAAA
100
AcDbEntity
  8
TRACK
100
AcDbVertex
100
AcDb2dVertex
 10
134.155586
 20
36.556916
 30
0.0
  0
VERTEX
  5
CAAB
100
AcDbEntity
  8
TRACK
100
AcDbVertex
100
AcDb2dVertex
 10
131.62001
 20
35.093
 30
0.0
 42
0.57735
  0
VERTEX
  5
CAAC
100
AcDbEntity
  8
TRACK
100
AcDbVertex
100
AcDb2dVertex
 10
131.62001
 20
34.984747
 30
0.0
  0
VERTEX
  5
CAAD
100
AcDbEntity
  8
TRACK
100
AcDbVertex
100
AcDb2dVertex
 10
132.845274
 20
34.277341
 30
0.0
  0
VERTEX
  5
CAAE
100
AcDbEntity
  8
TRACK
100
AcDbVertex
100
AcDb2dVertex
 10
132.805322
 20
34.254274
 30
0.0
  0
VERTEX
  5
CAAF
100
AcDbEntity
  8
TRACK
100
AcDbVertex
100
AcDb2dVertex
 10
131.600033
 20
34.950147
 30
0.0
 42
-0.57735
  0
VERTEX
  5
CAB0
100
AcDbEntity
  8
TRACK
100
AcDbVertex
100
AcDb2dVertex
 10
131.600033
 20
35.1276
 30
0.0
  0
VERTEX
  5
CAB1
100
AcDbEntity
  8
TRACK
100
AcDbVertex
100
AcDb2dVertex
 10
134.115633
 20
36.579983
 30
0.0
 42
-0.267949
  0
SEQEND
  5
CAB2
100
AcDbEntity
  8
TRACK
  0
ELLIPSE
  5
CAB5
100
AcDbEntity
  8
FASTENER
100
AcDbEllipse
 10
132.253602
 20
32.226346
 30
0.0
 11
-0.0765465544619744
 21
-0.1325825214724723
 31
0.0
210
0.0
220
0.0
230
1.0
 40
0.57735
 41
0.0000000000000374
 42
6.283185307179637
  0
LINE
  5
CAB6
100
AcDbEntity
  8
FASTENER
100
AcDbLine
 10
132.253602
 20
32.351346
 30
0.0
 11
132.253602
 21
32.101346
 31
0.0
  0
LINE
  5
CAB7
100
AcDbEntity
  8
FASTENER
100
AcDbLine
 10
132.144739
 20
32.164914
 30
0.0
 11
132.362465
 21
32.287778
 31
0.0
  0
LINE
  5
CAB8
100
AcDbEntity
  8
FASTENER
100
AcDbLine
 10
132.144739
 20
34.914914
 30
0.0
 11
132.362465
 21
35.037778
 31
0.0
  0
LINE
  5
CAB9
100
AcDbEntity
  8
FASTENER
100
AcDbLine
 10
132.253602
 20
35.101346
 30
0.0
 11
132.253602
 21
34.851346
 31
0.0
  0
ELLIPSE
  5
CABA
100
AcDbEntity
  8
FASTENER
100
AcDbEllipse
 10
132.253602
 20
34.976346
 30
0.0
 11
-0.0765465544619744
 21
-0.1325825214724723
 31
0.0
210
0.0
220
0.0
230
1.0
 40
0.57735
 41
0.0000000000000374
 42
6.283185307179637
  0
LINE
  5
CABB
100
AcDbEntity
  8
TRACK
100
AcDbLine
 10
132.805322
 20
34.254274
 30
0.0
 11
132.805322
 21
30.504274
 31
0.0
  0
LINE
  5
CABC
100
AcDbEntity
  8
TRACK
100
AcDbLine
 10
132.845274
 20
30.527341
 30
0.0
 11
132.845274
 21
34.277341
 31
0.0
  0
LINE
  5
CABD
100
AcDbEntity
  8
TRACK
100
AcDbLine
 10
131.600033
 20
34.950147
 30
0.0
 11
131.600033
 21
31.200147
 31
0.0
  0
LINE
  5
CABE
100
AcDbEntity
  8
FASTENER
100
AcDbLine
 10
132.346581
 20
33.884061
 30
0.0
 11
132.128855
 21
34.006925
 31
0.0
  0
LINE
  5
CABF
100
AcDbEntity
  8
FASTENER
100
AcDbLine
 10
132.237718
 20
34.070493
 30
0.0
 11
132.237718
 21
33.820493
 31
0.0
  0
ELLIPSE
  5
CAC0
100
AcDbEntity
  8
FASTENER
100
AcDbEllipse
 10
132.237718
 20
33.945493
 30
0.0
 11
0.0765465544619741
 21
-0.1325825214724724
 31
0.0
210
0.0
220
0.0
230
-1.0
 40
0.57735
 41
0.0000000000000351
 42
6.283185307179635
  0
LINE
  5
CAC1
100
AcDbEntity
  8
FASTENER
100
AcDbLine
 10
132.346581
 20
31.384061
 30
0.0
 11
132.128855
 21
31.506925
 31
0.0
  0
LINE
  5
CAC2
100
AcDbEntity
  8
FASTENER
100
AcDbLine
 10
132.237718
 20
31.570493
 30
0.0
 11
132.237718
 21
31.320493
 31
0.0
  0
ELLIPSE
  5
CAC3
100
AcDbEntity
  8
FASTENER
100
AcDbEllipse
 10
132.237718
 20
31.445493
 30
0.0
 11
0.0765465544619741
 21
-0.1325825214724725
 31
0.0
210
0.0
220
0.0
230
-1.0
 40
0.57735
 41
0.0000000000000337
 42
6.283185307179634
  0
ELLIPSE
  5
CAC7
100
AcDbEntity
  8
FASTENER
100
AcDbEllipse
 10
143.227951
 20
41.266602
 30
0.0
 11
-0.0765465544619745
 21
-0.1325825214724722
 31
0.0
210
0.0
220
0.0
230
1.0
 40
0.57735
 41
0.000000000000039
 42
6.283185307179639
  0
LINE
  5
CAC8
100
AcDbEntity
  8
FASTENER
100
AcDbLine
 10
143.227951
 20
41.391602
 30
0.0
 11
143.227951
 21
41.141602
 31
0.0
  0
LINE
  5
CAC9
100
AcDbEntity
  8
FASTENER
100
AcDbLine
 10
143.119088
 20
41.20517
 30
0.0
 11
143.336814
 21
41.328034
 31
0.0
  0
LINE
  5
CACA
100
AcDbEntity
  8
FASTENER
100
AcDbLine
 10
143.119088
 20
38.45517
 30
0.0
 11
143.336814
 21
38.578034
 31
0.0
  0
LINE
  5
CACB
100
AcDbEntity
  8
FASTENER
100
AcDbLine
 10
143.227951
 20
38.641602
 30
0.0
 11
143.227951
 21
38.391602
 31
0.0
  0
ELLIPSE
  5
CACC
100
AcDbEntity
  8
FASTENER
100
AcDbEllipse
 10
143.227951
 20
38.516602
 30
0.0
 11
-0.0765465544619745
 21
-0.1325825214724722
 31
0.0
210
0.0
220
0.0
230
1.0
 40
0.57735
 41
0.000000000000039
 42
6.283185307179639
  0
ELLIPSE
  5
CAE8
100
AcDbEntity
  8
FASTENER
100
AcDbEllipse
 10
74.159713
 20
113.060655
 30
0.0
 11
-0.0765465544619697
 21
0.132582521472475
 31
0.0
210
0.0
220
0.0
230
1.0
 40
0.57735
 41
-0.0000000000003359
 42
6.283185307179264
  0
LINE
  5
CAE9
100
AcDbEntity
  8
FASTENER
100
AcDbLine
 10
74.267966
 20
112.998155
 30
0.0
 11
74.05146
 21
113.123155
 31
0.0
  0
LINE
  5
CAEA
100
AcDbEntity
  8
FASTENER
100
AcDbLine
 10
74.160943
 20
113.185649
 30
0.0
 11
74.158483
 21
112.935661
 31
0.0
  0
ELLIPSE
  5
CC92
100
AcDbEntity
  8
FASTENER
100
AcDbEllipse
 10
101.773303
 20
96.751266
 30
0.0
 11
0.0765465544619741
 21
-0.1325825214724725
 31
0.0
210
0.0
220
0.0
230
-1.0
 40
0.57735
 41
0.0000000000000337
 42
6.283185307179634
  0
LINE
  5
CC93
100
AcDbEntity
  8
FASTENER
100
AcDbLine
 10
101.773303
 20
96.876266
 30
0.0
 11
101.773303
 21
96.626266
 31
0.0
  0
LINE
  5
CC94
100
AcDbEntity
  8
FASTENER
100
AcDbLine
 10
101.882165
 20
96.689834
 30
0.0
 11
101.66444
 21
96.812698
 31
0.0
  0
ELLIPSE
  5
CC95
100
AcDbEntity
  8
FASTENER
100
AcDbEllipse
 10
101.773303
 20
99.251266
 30
0.0
 11
0.0765465544619741
 21
-0.1325825214724724
 31
0.0
210
0.0
220
0.0
230
-1.0
 40
0.57735
 41
0.0000000000000351
 42
6.283185307179635
  0
LINE
  5
CC96
100
AcDbEntity
  8
FASTENER
100
AcDbLine
 10
101.773303
 20
99.376266
 30
0.0
 11
101.773303
 21
99.126266
 31
0.0
  0
LINE
  5
CC97
100
AcDbEntity
  8
FASTENER
100
AcDbLine
 10
101.882165
 20
99.189834
 30
0.0
 11
101.66444
 21
99.312698
 31
0.0
  0
LINE
  5
CCA1
100
AcDbEntity
  8
TRACK
100
AcDbLine
 10
102.38343
 20
99.624222
 30
0.0
 11
102.38343
 21
95.874222
 31
0.0
  0
ELLIPSE
  5
CCA2
100
AcDbEntity
  8
FASTENER
100
AcDbEllipse
 10
100.434173
 20
99.470572
 30
0.0
 11
-0.0765465544619745
 21
-0.1325825214724722
 31
0.0
210
0.0
220
0.0
230
1.0
 40
0.57735
 41
0.000000000000039
 42
6.283185307179639
  0
LINE
  5
CCA4
100
AcDbEntity
  8
FASTENER
100
AcDbLine
 10
100.434173
 20
99.595572
 30
0.0
 11
100.434173
 21
99.345572
 31
0.0
  0
LINE
  5
CCA5
100
AcDbEntity
  8
FASTENER
100
AcDbLine
 10
100.325311
 20
99.409141
 30
0.0
 11
100.543036
 21
99.532004
 31
0.0
  0
LINE
  5
CCA8
100
AcDbEntity
  8
TRACK
100
AcDbLine
 10
101.135618
 20
100.344647
 30
0.0
 11
101.135618
 21
96.594647
 31
0.0
  0
LINE
  5
CCA9
100
AcDbEntity
  8
TRACK
100
AcDbLine
 10
101.073118
 20
100.344647
 30
0.0
 11
101.073118
 21
96.594647
 31
0.0
  0
LINE
  5
CCAC
100
AcDbEntity
  8
FASTENER
100
AcDbLine
 10
100.325311
 20
96.659141
 30
0.0
 11
100.543036
 21
96.782004
 31
0.0
  0
LINE
  5
CCAD
100
AcDbEntity
  8
FASTENER
100
AcDbLine
 10
100.434173
 20
96.845572
 30
0.0
 11
100.434173
 21
96.595572
 31
0.0
  0
ELLIPSE
  5
CCAF
100
AcDbEntity
  8
FASTENER
100
AcDbEllipse
 10
100.434173
 20
96.720572
 30
0.0
 11
-0.0765465544619745
 21
-0.1325825214724722
 31
0.0
210
0.0
220
0.0
230
1.0
 40
0.57735
 41
0.000000000000039
 42
6.283185307179639
  0
POLYLINE
  5
CCB2
100
AcDbEntity
  8
TRACK
100
AcDb2dPolyline
 66
     1
 10
0.0
 20
0.0
 30
0.0
  0
VERTEX
  5
CCB3
100
AcDbEntity
  8
TRACK
100
AcDbVertex
100
AcDb2dVertex
 10
102.38343
 20
99.624222
 30
0.0
  0
VERTEX
  5
CCB4
100
AcDbEntity
  8
TRACK
100
AcDbVertex
100
AcDb2dVertex
 10
101.135618
 20
100.344647
 30
0.0
 42
0.267949
  0
VERTEX
  5
CCB5
100
AcDbEntity
  8
TRACK
100
AcDbVertex
100
AcDb2dVertex
 10
101.073118
 20
100.344647
 30
0.0
  0
VERTEX
  5
CCB6
100
AcDbEntity
  8
TRACK
100
AcDbVertex
100
AcDb2dVertex
 10
95.69751
 20
97.241038
 30
0.0
 42
0.57735
  0
SEQEND
  5
CCB7
100
AcDbEntity
  8
TRACK
  0
POLYLINE
  5
CCC2
100
AcDbEntity
  8
TRACK
100
AcDb2dPolyline
 66
     1
 10
0.0
 20
0.0
 30
0.0
  0
VERTEX
  5
CCC3
100
AcDbEntity
  8
TRACK
100
AcDbVertex
100
AcDb2dVertex
 10
95.657557
 20
97.264105
 30
0.0
  0
VERTEX
  5
CCC4
100
AcDbEntity
  8
TRACK
100
AcDbVertex
100
AcDb2dVertex
 10
101.053142
 20
100.379247
 30
0.0
 42
-0.267949
  0
VERTEX
  5
CCC5
100
AcDbEntity
  8
TRACK
100
AcDbVertex
100
AcDb2dVertex
 10
101.155594
 20
100.379247
 30
0.0
  0
VERTEX
  5
CCC6
100
AcDbEntity
  8
TRACK
100
AcDbVertex
100
AcDb2dVertex
 10
102.423383
 20
99.647289
 30
0.0
  0
VERTEX
  5
CCC7
100
AcDbEntity
  8
TRACK
100
AcDbVertex
100
AcDb2dVertex
 10
102.38343
 20
99.624222
 30
0.0
  0
SEQEND
  5
CCC8
100
AcDbEntity
  8
TRACK
  0
LINE
  5
CE0A
100
AcDbEntity
  8
STUD
100
AcDbLine
 10
94.589201
 20
90.676673
 30
0.0
 11
86.971856
 21
86.278797
 31
0.0
  0
LINE
  5
CE0B
100
AcDbEntity
  8
STUD
100
AcDbLine
 10
82.541849
 20
89.194716
 30
0.0
 11
94.557951
 21
96.132216
 31
0.0
  0
LINE
  5
CE0C
100
AcDbEntity
  8
STUD
100
AcDbLine
 10
94.589201
 20
95.551673
 30
0.0
 11
82.749982
 21
88.716297
 31
0.0
  0
LINE
  5
CE0D
100
AcDbEntity
  8
STUD
100
AcDbLine
 10
81.259558
 20
89.935047
 30
0.0
 11
93.27566
 21
96.872547
 31
0.0
  0
LINE
  5
CE24
100
AcDbEntity
  8
STUD
100
AcDbLine
 10
82.573099
 20
89.140589
 30
0.0
 11
94.589201
 21
96.078089
 31
0.0
  0
LINE
  5
CE26
100
AcDbEntity
  8
STUD
100
AcDbLine
 10
94.589201
 20
90.222427
 30
0.0
 11
87.365245
 21
86.051673
 31
0.0
  0
POLYLINE
  5
CE28
100
AcDbEntity
  8
STUD
100
AcDb2dPolyline
 66
     1
 10
0.0
 20
0.0
 30
0.0
  0
VERTEX
  5
CE29
100
AcDbEntity
  8
STUD
100
AcDbVertex
100
AcDb2dVertex
 10
94.495451
 20
90.1683
 30
0.0
 42
0.57735
  0
VERTEX
  5
CE2A
100
AcDbEntity
  8
STUD
100
AcDbVertex
100
AcDb2dVertex
 10
94.589201
 20
90.222427
 30
0.0
  0
VERTEX
  5
CE2B
100
AcDbEntity
  8
STUD
100
AcDbVertex
100
AcDb2dVertex
 10
94.589201
 20
90.676673
 30
0.0
  0
VERTEX
  5
CE2C
100
AcDbEntity
  8
STUD
100
AcDbVertex
100
AcDb2dVertex
 10
94.554601
 20
90.69665
 30
0.0
  0
SEQEND
  5
CE2D
100
AcDbEntity
  8
STUD
  0
POLYLINE
  5
CE34
100
AcDbEntity
  8
STUD
100
AcDb2dPolyline
 66
     1
 10
0.0
 20
0.0
 30
0.0
  0
VERTEX
  5
CE35
100
AcDbEntity
  8
STUD
100
AcDbVertex
100
AcDb2dVertex
 10
94.589201
 20
95.551673
 30
0.0
  0
VERTEX
  5
CE36
100
AcDbEntity
  8
STUD
100
AcDbVertex
100
AcDb2dVertex
 10
94.589201
 20
96.078089
 30
0.0
 42
0.267949
  0
VERTEX
  5
CE37
100
AcDbEntity
  8
STUD
100
AcDbVertex
100
AcDb2dVertex
 10
94.557951
 20
96.132216
 30
0.0
  0
VERTEX
  5
CE38
100
AcDbEntity
  8
STUD
100
AcDbVertex
100
AcDb2dVertex
 10
93.27566
 20
96.872547
 30
0.0
 42
0.57735
  0
VERTEX
  5
CE39
100
AcDbEntity
  8
STUD
100
AcDbVertex
100
AcDb2dVertex
 10
93.18191
 20
96.81842
 30
0.0
  0
SEQEND
  5
CE3A
100
AcDbEntity
  8
STUD
  0
LINE
  5
CE3E
100
AcDbEntity
  8
TRACK
100
AcDbLine
 10
92.144353
 20
94.140139
 30
0.0
 11
92.144353
 21
91.459598
 31
0.0
  0
LINE
  5
CE47
100
AcDbEntity
  8
TRACK
100
AcDbLine
 10
92.184305
 20
91.436531
 30
0.0
 11
92.144353
 21
91.459598
 31
0.0
  0
LINE
  5
CE56
100
AcDbEntity
  8
TRACK
100
AcDbLine
 10
92.184305
 20
94.163206
 30
0.0
 11
92.184305
 21
91.436531
 31
0.0
  0
LINE
  5
CE57
100
AcDbEntity
  8
TRACK
100
AcDbLine
 10
94.719881
 20
95.726225
 30
0.0
 11
94.719881
 21
92.900447
 31
0.0
  0
LINE
  5
CE58
100
AcDbEntity
  8
TRACK
100
AcDbLine
 10
94.782381
 20
95.690141
 30
0.0
 11
94.782381
 21
92.900447
 31
0.0
  0
LINE
  5
CE59
100
AcDbEntity
  8
TRACK
100
AcDbLine
 10
96.030193
 20
94.969716
 30
0.0
 11
96.030193
 21
92.180022
 31
0.0
  0
LINE
  5
CE5D
100
AcDbEntity
  8
FASTENER
100
AcDbLine
 10
95.528929
 20
92.995634
 30
0.0
 11
95.311203
 21
93.118498
 31
0.0
  0
LINE
  5
CE5E
100
AcDbEntity
  8
FASTENER
100
AcDbLine
 10
95.420066
 20
93.182066
 30
0.0
 11
95.420066
 21
92.932066
 31
0.0
  0
ELLIPSE
  5
CE5F
100
AcDbEntity
  8
FASTENER
100
AcDbEllipse
 10
95.420066
 20
93.057066
 30
0.0
 11
0.0765465544619741
 21
-0.1325825214724725
 31
0.0
210
0.0
220
0.0
230
-1.0
 40
0.57735
 41
0.0000000000000337
 42
6.283185307179634
  0
LINE
  5
CE60
100
AcDbEntity
  8
TRACK
100
AcDbLine
 10
83.60128
 20
89.207794
 30
0.0
 11
83.60128
 21
88.2248
 31
0.0
  0
POLYLINE
  5
CE68
100
AcDbEntity
  8
TRACK
100
AcDb2dPolyline
 66
     1
 10
0.0
 20
0.0
 30
0.0
  0
VERTEX
  5
CE69
100
AcDbEntity
  8
TRACK
100
AcDbVertex
100
AcDb2dVertex
 10
81.034455
 20
84.98644
 30
0.0
 42
0.154918
  0
VERTEX
  5
CE6A
100
AcDbEntity
  8
TRACK
100
AcDbVertex
100
AcDb2dVertex
 10
81.045728
 20
84.950337
 30
0.0
  0
SEQEND
  5
CE6B
100
AcDbEntity
  8
TRACK
  0
LINE
  5
CE8C
100
AcDbEntity
  8
FASTENER
100
AcDbLine
 10
92.564782
 20
92.15244
 30
0.0
 11
92.782508
 21
92.275304
 31
0.0
  0
LINE
  5
CE8D
100
AcDbEntity
  8
FASTENER
100
AcDbLine
 10
92.673645
 20
92.338872
 30
0.0
 11
92.673645
 21
92.088872
 31
0.0
  0
ELLIPSE
  5
CE8E
100
AcDbEntity
  8
FASTENER
100
AcDbEllipse
 10
92.673645
 20
92.213872
 30
0.0
 11
-0.0765465544619745
 21
-0.1325825214724722
 31
0.0
210
0.0
220
0.0
230
1.0
 40
0.57735
 41
0.000000000000039
 42
6.283185307179639
  0
ELLIPSE
  5
CE8F
100
AcDbEntity
  8
FASTENER
100
AcDbEllipse
 10
78.817239
 20
84.213872
 30
0.0
 11
-0.0765465544619745
 21
-0.1325825214724722
 31
0.0
210
0.0
220
0.0
230
1.0
 40
0.57735
 41
0.000000000000039
 42
6.283185307179639
  0
LINE
  5
CE90
100
AcDbEntity
  8
FASTENER
100
AcDbLine
 10
78.817239
 20
84.338872
 30
0.0
 11
78.817239
 21
84.088872
 31
0.0
  0
LINE
  5
CE91
100
AcDbEntity
  8
FASTENER
100
AcDbLine
 10
78.708376
 20
84.15244
 30
0.0
 11
78.926102
 21
84.275304
 31
0.0
  0
ELLIPSE
  5
CEBE
100
AcDbEntity
  8
FASTENER
100
AcDbEllipse
 10
81.563659
 20
85.057066
 30
0.0
 11
0.0765465544619741
 21
-0.1325825214724725
 31
0.0
210
0.0
220
0.0
230
-1.0
 40
0.57735
 41
0.0000000000000337
 42
6.283185307179634
  0
LINE
  5
CEBF
100
AcDbEntity
  8
FASTENER
100
AcDbLine
 10
81.563659
 20
85.182066
 30
0.0
 11
81.563659
 21
84.932066
 31
0.0
  0
LINE
  5
CEC0
100
AcDbEntity
  8
FASTENER
100
AcDbLine
 10
81.672522
 20
84.995634
 30
0.0
 11
81.454797
 21
85.118498
 31
0.0
  0
LINE
  5
CEC4
100
AcDbEntity
  8
TRACK
100
AcDbLine
 10
82.173787
 20
86.969716
 30
0.0
 11
82.173787
 21
84.180022
 31
0.0
  0
LINE
  5
CEC5
100
AcDbEntity
  8
TRACK
100
AcDbLine
 10
80.925975
 20
87.690141
 30
0.0
 11
80.925975
 21
84.900447
 31
0.0
  0
LINE
  5
CEC6
100
AcDbEntity
  8
TRACK
100
AcDbLine
 10
80.863475
 20
87.726225
 30
0.0
 11
80.863475
 21
84.900447
 31
0.0
  0
LINE
  5
CEC7
100
AcDbEntity
  8
TRACK
100
AcDbLine
 10
78.327899
 20
86.163206
 30
0.0
 11
78.327899
 21
83.436531
 31
0.0
  0
LINE
  5
CED6
100
AcDbEntity
  8
TRACK
100
AcDbLine
 10
78.327899
 20
83.436531
 30
0.0
 11
78.287946
 21
83.459598
 31
0.0
  0
LINE
  5
CEDF
100
AcDbEntity
  8
TRACK
100
AcDbLine
 10
78.287946
 20
86.140139
 30
0.0
 11
78.287946
 21
83.459598
 31
0.0
  0
POLYLINE
  5
CEE0
100
AcDbEntity
  8
STUD
100
AcDb2dPolyline
 66
     1
 10
0.0
 20
0.0
 30
0.0
  0
VERTEX
  5
CEE1
100
AcDbEntity
  8
STUD
100
AcDbVertex
100
AcDb2dVertex
 10
80.732795
 20
87.551673
 30
0.0
  0
VERTEX
  5
CEE2
100
AcDbEntity
  8
STUD
100
AcDbVertex
100
AcDb2dVertex
 10
80.732795
 20
88.078089
 30
0.0
 42
0.267949
  0
VERTEX
  5
CEE3
100
AcDbEntity
  8
STUD
100
AcDbVertex
100
AcDb2dVertex
 10
80.701545
 20
88.132216
 30
0.0
  0
VERTEX
  5
CEE4
100
AcDbEntity
  8
STUD
100
AcDbVertex
100
AcDb2dVertex
 10
79.419254
 20
88.872547
 30
0.0
 42
0.57735
  0
VERTEX
  5
CEE5
100
AcDbEntity
  8
STUD
100
AcDbVertex
100
AcDb2dVertex
 10
79.325504
 20
88.81842
 30
0.0
  0
SEQEND
  5
CEE6
100
AcDbEntity
  8
STUD
  0
POLYLINE
  5
CEE7
100
AcDbEntity
  8
STUD
100
AcDb2dPolyline
 66
     1
 10
0.0
 20
0.0
 30
0.0
  0
VERTEX
  5
CEE8
100
AcDbEntity
  8
STUD
100
AcDbVertex
100
AcDb2dVertex
 10
80.245656
 20
82.435376
 30
0.0
  0
VERTEX
  5
CEE9
100
AcDbEntity
  8
STUD
100
AcDbVertex
100
AcDb2dVertex
 10
79.374054
 20
82.938596
 30
0.0
 42
-0.267949
  0
VERTEX
  5
CEEA
100
AcDbEntity
  8
STUD
100
AcDbVertex
100
AcDb2dVertex
 10
79.360104
 20
82.962758
 30
0.0
  0
VERTEX
  5
CEEB
100
AcDbEntity
  8
STUD
100
AcDbVertex
100
AcDb2dVertex
 10
79.360104
 20
84.032475
 30
0.0
  0
SEQEND
  5
CEEC
100
AcDbEntity
  8
STUD
  0
POLYLINE
  5
CEED
100
AcDbEntity
  8
STUD
100
AcDb2dPolyline
 66
     1
 10
0.0
 20
0.0
 30
0.0
  0
VERTEX
  5
CEEE
100
AcDbEntity
  8
STUD
100
AcDbVertex
100
AcDb2dVertex
 10
80.639045
 20
82.1683
 30
0.0
 42
0.57735
  0
VERTEX
  5
CEEF
100
AcDbEntity
  8
STUD
100
AcDbVertex
100
AcDb2dVertex
 10
80.732795
 20
82.222427
 30
0.0
  0
VERTEX
  5
CEF0
100
AcDbEntity
  8
STUD
100
AcDbVertex
100
AcDb2dVertex
 10
80.732795
 20
82.676673
 30
0.0
  0
VERTEX
  5
CEF1
100
AcDbEntity
  8
STUD
100
AcDbVertex
100
AcDb2dVertex
 10
80.698195
 20
82.69665
 30
0.0
  0
SEQEND
  5
CEF2
100
AcDbEntity
  8
STUD
  0
LINE
  5
CEF3
100
AcDbEntity
  8
STUD
100
AcDbLine
 10
72.209247
 20
78.801993
 30
0.0
 11
79.374054
 21
82.938596
 31
0.0
  0
LINE
  5
CEF4
100
AcDbEntity
  8
STUD
100
AcDbLine
 10
80.732795
 20
82.222427
 30
0.0
 11
73.508838
 21
78.051673
 31
0.0
  0
LINE
  5
CEF5
100
AcDbEntity
  8
STUD
100
AcDbLine
 10
72.181347
 20
78.818101
 30
0.0
 11
79.360104
 21
82.962758
 31
0.0
  0
LINE
  5
CEF6
100
AcDbEntity
  8
STUD
100
AcDbLine
 10
68.716692
 20
81.140589
 30
0.0
 11
80.732795
 21
88.078089
 31
0.0
  0
LINE
  5
CF0D
100
AcDbEntity
  8
STUD
100
AcDbLine
 10
67.403151
 20
81.935047
 30
0.0
 11
79.419254
 21
88.872547
 31
0.0
  0
LINE
  5
CF0E
100
AcDbEntity
  8
STUD
100
AcDbLine
 10
80.732795
 20
87.551673
 30
0.0
 11
68.893575
 21
80.716297
 31
0.0
  0
LINE
  5
CF0F
100
AcDbEntity
  8
STUD
100
AcDbLine
 10
68.685442
 20
81.194716
 30
0.0
 11
80.701545
 21
88.132216
 31
0.0
  0
LINE
  5
CF10
100
AcDbEntity
  8
STUD
100
AcDbLine
 10
80.732795
 20
82.676673
 30
0.0
 11
73.115449
 21
78.278797
 31
0.0
  0
LINE
  5
CF11
100
AcDbEntity
  8
STUD
100
AcDbLine
 10
73.080849
 20
78.298773
 30
0.0
 11
80.698195
 21
82.69665
 31
0.0
  0
ELLIPSE
  5
D048
100
AcDbEntity
  8
FASTENER
100
AcDbEllipse
 10
37.248019
 20
60.213872
 30
0.0
 11
-0.0765465544619745
 21
-0.1325825214724722
 31
0.0
210
0.0
220
0.0
230
1.0
 40
0.57735
 41
-0.0000000000000306
 42
6.28318530717957
  0
LINE
  5
D049
100
AcDbEntity
  8
FASTENER
100
AcDbLine
 10
37.248019
 20
60.338872
 30
0.0
 11
37.248019
 21
60.088872
 31
0.0
  0
LINE
  5
D04A
100
AcDbEntity
  8
FASTENER
100
AcDbLine
 10
37.139157
 20
60.15244
 30
0.0
 11
37.356882
 21
60.275304
 31
0.0
  0
LINE
  5
D076
100
AcDbEntity
  8
TRACK
100
AcDbLine
 10
28.175654
 20
57.207794
 30
0.0
 11
28.175654
 21
56.2248
 31
0.0
  0
ELLIPSE
  5
D077
100
AcDbEntity
  8
FASTENER
100
AcDbEllipse
 10
39.99444
 20
61.057066
 30
0.0
 11
0.0765465544619741
 21
-0.1325825214724725
 31
0.0
210
0.0
220
0.0
230
-1.0
 40
0.57735
 41
-0.0000000000000359
 42
6.283185307179564
  0
LINE
  5
D078
100
AcDbEntity
  8
FASTENER
100
AcDbLine
 10
39.99444
 20
61.182066
 30
0.0
 11
39.99444
 21
60.932066
 31
0.0
  0
LINE
  5
D079
100
AcDbEntity
  8
FASTENER
100
AcDbLine
 10
40.103303
 20
60.995634
 30
0.0
 11
39.885577
 21
61.118498
 31
0.0
  0
LINE
  5
D07D
100
AcDbEntity
  8
TRACK
100
AcDbLine
 10
40.604567
 20
62.981537
 30
0.0
 11
40.604567
 21
60.180022
 31
0.0
  0
LINE
  5
D07E
100
AcDbEntity
  8
TRACK
100
AcDbLine
 10
39.356756
 20
63.703163
 30
0.0
 11
39.356756
 21
60.900447
 31
0.0
  0
LINE
  5
D07F
100
AcDbEntity
  8
TRACK
100
AcDbLine
 10
39.294256
 20
63.739307
 30
0.0
 11
39.294256
 21
60.900447
 31
0.0
  0
LINE
  5
D080
100
AcDbEntity
  8
TRACK
100
AcDbLine
 10
36.758679
 20
62.163206
 30
0.0
 11
36.758679
 21
59.436531
 31
0.0
  0
LINE
  5
D08F
100
AcDbEntity
  8
TRACK
100
AcDbLine
 10
36.758679
 20
59.436531
 30
0.0
 11
36.718727
 21
59.459598
 31
0.0
  0
LINE
  5
D098
100
AcDbEntity
  8
TRACK
100
AcDbLine
 10
36.718727
 20
62.140139
 30
0.0
 11
36.718727
 21
59.459598
 31
0.0
  0
POLYLINE
  5
D0A6
100
AcDbEntity
  8
STUD
100
AcDb2dPolyline
 66
     1
 10
0.0
 20
0.0
 30
0.0
  0
VERTEX
  5
D0A7
100
AcDbEntity
  8
STUD
100
AcDbVertex
100
AcDb2dVertex
 10
39.069826
 20
58.1683
 30
0.0
 42
0.57735
  0
VERTEX
  5
D0A8
100
AcDbEntity
  8
STUD
100
AcDbVertex
100
AcDb2dVertex
 10
39.163576
 20
58.222427
 30
0.0
  0
VERTEX
  5
D0A9
100
AcDbEntity
  8
STUD
100
AcDbVertex
100
AcDb2dVertex
 10
39.163576
 20
58.676673
 30
0.0
  0
VERTEX
  5
D0AA
100
AcDbEntity
  8
STUD
100
AcDbVertex
100
AcDb2dVertex
 10
39.128976
 20
58.69665
 30
0.0
  0
SEQEND
  5
D0AB
100
AcDbEntity
  8
STUD
  0
LINE
  5
D0AC
100
AcDbEntity
  8
STUD
100
AcDbLine
 10
30.640028
 20
54.801993
 30
0.0
 11
37.804834
 21
58.938596
 31
0.0
  0
LINE
  5
D0AD
100
AcDbEntity
  8
STUD
100
AcDbLine
 10
39.163576
 20
58.222427
 30
0.0
 11
31.939619
 21
54.051673
 31
0.0
  0
LINE
  5
D0AE
100
AcDbEntity
  8
STUD
100
AcDbLine
 10
30.612128
 20
54.818101
 30
0.0
 11
37.790884
 21
58.962758
 31
0.0
  0
LINE
  5
D0AF
100
AcDbEntity
  8
STUD
100
AcDbLine
 10
27.147473
 20
57.140589
 30
0.0
 11
39.163576
 21
64.078089
 31
0.0
  0
LINE
  5
D0C6
100
AcDbEntity
  8
STUD
100
AcDbLine
 10
25.833932
 20
57.935047
 30
0.0
 11
37.850034
 21
64.872547
 31
0.0
  0
LINE
  5
D0C7
100
AcDbEntity
  8
STUD
100
AcDbLine
 10
39.163576
 20
63.551673
 30
0.0
 11
27.324356
 21
56.716297
 31
0.0
  0
LINE
  5
D0C8
100
AcDbEntity
  8
STUD
100
AcDbLine
 10
27.116223
 20
57.194716
 30
0.0
 11
39.132326
 21
64.132216
 31
0.0
  0
LINE
  5
D0C9
100
AcDbEntity
  8
STUD
100
AcDbLine
 10
39.163576
 20
58.676673
 30
0.0
 11
31.54623
 21
54.278797
 31
0.0
  0
LINE
  5
D0CA
100
AcDbEntity
  8
STUD
100
AcDbLine
 10
31.51163
 20
54.298773
 30
0.0
 11
39.128976
 21
58.69665
 31
0.0
  0
POLYLINE
  5
D0CB
100
AcDbEntity
  8
STUD
100
AcDb2dPolyline
 66
     1
 10
0.0
 20
0.0
 30
0.0
 70
     1
  0
VERTEX
  5
D0CC
100
AcDbEntity
  8
STUD
100
AcDbVertex
100
AcDb2dVertex
 10
29.472137
 20
58.002072
 30
0.0
 42
0.267949
  0
VERTEX
  5
D0CD
100
AcDbEntity
  8
STUD
100
AcDbVertex
100
AcDb2dVertex
 10
29.347137
 20
57.785565
 30
0.0
  0
VERTEX
  5
D0CE
100
AcDbEntity
  8
STUD
100
AcDbVertex
100
AcDb2dVertex
 10
29.347137
 20
56.862916
 30
0.0
 42
0.57735
  0
VERTEX
  5
D0CF
100
AcDbEntity
  8
STUD
100
AcDbVertex
100
AcDb2dVertex
 10
29.722137
 20
56.646409
 30
0.0
  0
VERTEX
  5
D0D0
100
AcDbEntity
  8
STUD
100
AcDbVertex
100
AcDb2dVertex
 10
32.036719
 20
57.982734
 30
0.0
 42
0.267949
  0
VERTEX
  5
D0D1
100
AcDbEntity
  8
STUD
100
AcDbVertex
100
AcDb2dVertex
 10
32.161719
 20
58.19924
 30
0.0
  0
VERTEX
  5
D0D2
100
AcDbEntity
  8
STUD
100
AcDbVertex
100
AcDb2dVertex
 10
32.161719
 20
59.12189
 30
0.0
 42
0.57735
  0
VERTEX
  5
D0D3
100
AcDbEntity
  8
STUD
100
AcDbVertex
100
AcDb2dVertex
 10
31.786719
 20
59.338397
 30
0.0
  0
SEQEND
  5
D0D4
100
AcDbEntity
  8
STUD
  0
ELLIPSE
  5
D0DB
100
AcDbEntity
  8
FASTENER
100
AcDbEllipse
 10
23.391613
 20
52.213872
 30
0.0
 11
-0.0765465544619745
 21
-0.1325825214724722
 31
0.0
210
0.0
220
0.0
230
1.0
 40
0.57735
 41
2.34034039927791
 42
3.942828163032636
  0
LINE
  5
D0DC
100
AcDbEntity
  8
FASTENER
100
AcDbLine
 10
23.391613
 20
52.338872
 30
0.0
 11
23.391613
 21
52.336877
 31
0.0
  0
LINE
  5
D0DD
100
AcDbEntity
  8
FASTENER
100
AcDbLine
 10
23.499353
 20
52.274671
 30
0.0
 11
23.500476
 21
52.275304
 31
0.0
  0
ELLIPSE
  5
D0E1
100
AcDbEntity
  8
FASTENER
100
AcDbEllipse
 10
12.40138
 20
45.142763
 30
0.0
 11
0.0765465544619741
 21
-0.1325825214724725
 31
0.0
210
0.0
220
0.0
230
-1.0
 40
0.57735
 41
0.0000000000000164
 42
6.283185307179616
  0
LINE
  5
D0E2
100
AcDbEntity
  8
FASTENER
100
AcDbLine
 10
12.40138
 20
45.267763
 30
0.0
 11
12.40138
 21
45.017763
 31
0.0
  0
LINE
  5
D0E3
100
AcDbEntity
  8
FASTENER
100
AcDbLine
 10
12.510243
 20
45.081331
 30
0.0
 11
12.292517
 21
45.204195
 31
0.0
  0
LINE
  5
D109
100
AcDbEntity
  8
TRACK
100
AcDbLine
 10
14.319248
 20
49.207794
 30
0.0
 11
14.319248
 21
48.2248
 31
0.0
  0
LINE
  5
D110
100
AcDbEntity
  8
TRACK
100
AcDbLine
 10
26.748161
 20
54.969716
 30
0.0
 11
26.748161
 21
52.180022
 31
0.0
  0
LINE
  5
D111
100
AcDbEntity
  8
TRACK
100
AcDbLine
 10
25.500349
 20
55.690141
 30
0.0
 11
25.500349
 21
52.900447
 31
0.0
  0
LINE
  5
D112
100
AcDbEntity
  8
TRACK
100
AcDbLine
 10
25.437849
 20
55.726225
 30
0.0
 11
25.437849
 21
52.900447
 31
0.0
  0
LINE
  5
D113
100
AcDbEntity
  8
TRACK
100
AcDbLine
 10
22.902273
 20
54.163206
 30
0.0
 11
22.902273
 21
52.619407
 31
0.0
  0
LINE
  5
D12B
100
AcDbEntity
  8
TRACK
100
AcDbLine
 10
22.86232
 20
54.140139
 30
0.0
 11
22.86232
 21
52.642475
 31
0.0
  0
POLYLINE
  5
D12C
100
AcDbEntity
  8
STUD
100
AcDb2dPolyline
 66
     1
 10
0.0
 20
0.0
 30
0.0
  0
VERTEX
  5
D12D
100
AcDbEntity
  8
STUD
100
AcDbVertex
100
AcDb2dVertex
 10
25.307169
 20
55.551673
 30
0.0
  0
VERTEX
  5
D12E
100
AcDbEntity
  8
STUD
100
AcDbVertex
100
AcDb2dVertex
 10
25.307169
 20
56.078089
 30
0.0
 42
0.267949
  0
VERTEX
  5
D12F
100
AcDbEntity
  8
STUD
100
AcDbVertex
100
AcDb2dVertex
 10
25.275919
 20
56.132216
 30
0.0
  0
VERTEX
  5
D130
100
AcDbEntity
  8
STUD
100
AcDbVertex
100
AcDb2dVertex
 10
23.993628
 20
56.872547
 30
0.0
 42
0.57735
  0
VERTEX
  5
D131
100
AcDbEntity
  8
STUD
100
AcDbVertex
100
AcDb2dVertex
 10
23.899878
 20
56.81842
 30
0.0
  0
SEQEND
  5
D132
100
AcDbEntity
  8
STUD
  0
LINE
  5
D140
100
AcDbEntity
  8
STUD
100
AcDbLine
 10
21.628878
 20
48.098764
 30
0.0
 11
18.688046
 21
46.400874
 31
0.0
  0
LINE
  5
D142
100
AcDbEntity
  8
STUD
100
AcDbLine
 10
13.291067
 20
49.140589
 30
0.0
 11
14.328913
 21
49.73979
 31
0.0
  0
LINE
  5
D159
100
AcDbEntity
  8
STUD
100
AcDbLine
 10
11.977525
 20
49.935047
 30
0.0
 11
15.213042
 21
51.803073
 31
0.0
  0
LINE
  5
D15A
100
AcDbEntity
  8
STUD
100
AcDbLine
 10
25.307169
 20
55.551673
 30
0.0
 11
21.565326
 21
53.39132
 31
0.0
  0
LINE
  5
D15B
100
AcDbEntity
  8
STUD
100
AcDbLine
 10
13.259817
 20
49.194716
 30
0.0
 11
14.328913
 21
49.811959
 31
0.0
  0
LINE
  5
D15C
100
AcDbEntity
  8
STUD
100
AcDbLine
 10
21.235495
 20
48.325891
 30
0.0
 11
18.688046
 21
46.855121
 31
0.0
  0
LINE
  5
D189
100
AcDbEntity
  8
TRACK
100
AcDbLine
 10
11.581443
 20
47.726225
 30
0.0
 11
11.581443
 21
44.900447
 31
0.0
  0
LINE
  5
D18A
100
AcDbEntity
  8
TRACK
100
AcDbLine
 10
11.643943
 20
47.690141
 30
0.0
 11
11.643943
 21
44.900447
 31
0.0
  0
LINE
  5
D5A8
100
AcDbEntity
  8
JOIST
100
AcDbLine
 10
110.559355
 20
35.138554
 30
0.0
 11
109.221264
 21
35.911101
 31
0.0
  0
LINE
  5
D5A9
100
AcDbEntity
  8
JOIST
100
AcDbLine
 10
95.364857
 20
27.404662
 30
0.0
 11
96.702949
 21
26.632114
 31
0.0
  0
LINE
  5
D5AA
100
AcDbEntity
  8
JOIST
100
AcDbLine
 10
95.364857
 20
27.372446
 30
0.0
 11
96.688999
 21
26.607952
 31
0.0
  0
ELLIPSE
  5
D5AB
100
AcDbEntity
  8
JOIST
100
AcDbEllipse
 10
95.598027
 20
32.416616
 30
0.0
 11
0.153093108923944
 21
0.0000000000000025
 31
0.0
210
0.0
220
0.0
230
-1.0
 40
0.57735
 41
0.0000000000000286
 42
6.283185307179628
  0
LINE
  5
D5AC
100
AcDbEntity
  8
JOIST
100
AcDbLine
 10
95.489774
 20
32.479116
 30
0.0
 11
95.70628
 21
32.354116
 31
0.0
  0
LINE
  5
D5AD
100
AcDbEntity
  8
JOIST
100
AcDbLine
 10
95.70566
 20
32.480178
 30
0.0
 11
95.490394
 21
32.353054
 31
0.0
  0
LINE
  5
D5AE
100
AcDbEntity
  8
JOIST
100
AcDbLine
 10
96.250409
 20
32.274827
 30
0.0
 11
96.702949
 21
32.013554
 31
0.0
  0
LINE
  5
D5AF
100
AcDbEntity
  8
STUD
100
AcDbLine
 10
89.774745
 20
32.467162
 30
0.0
 11
88.436654
 21
31.694614
 31
0.0
  0
LINE
  5
D5B0
100
AcDbEntity
  8
STUD
100
AcDbLine
 10
89.774745
 20
32.434946
 30
0.0
 11
88.450604
 21
31.670452
 31
0.0
  0
POLYLINE
  5
D5B1
100
AcDbEntity
  8
STUD
100
AcDb2dPolyline
 66
     1
 10
0.0
 20
0.0
 30
0.0
  0
VERTEX
  5
D5B2
100
AcDbEntity
  8
STUD
100
AcDbVertex
100
AcDb2dVertex
 10
101.731698
 20
37.837657
 30
0.0
 42
0.57735
  0
VERTEX
  5
D5B3
100
AcDbEntity
  8
STUD
100
AcDbVertex
100
AcDb2dVertex
 10
101.825448
 20
37.891783
 30
0.0
  0
VERTEX
  5
D5B4
100
AcDbEntity
  8
STUD
100
AcDbVertex
100
AcDb2dVertex
 10
101.825448
 20
38.378505
 30
0.0
 42
0.267949
  0
SEQEND
  5
D5B5
100
AcDbEntity
  8
STUD
  0
POLYLINE
  5
D5B6
100
AcDbEntity
  8
STUD
100
AcDb2dPolyline
 66
     1
 10
0.0
 20
0.0
 30
0.0
  0
VERTEX
  5
D5B7
100
AcDbEntity
  8
STUD
100
AcDbVertex
100
AcDb2dVertex
 10
101.825448
 20
43.128505
 30
0.0
  0
VERTEX
  5
D5B8
100
AcDbEntity
  8
STUD
100
AcDbVertex
100
AcDb2dVertex
 10
101.825448
 20
43.747446
 30
0.0
 42
0.267949
  0
VERTEX
  5
D5B9
100
AcDbEntity
  8
STUD
100
AcDbVertex
100
AcDb2dVertex
 10
101.794198
 20
43.801572
 30
0.0
  0
VERTEX
  5
D5BA
100
AcDbEntity
  8
STUD
100
AcDbVertex
100
AcDb2dVertex
 10
100.511907
 20
44.541903
 30
0.0
 42
0.57735
  0
VERTEX
  5
D5BB
100
AcDbEntity
  8
STUD
100
AcDbVertex
100
AcDb2dVertex
 10
100.418157
 20
44.487777
 30
0.0
  0
SEQEND
  5
D5BC
100
AcDbEntity
  8
STUD
  0
POLYLINE
  5
D5BD
100
AcDbEntity
  8
STUD
100
AcDb2dPolyline
 66
     1
 10
0.0
 20
0.0
 30
0.0
  0
VERTEX
  5
D5BE
100
AcDbEntity
  8
STUD
100
AcDbVertex
100
AcDb2dVertex
 10
103.315769
 20
42.512009
 30
0.0
  0
VERTEX
  5
D5BF
100
AcDbEntity
  8
STUD
100
AcDbVertex
100
AcDb2dVertex
 10
103.315769
 20
37.762009
 30
0.0
  0
VERTEX
  5
D5C0
100
AcDbEntity
  8
STUD
100
AcDbVertex
100
AcDb2dVertex
 10
103.275816
 20
37.738942
 30
0.0
  0
VERTEX
  5
D5C1
100
AcDbEntity
  8
STUD
100
AcDbVertex
100
AcDb2dVertex
 10
102.028004
 20
38.459366
 30
0.0
 42
0.267949
  0
VERTEX
  5
D5C2
100
AcDbEntity
  8
STUD
100
AcDbVertex
100
AcDb2dVertex
 10
101.965504
 20
38.459366
 30
0.0
  0
VERTEX
  5
D5C3
100
AcDbEntity
  8
STUD
100
AcDbVertex
100
AcDb2dVertex
 10
101.825448
 20
38.378505
 30
0.0
  0
SEQEND
  5
D5C4
100
AcDbEntity
  8
STUD
  0
POLYLINE
  5
D5C5
100
AcDbEntity
  8
STUD
100
AcDb2dPolyline
 66
     1
 10
0.0
 20
0.0
 30
0.0
  0
VERTEX
  5
D5C6
100
AcDbEntity
  8
STUD
100
AcDbVertex
100
AcDb2dVertex
 10
101.825448
 20
43.174638
 30
0.0
  0
VERTEX
  5
D5C7
100
AcDbEntity
  8
STUD
100
AcDbVertex
100
AcDb2dVertex
 10
101.945528
 20
43.243966
 30
0.0
 42
-0.267949
  0
VERTEX
  5
D5C8
100
AcDbEntity
  8
STUD
100
AcDbVertex
100
AcDb2dVertex
 10
102.04798
 20
43.243966
 30
0.0
  0
VERTEX
  5
D5C9
100
AcDbEntity
  8
STUD
100
AcDbVertex
100
AcDb2dVertex
 10
103.315769
 20
42.512009
 30
0.0
  0
VERTEX
  5
D5CA
100
AcDbEntity
  8
STUD
100
AcDbVertex
100
AcDb2dVertex
 10
103.275816
 20
42.488942
 30
0.0
  0
SEQEND
  5
D5CB
100
AcDbEntity
  8
STUD
  0
POLYLINE
  5
D5CC
100
AcDbEntity
  8
STUD
100
AcDb2dPolyline
 66
     1
 10
0.0
 20
0.0
 30
0.0
  0
VERTEX
  5
D5CD
100
AcDbEntity
  8
STUD
100
AcDbVertex
100
AcDb2dVertex
 10
103.275816
 20
42.488942
 30
0.0
  0
VERTEX
  5
D5CE
100
AcDbEntity
  8
STUD
100
AcDbVertex
100
AcDb2dVertex
 10
102.028004
 20
43.209366
 30
0.0
 42
0.267949
  0
VERTEX
  5
D5CF
100
AcDbEntity
  8
STUD
100
AcDbVertex
100
AcDb2dVertex
 10
101.965504
 20
43.209366
 30
0.0
  0
VERTEX
  5
D5D0
100
AcDbEntity
  8
STUD
100
AcDbVertex
100
AcDb2dVertex
 10
101.825448
 20
43.128505
 30
0.0
 42
0.57735
  0
SEQEND
  5
D5D1
100
AcDbEntity
  8
STUD
  0
LINE
  5
D5D2
100
AcDbEntity
  8
STUD
100
AcDbLine
 10
103.275816
 20
37.738942
 30
0.0
 11
103.275816
 21
42.488942
 31
0.0
  0
LINE
  5
D5D3
100
AcDbEntity
  8
FASTENER
100
AcDbLine
 10
102.498019
 20
39.441372
 30
0.0
 11
102.715744
 21
39.318508
 31
0.0
  0
LINE
  5
D5D4
100
AcDbEntity
  8
TRACK
100
AcDbLine
 10
90.846903
 20
36.313106
 30
0.0
 11
90.846903
 21
32.563106
 31
0.0
  0
LINE
  5
D5D5
100
AcDbEntity
  8
TRACK
100
AcDbLine
 10
90.846903
 20
36.313106
 30
0.0
 11
90.80695
 21
36.336172
 31
0.0
  0
POLYLINE
  5
D5D6
100
AcDbEntity
  8
TRACK
100
AcDb2dPolyline
 66
     1
 10
0.0
 20
0.0
 30
0.0
  0
VERTEX
  5
D5D7
100
AcDbEntity
  8
TRACK
100
AcDbVertex
100
AcDb2dVertex
 10
89.536591
 20
30.28353
 30
0.0
  0
VERTEX
  5
D5D8
100
AcDbEntity
  8
TRACK
100
AcDbVertex
100
AcDb2dVertex
 10
89.496638
 20
30.260463
 30
0.0
  0
VERTEX
  5
D5D9
100
AcDbEntity
  8
TRACK
100
AcDbVertex
100
AcDb2dVertex
 10
88.29135
 20
30.956337
 30
0.0
 42
-0.57735
  0
VERTEX
  5
D5DA
100
AcDbEntity
  8
TRACK
100
AcDbVertex
100
AcDb2dVertex
 10
88.29135
 20
31.13379
 30
0.0
  0
SEQEND
  5
D5DB
100
AcDbEntity
  8
TRACK
  0
POLYLINE
  5
D5DC
100
AcDbEntity
  8
TRACK
100
AcDb2dPolyline
 66
     1
 10
0.0
 20
0.0
 30
0.0
  0
VERTEX
  5
D5DD
100
AcDbEntity
  8
TRACK
100
AcDbVertex
100
AcDb2dVertex
 10
88.280077
 20
31.045359
 30
0.0
 42
0.154918
  0
VERTEX
  5
D5DE
100
AcDbEntity
  8
TRACK
100
AcDbVertex
100
AcDb2dVertex
 10
88.29135
 20
31.009257
 30
0.0
  0
SEQEND
  5
D5DF
100
AcDbEntity
  8
TRACK
  0
POLYLINE
  5
D5E0
100
AcDbEntity
  8
TRACK
100
AcDb2dPolyline
 66
     1
 10
0.0
 20
0.0
 30
0.0
  0
VERTEX
  5
D5E1
100
AcDbEntity
  8
TRACK
100
AcDbVertex
100
AcDb2dVertex
 10
90.846903
 20
32.563106
 30
0.0
  0
VERTEX
  5
D5E2
100
AcDbEntity
  8
TRACK
100
AcDbVertex
100
AcDb2dVertex
 10
89.536591
 20
31.806597
 30
0.0
 42
0.439766
  0
SEQEND
  5
D5E3
100
AcDbEntity
  8
TRACK
  0
POLYLINE
  5
D5E4
100
AcDbEntity
  8
TRACK
100
AcDb2dPolyline
 66
     1
 10
0.0
 20
0.0
 30
0.0
  0
VERTEX
  5
D5E5
100
AcDbEntity
  8
TRACK
100
AcDbVertex
100
AcDb2dVertex
 10
90.846903
 20
36.313106
 30
0.0
  0
VERTEX
  5
D5E6
100
AcDbEntity
  8
TRACK
100
AcDbVertex
100
AcDb2dVertex
 10
88.311327
 20
34.84919
 30
0.0
 42
0.57735
  0
VERTEX
  5
D5E7
100
AcDbEntity
  8
TRACK
100
AcDbVertex
100
AcDb2dVertex
 10
88.311327
 20
34.740937
 30
0.0
  0
VERTEX
  5
D5E8
100
AcDbEntity
  8
TRACK
100
AcDbVertex
100
AcDb2dVertex
 10
89.536591
 20
34.03353
 30
0.0
  0
VERTEX
  5
D5E9
100
AcDbEntity
  8
TRACK
100
AcDbVertex
100
AcDb2dVertex
 10
89.496638
 20
34.010463
 30
0.0
  0
VERTEX
  5
D5EA
100
AcDbEntity
  8
TRACK
100
AcDbVertex
100
AcDb2dVertex
 10
88.29135
 20
34.706337
 30
0.0
 42
-0.57735
  0
VERTEX
  5
D5EB
100
AcDbEntity
  8
TRACK
100
AcDbVertex
100
AcDb2dVertex
 10
88.29135
 20
34.88379
 30
0.0
  0
VERTEX
  5
D5EC
100
AcDbEntity
  8
TRACK
100
AcDbVertex
100
AcDb2dVertex
 10
90.80695
 20
36.336172
 30
0.0
 42
-0.267949
  0
SEQEND
  5
D5ED
100
AcDbEntity
  8
TRACK
  0
LINE
  5
D5EE
100
AcDbEntity
  8
TRACK
100
AcDbLine
 10
89.496638
 20
34.010463
 30
0.0
 11
89.496638
 21
30.260463
 31
0.0
  0
LINE
  5
D5EF
100
AcDbEntity
  8
TRACK
100
AcDbLine
 10
89.536591
 20
30.28353
 30
0.0
 11
89.536591
 21
34.03353
 31
0.0
  0
LINE
  5
D5F0
100
AcDbEntity
  8
TRACK
100
AcDbLine
 10
88.29135
 20
34.706337
 30
0.0
 11
88.29135
 21
30.956337
 31
0.0
  0
LINE
  5
D5F1
100
AcDbEntity
  8
STUD
100
AcDbLine
 10
101.965504
 20
43.209366
 30
0.0
 11
101.965504
 21
38.459366
 31
0.0
  0
LINE
  5
D5F2
100
AcDbEntity
  8
STUD
100
AcDbLine
 10
102.028004
 20
43.209366
 30
0.0
 11
102.028004
 21
38.459366
 31
0.0
  0
LINE
  5
D5F3
100
AcDbEntity
  8
STUD
100
AcDbLine
 10
88.436654
 20
32.201054
 30
0.0
 11
89.774745
 21
32.973601
 31
0.0
  0
LINE
  5
D5F4
100
AcDbEntity
  8
STUD
100
AcDbLine
 10
88.889193
 20
37.337327
 30
0.0
 11
88.436654
 21
37.076054
 31
0.0
  0
POLYLINE
  5
D5F5
100
AcDbEntity
  8
JOIST
100
AcDb2dPolyline
 66
     1
 10
0.0
 20
0.0
 30
0.0
 70
     1
  0
VERTEX
  5
D5F6
100
AcDbEntity
  8
JOIST
100
AcDbVertex
100
AcDb2dVertex
 10
110.593955
 20
35.15853
 30
0.0
  0
VERTEX
  5
D5F7
100
AcDbEntity
  8
JOIST
100
AcDbVertex
100
AcDb2dVertex
 10
110.593955
 20
34.632114
 30
0.0
 42
-0.267949
  0
VERTEX
  5
D5F8
100
AcDbEntity
  8
JOIST
100
AcDbVertex
100
AcDb2dVertex
 10
110.562705
 20
34.577988
 30
0.0
  0
VERTEX
  5
D5F9
100
AcDbEntity
  8
JOIST
100
AcDbVertex
100
AcDb2dVertex
 10
109.280414
 20
33.837657
 30
0.0
 42
-0.57735
  0
VERTEX
  5
D5FA
100
AcDbEntity
  8
JOIST
100
AcDbVertex
100
AcDb2dVertex
 10
109.186664
 20
33.891783
 30
0.0
  0
VERTEX
  5
D5FB
100
AcDbEntity
  8
JOIST
100
AcDbVertex
100
AcDb2dVertex
 10
109.186664
 20
39.747446
 30
0.0
 42
-0.267949
  0
VERTEX
  5
D5FC
100
AcDbEntity
  8
JOIST
100
AcDbVertex
100
AcDb2dVertex
 10
109.217914
 20
39.801572
 30
0.0
  0
VERTEX
  5
D5FD
100
AcDbEntity
  8
JOIST
100
AcDbVertex
100
AcDb2dVertex
 10
110.500205
 20
40.541903
 30
0.0
 42
-0.57735
  0
VERTEX
  5
D5FE
100
AcDbEntity
  8
JOIST
100
AcDbVertex
100
AcDb2dVertex
 10
110.593955
 20
40.487777
 30
0.0
  0
VERTEX
  5
D5FF
100
AcDbEntity
  8
JOIST
100
AcDbVertex
100
AcDb2dVertex
 10
110.593955
 20
40.03353
 30
0.0
  0
VERTEX
  5
D600
100
AcDbEntity
  8
JOIST
100
AcDbVertex
100
AcDb2dVertex
 10
110.559355
 20
40.013554
 30
0.0
  0
VERTEX
  5
D601
100
AcDbEntity
  8
JOIST
100
AcDbVertex
100
AcDb2dVertex
 10
110.559355
 20
40.487777
 30
0.0
 42
0.57735
  0
VERTEX
  5
D602
100
AcDbEntity
  8
JOIST
100
AcDbVertex
100
AcDb2dVertex
 10
110.517505
 20
40.511939
 30
0.0
  0
VERTEX
  5
D603
100
AcDbEntity
  8
JOIST
100
AcDbVertex
100
AcDb2dVertex
 10
109.235214
 20
39.771608
 30
0.0
 42
0.267949
  0
VERTEX
  5
D604
100
AcDbEntity
  8
JOIST
100
AcDbVertex
100
AcDb2dVertex
 10
109.221264
 20
39.747446
 30
0.0
  0
VERTEX
  5
D605
100
AcDbEntity
  8
JOIST
100
AcDbVertex
100
AcDb2dVertex
 10
109.221264
 20
33.891783
 30
0.0
 42
0.57735
  0
VERTEX
  5
D606
100
AcDbEntity
  8
JOIST
100
AcDbVertex
100
AcDb2dVertex
 10
109.263114
 20
33.867621
 30
0.0
  0
VERTEX
  5
D607
100
AcDbEntity
  8
JOIST
100
AcDbVertex
100
AcDb2dVertex
 10
110.545405
 20
34.607952
 30
0.0
 42
0.267949
  0
VERTEX
  5
D608
100
AcDbEntity
  8
JOIST
100
AcDbVertex
100
AcDb2dVertex
 10
110.559355
 20
34.632114
 30
0.0
  0
VERTEX
  5
D609
100
AcDbEntity
  8
JOIST
100
AcDbVertex
100
AcDb2dVertex
 10
110.559355
 20
35.138554
 30
0.0
  0
SEQEND
  5
D60A
100
AcDbEntity
  8
JOIST
  0
POLYLINE
  5
D60B
100
AcDbEntity
  8
JOIST
100
AcDb2dPolyline
 66
     1
 10
0.0
 20
0.0
 30
0.0
 70
     1
  0
VERTEX
  5
D60C
100
AcDbEntity
  8
JOIST
100
AcDbVertex
100
AcDb2dVertex
 10
96.737549
 20
27.15853
 30
0.0
  0
VERTEX
  5
D60D
100
AcDbEntity
  8
JOIST
100
AcDbVertex
100
AcDb2dVertex
 10
96.737549
 20
26.632114
 30
0.0
 42
-0.267949
  0
VERTEX
  5
D60E
100
AcDbEntity
  8
JOIST
100
AcDbVertex
100
AcDb2dVertex
 10
96.706299
 20
26.577988
 30
0.0
  0
VERTEX
  5
D60F
100
AcDbEntity
  8
JOIST
100
AcDbVertex
100
AcDb2dVertex
 10
95.424007
 20
25.837657
 30
0.0
 42
-0.57735
  0
VERTEX
  5
D610
100
AcDbEntity
  8
JOIST
100
AcDbVertex
100
AcDb2dVertex
 10
95.330257
 20
25.891783
 30
0.0
  0
VERTEX
  5
D611
100
AcDbEntity
  8
JOIST
100
AcDbVertex
100
AcDb2dVertex
 10
95.330257
 20
31.747446
 30
0.0
 42
-0.267949
  0
VERTEX
  5
D612
100
AcDbEntity
  8
JOIST
100
AcDbVertex
100
AcDb2dVertex
 10
95.361507
 20
31.801572
 30
0.0
  0
VERTEX
  5
D613
100
AcDbEntity
  8
JOIST
100
AcDbVertex
100
AcDb2dVertex
 10
96.643799
 20
32.541903
 30
0.0
 42
-0.57735
  0
VERTEX
  5
D614
100
AcDbEntity
  8
JOIST
100
AcDbVertex
100
AcDb2dVertex
 10
96.737549
 20
32.487777
 30
0.0
  0
VERTEX
  5
D615
100
AcDbEntity
  8
JOIST
100
AcDbVertex
100
AcDb2dVertex
 10
96.737549
 20
32.03353
 30
0.0
  0
VERTEX
  5
D616
100
AcDbEntity
  8
JOIST
100
AcDbVertex
100
AcDb2dVertex
 10
96.702949
 20
32.013554
 30
0.0
  0
VERTEX
  5
D617
100
AcDbEntity
  8
JOIST
100
AcDbVertex
100
AcDb2dVertex
 10
96.702949
 20
32.487777
 30
0.0
 42
0.57735
  0
VERTEX
  5
D618
100
AcDbEntity
  8
JOIST
100
AcDbVertex
100
AcDb2dVertex
 10
96.661099
 20
32.511939
 30
0.0
  0
VERTEX
  5
D619
100
AcDbEntity
  8
JOIST
100
AcDbVertex
100
AcDb2dVertex
 10
95.378807
 20
31.771608
 30
0.0
 42
0.267949
  0
VERTEX
  5
D61A
100
AcDbEntity
  8
JOIST
100
AcDbVertex
100
AcDb2dVertex
 10
95.364857
 20
31.747446
 30
0.0
  0
VERTEX
  5
D61B
100
AcDbEntity
  8
JOIST
100
AcDbVertex
100
AcDb2dVertex
 10
95.364857
 20
25.891783
 30
0.0
 42
0.57735
  0
VERTEX
  5
D61C
100
AcDbEntity
  8
JOIST
100
AcDbVertex
100
AcDb2dVertex
 10
95.406707
 20
25.867621
 30
0.0
  0
VERTEX
  5
D61D
100
AcDbEntity
  8
JOIST
100
AcDbVertex
100
AcDb2dVertex
 10
96.688999
 20
26.607952
 30
0.0
 42
0.267949
  0
VERTEX
  5
D61E
100
AcDbEntity
  8
JOIST
100
AcDbVertex
100
AcDb2dVertex
 10
96.702949
 20
26.632114
 30
0.0
  0
VERTEX
  5
D61F
100
AcDbEntity
  8
JOIST
100
AcDbVertex
100
AcDb2dVertex
 10
96.702949
 20
27.138554
 30
0.0
  0
SEQEND
  5
D620
100
AcDbEntity
  8
JOIST
  0
ELLIPSE
  5
D621
100
AcDbEntity
  8
JOIST
100
AcDbEllipse
 10
83.040659
 20
33.791616
 30
0.0
 11
0.153093108923944
 21
0.0000000000000025
 31
0.0
210
0.0
220
0.0
230
-1.0
 40
0.57735
 41
0.0000000000000286
 42
6.283185307179628
  0
LINE
  5
D622
100
AcDbEntity
  8
JOIST
100
AcDbLine
 10
82.932406
 20
33.854116
 30
0.0
 11
83.148912
 21
33.729116
 31
0.0
  0
LINE
  5
D623
100
AcDbEntity
  8
JOIST
100
AcDbLine
 10
83.148292
 20
33.855178
 30
0.0
 11
82.933026
 21
33.728054
 31
0.0
  0
ELLIPSE
  5
D624
100
AcDbEntity
  8
JOIST
100
AcDbEllipse
 10
82.384314
 20
38.507066
 30
0.0
 11
0.0765465544619697
 21
-0.132582521472475
 31
0.0
210
0.0
220
0.0
230
1.0
 40
0.57735
 41
0.0000000000000231
 42
6.283185307179623
  0
LINE
  5
D625
100
AcDbEntity
  8
JOIST
100
AcDbLine
 10
82.276061
 20
38.569566
 30
0.0
 11
82.492568
 21
38.444566
 31
0.0
  0
LINE
  5
D626
100
AcDbEntity
  8
JOIST
100
AcDbLine
 10
82.383085
 20
38.382072
 30
0.0
 11
82.385544
 21
38.63206
 31
0.0
  0
ELLIPSE
  5
D627
100
AcDbEntity
  8
JOIST
100
AcDbEllipse
 10
82.364638
 20
34.132163
 30
0.0
 11
0.0765465544619698
 21
-0.1325825214724749
 31
0.0
210
0.0
220
0.0
230
1.0
 40
0.57735
 41
0.0000000000000018
 42
6.283185307179602
  0
LINE
  5
D628
100
AcDbEntity
  8
JOIST
100
AcDbLine
 10
82.256385
 20
34.194663
 30
0.0
 11
82.472891
 21
34.069663
 31
0.0
  0
LINE
  5
D629
100
AcDbEntity
  8
JOIST
100
AcDbLine
 10
82.363408
 20
34.007169
 30
0.0
 11
82.365868
 21
34.257157
 31
0.0
  0
LINE
  5
D62A
100
AcDbEntity
  8
JOIST
100
AcDbLine
 10
95.70566
 20
26.605178
 30
0.0
 11
95.490394
 21
26.478054
 31
0.0
  0
LINE
  5
D62B
100
AcDbEntity
  8
JOIST
100
AcDbLine
 10
95.489774
 20
26.604116
 30
0.0
 11
95.70628
 21
26.479116
 31
0.0
  0
ELLIPSE
  5
D62C
100
AcDbEntity
  8
JOIST
100
AcDbEllipse
 10
95.598027
 20
26.541616
 30
0.0
 11
0.153093108923944
 21
0.0000000000000025
 31
0.0
210
0.0
220
0.0
230
-1.0
 40
0.57735
 41
0.0000000000000286
 42
6.283185307179628
  0
POLYLINE
  5
D62D
100
AcDbEntity
  8
JOIST
  6
HIDDEN2
100
AcDb2dPolyline
 66
     1
 10
0.0
 20
0.0
 30
0.0
 70
     1
  0
VERTEX
  5
D62E
100
AcDbEntity
  8
JOIST
  6
HIDDEN2
100
AcDbVertex
100
AcDb2dVertex
 10
88.453401
 20
31.895632
 30
0.0
 42
-0.267949
  0
VERTEX
  5
D62F
100
AcDbEntity
  8
JOIST
  6
HIDDEN2
100
AcDbVertex
100
AcDb2dVertex
 10
88.328401
 20
32.112138
 30
0.0
  0
VERTEX
  5
D630
100
AcDbEntity
  8
JOIST
  6
HIDDEN2
100
AcDbVertex
100
AcDb2dVertex
 10
88.328401
 20
33.034788
 30
0.0
 42
-0.57735
  0
VERTEX
  5
D631
100
AcDbEntity
  8
JOIST
  6
HIDDEN2
100
AcDbVertex
100
AcDb2dVertex
 10
88.703401
 20
33.251294
 30
0.0
  0
VERTEX
  5
D632
100
AcDbEntity
  8
JOIST
  6
HIDDEN2
100
AcDbVertex
100
AcDb2dVertex
 10
91.017983
 20
31.914969
 30
0.0
 42
-0.267949
  0
VERTEX
  5
D633
100
AcDbEntity
  8
JOIST
  6
HIDDEN2
100
AcDbVertex
100
AcDb2dVertex
 10
91.142983
 20
31.698463
 30
0.0
  0
VERTEX
  5
D634
100
AcDbEntity
  8
JOIST
  6
HIDDEN2
100
AcDbVertex
100
AcDb2dVertex
 10
91.142983
 20
30.775813
 30
0.0
 42
-0.57735
  0
VERTEX
  5
D635
100
AcDbEntity
  8
JOIST
  6
HIDDEN2
100
AcDbVertex
100
AcDb2dVertex
 10
90.767983
 20
30.559307
 30
0.0
  0
SEQEND
  5
D636
100
AcDbEntity
  8
JOIST
  0
LINE
  5
D637
100
AcDbEntity
  8
JOIST
100
AcDbLine
 10
96.737549
 20
27.15853
 30
0.0
 11
95.364857
 21
27.951054
 31
0.0
  0
LINE
  5
D638
100
AcDbEntity
  8
JOIST
  6
HIDDEN2
100
AcDbLine
 10
82.000614
 20
33.587657
 30
0.0
 11
95.424007
 21
25.837657
 31
0.0
  0
POLYLINE
  5
D639
100
AcDbEntity
  8
JOIST
100
AcDb2dPolyline
 66
     1
 10
0.0
 20
0.0
 30
0.0
 70
     1
  0
VERTEX
  5
D63A
100
AcDbEntity
  8
JOIST
100
AcDbVertex
100
AcDb2dVertex
 10
83.314155
 20
34.90853
 30
0.0
  0
VERTEX
  5
D63B
100
AcDbEntity
  8
JOIST
100
AcDbVertex
100
AcDb2dVertex
 10
83.314155
 20
34.382114
 30
0.0
 42
-0.267949
  0
VERTEX
  5
D63C
100
AcDbEntity
  8
JOIST
100
AcDbVertex
100
AcDb2dVertex
 10
83.282905
 20
34.327988
 30
0.0
  0
VERTEX
  5
D63D
100
AcDbEntity
  8
JOIST
100
AcDbVertex
100
AcDb2dVertex
 10
82.000614
 20
33.587657
 30
0.0
 42
-0.57735
  0
VERTEX
  5
D63E
100
AcDbEntity
  8
JOIST
100
AcDbVertex
100
AcDb2dVertex
 10
81.906864
 20
33.641783
 30
0.0
  0
VERTEX
  5
D63F
100
AcDbEntity
  8
JOIST
100
AcDbVertex
100
AcDb2dVertex
 10
81.906864
 20
39.497446
 30
0.0
 42
-0.267949
  0
VERTEX
  5
D640
100
AcDbEntity
  8
JOIST
100
AcDbVertex
100
AcDb2dVertex
 10
81.938114
 20
39.551572
 30
0.0
  0
VERTEX
  5
D641
100
AcDbEntity
  8
JOIST
100
AcDbVertex
100
AcDb2dVertex
 10
83.220405
 20
40.291903
 30
0.0
 42
-0.57735
  0
VERTEX
  5
D642
100
AcDbEntity
  8
JOIST
100
AcDbVertex
100
AcDb2dVertex
 10
83.314155
 20
40.237777
 30
0.0
  0
VERTEX
  5
D643
100
AcDbEntity
  8
JOIST
100
AcDbVertex
100
AcDb2dVertex
 10
83.314155
 20
39.78353
 30
0.0
  0
VERTEX
  5
D644
100
AcDbEntity
  8
JOIST
100
AcDbVertex
100
AcDb2dVertex
 10
83.279555
 20
39.763554
 30
0.0
  0
VERTEX
  5
D645
100
AcDbEntity
  8
JOIST
100
AcDbVertex
100
AcDb2dVertex
 10
83.279555
 20
40.237777
 30
0.0
 42
0.57735
  0
VERTEX
  5
D646
100
AcDbEntity
  8
JOIST
100
AcDbVertex
100
AcDb2dVertex
 10
83.237705
 20
40.261939
 30
0.0
  0
VERTEX
  5
D647
100
AcDbEntity
  8
JOIST
100
AcDbVertex
100
AcDb2dVertex
 10
81.955414
 20
39.521608
 30
0.0
 42
0.267949
  0
VERTEX
  5
D648
100
AcDbEntity
  8
JOIST
100
AcDbVertex
100
AcDb2dVertex
 10
81.941464
 20
39.497446
 30
0.0
  0
VERTEX
  5
D649
100
AcDbEntity
  8
JOIST
100
AcDbVertex
100
AcDb2dVertex
 10
81.941464
 20
33.641783
 30
0.0
 42
0.57735
  0
VERTEX
  5
D64A
100
AcDbEntity
  8
JOIST
100
AcDbVertex
100
AcDb2dVertex
 10
81.983314
 20
33.617621
 30
0.0
  0
VERTEX
  5
D64B
100
AcDbEntity
  8
JOIST
100
AcDbVertex
100
AcDb2dVertex
 10
83.265605
 20
34.357952
 30
0.0
 42
0.267949
  0
VERTEX
  5
D64C
100
AcDbEntity
  8
JOIST
100
AcDbVertex
100
AcDb2dVertex
 10
83.279555
 20
34.382114
 30
0.0
  0
VERTEX
  5
D64D
100
AcDbEntity
  8
JOIST
100
AcDbVertex
100
AcDb2dVertex
 10
83.279555
 20
34.888554
 30
0.0
  0
SEQEND
  5
D64E
100
AcDbEntity
  8
JOIST
  0
LINE
  5
D64F
100
AcDbEntity
  8
JOIST
  6
HIDDEN2
100
AcDbLine
 10
81.906864
 20
39.497446
 30
0.0
 11
95.330257
 21
31.747446
 31
0.0
  0
LINE
  5
D650
100
AcDbEntity
  8
JOIST
  6
HIDDEN2
100
AcDbLine
 10
96.737549
 20
32.487777
 30
0.0
 11
83.314155
 21
40.237777
 31
0.0
  0
LINE
  5
D651
100
AcDbEntity
  8
JOIST
  6
HIDDEN2
100
AcDbLine
 10
81.938114
 20
39.551572
 30
0.0
 11
95.361507
 21
31.801572
 31
0.0
  0
POLYLINE
  5
D655
100
AcDbEntity
  8
JOIST
100
AcDb2dPolyline
 66
     1
 10
0.0
 20
0.0
 30
0.0
  0
VERTEX
  5
D656
100
AcDbEntity
  8
JOIST
100
AcDbVertex
100
AcDb2dVertex
 10
96.643799
 20
32.541903
 30
0.0
 42
-0.57735
  0
VERTEX
  5
D657
100
AcDbEntity
  8
JOIST
100
AcDbVertex
100
AcDb2dVertex
 10
96.737549
 20
32.487777
 30
0.0
  0
VERTEX
  5
D658
100
AcDbEntity
  8
JOIST
100
AcDbVertex
100
AcDb2dVertex
 10
96.737549
 20
32.03353
 30
0.0
  0
VERTEX
  5
D659
100
AcDbEntity
  8
JOIST
100
AcDbVertex
100
AcDb2dVertex
 10
96.702949
 20
32.013554
 30
0.0
  0
SEQEND
  5
D65A
100
AcDbEntity
  8
JOIST
  0
POLYLINE
  5
D65B
100
AcDbEntity
  8
JOIST
100
AcDb2dPolyline
 66
     1
 10
0.0
 20
0.0
 30
0.0
  0
VERTEX
  5
D65C
100
AcDbEntity
  8
JOIST
100
AcDbVertex
100
AcDb2dVertex
 10
110.500205
 20
40.541903
 30
0.0
 42
-0.57735
  0
VERTEX
  5
D65D
100
AcDbEntity
  8
JOIST
100
AcDbVertex
100
AcDb2dVertex
 10
110.593955
 20
40.487777
 30
0.0
  0
VERTEX
  5
D65E
100
AcDbEntity
  8
JOIST
100
AcDbVertex
100
AcDb2dVertex
 10
110.593955
 20
40.03353
 30
0.0
  0
VERTEX
  5
D65F
100
AcDbEntity
  8
JOIST
100
AcDbVertex
100
AcDb2dVertex
 10
110.559355
 20
40.013554
 30
0.0
  0
SEQEND
  5
D660
100
AcDbEntity
  8
JOIST
  0
LINE
  5
D664
100
AcDbEntity
  8
JOIST
100
AcDbLine
 10
95.79452
 20
47.551572
 30
0.0
 11
109.217914
 21
39.801572
 31
0.0
  0
LINE
  5
D665
100
AcDbEntity
  8
JOIST
100
AcDbLine
 10
110.500205
 20
40.541903
 30
0.0
 11
97.170561
 21
48.237777
 31
0.0
  0
LINE
  5
D666
100
AcDbEntity
  8
JOIST
100
AcDbLine
 10
95.76327
 20
47.497446
 30
0.0
 11
109.186664
 21
39.747446
 31
0.0
  0
LINE
  5
D667
100
AcDbEntity
  8
JOIST
100
AcDbLine
 10
109.221264
 20
35.404662
 30
0.0
 11
110.559355
 21
34.632114
 31
0.0
  0
POLYLINE
  5
D668
100
AcDbEntity
  8
JOIST
100
AcDb2dPolyline
 66
     1
 10
0.0
 20
0.0
 30
0.0
 70
     1
  0
VERTEX
  5
D669
100
AcDbEntity
  8
JOIST
100
AcDbVertex
100
AcDb2dVertex
 10
97.170561
 20
42.90853
 30
0.0
  0
VERTEX
  5
D66A
100
AcDbEntity
  8
JOIST
100
AcDbVertex
100
AcDb2dVertex
 10
97.170561
 20
42.382114
 30
0.0
 42
-0.267949
  0
VERTEX
  5
D66B
100
AcDbEntity
  8
JOIST
100
AcDbVertex
100
AcDb2dVertex
 10
97.139311
 20
42.327988
 30
0.0
  0
VERTEX
  5
D66C
100
AcDbEntity
  8
JOIST
100
AcDbVertex
100
AcDb2dVertex
 10
95.85702
 20
41.587657
 30
0.0
 42
-0.57735
  0
VERTEX
  5
D66D
100
AcDbEntity
  8
JOIST
100
AcDbVertex
100
AcDb2dVertex
 10
95.76327
 20
41.641783
 30
0.0
  0
VERTEX
  5
D66E
100
AcDbEntity
  8
JOIST
100
AcDbVertex
100
AcDb2dVertex
 10
95.76327
 20
47.497446
 30
0.0
 42
-0.267949
  0
VERTEX
  5
D66F
100
AcDbEntity
  8
JOIST
100
AcDbVertex
100
AcDb2dVertex
 10
95.79452
 20
47.551572
 30
0.0
  0
VERTEX
  5
D670
100
AcDbEntity
  8
JOIST
100
AcDbVertex
100
AcDb2dVertex
 10
97.076811
 20
48.291903
 30
0.0
 42
-0.57735
  0
VERTEX
  5
D671
100
AcDbEntity
  8
JOIST
100
AcDbVertex
100
AcDb2dVertex
 10
97.170561
 20
48.237777
 30
0.0
  0
VERTEX
  5
D672
100
AcDbEntity
  8
JOIST
100
AcDbVertex
100
AcDb2dVertex
 10
97.170561
 20
47.78353
 30
0.0
  0
VERTEX
  5
D673
100
AcDbEntity
  8
JOIST
100
AcDbVertex
100
AcDb2dVertex
 10
97.135961
 20
47.763554
 30
0.0
  0
VERTEX
  5
D674
100
AcDbEntity
  8
JOIST
100
AcDbVertex
100
AcDb2dVertex
 10
97.135961
 20
48.237777
 30
0.0
 42
0.57735
  0
VERTEX
  5
D675
100
AcDbEntity
  8
JOIST
100
AcDbVertex
100
AcDb2dVertex
 10
97.094111
 20
48.261939
 30
0.0
  0
VERTEX
  5
D676
100
AcDbEntity
  8
JOIST
100
AcDbVertex
100
AcDb2dVertex
 10
95.81182
 20
47.521608
 30
0.0
 42
0.267949
  0
VERTEX
  5
D677
100
AcDbEntity
  8
JOIST
100
AcDbVertex
100
AcDb2dVertex
 10
95.79787
 20
47.497446
 30
0.0
  0
VERTEX
  5
D678
100
AcDbEntity
  8
JOIST
100
AcDbVertex
100
AcDb2dVertex
 10
95.79787
 20
41.641783
 30
0.0
 42
0.57735
  0
VERTEX
  5
D679
100
AcDbEntity
  8
JOIST
100
AcDbVertex
100
AcDb2dVertex
 10
95.83972
 20
41.617621
 30
0.0
  0
VERTEX
  5
D67A
100
AcDbEntity
  8
JOIST
100
AcDbVertex
100
AcDb2dVertex
 10
97.122011
 20
42.357952
 30
0.0
 42
0.267949
  0
VERTEX
  5
D67B
100
AcDbEntity
  8
JOIST
100
AcDbVertex
100
AcDb2dVertex
 10
97.135961
 20
42.382114
 30
0.0
  0
VERTEX
  5
D67C
100
AcDbEntity
  8
JOIST
100
AcDbVertex
100
AcDb2dVertex
 10
97.135961
 20
42.888554
 30
0.0
  0
SEQEND
  5
D67D
100
AcDbEntity
  8
JOIST
  0
LINE
  5
D67E
100
AcDbEntity
  8
JOIST
  6
HIDDEN2
100
AcDbLine
 10
95.85702
 20
41.587657
 30
0.0
 11
101.828323
 21
38.140123
 31
0.0
  0
LINE
  5
D67F
100
AcDbEntity
  8
JOIST
100
AcDbLine
 10
110.593955
 20
35.15853
 30
0.0
 11
109.221264
 21
35.951054
 31
0.0
  0
LINE
  5
D680
100
AcDbEntity
  8
JOIST
100
AcDbLine
 10
109.221264
 20
35.372446
 30
0.0
 11
110.545405
 21
34.607952
 31
0.0
  0
LINE
  5
D681
100
AcDbEntity
  8
JOIST
100
AcDbLine
 10
110.106816
 20
40.274827
 30
0.0
 11
110.559355
 21
40.013554
 31
0.0
  0
ELLIPSE
  5
D68C
100
AcDbEntity
  8
JOIST
100
AcDbEllipse
 10
109.454434
 20
34.541616
 30
0.0
 11
0.153093108923944
 21
0.0000000000000025
 31
0.0
210
0.0
220
0.0
230
-1.0
 40
0.57735
 41
0.0000000000000286
 42
6.283185307179628
  0
LINE
  5
D68D
100
AcDbEntity
  8
JOIST
100
AcDbLine
 10
109.346181
 20
34.604116
 30
0.0
 11
109.562687
 21
34.479116
 31
0.0
  0
LINE
  5
D68E
100
AcDbEntity
  8
JOIST
100
AcDbLine
 10
109.562067
 20
34.605178
 30
0.0
 11
109.346801
 21
34.478054
 31
0.0
  0
LINE
  5
D68F
100
AcDbEntity
  8
JOIST
100
AcDbLine
 10
96.219815
 20
42.007169
 30
0.0
 11
96.222274
 21
42.257157
 31
0.0
  0
LINE
  5
D690
100
AcDbEntity
  8
JOIST
100
AcDbLine
 10
96.112791
 20
42.194663
 30
0.0
 11
96.329298
 21
42.069663
 31
0.0
  0
ELLIPSE
  5
D691
100
AcDbEntity
  8
JOIST
100
AcDbEllipse
 10
96.221045
 20
42.132163
 30
0.0
 11
0.0765465544619698
 21
-0.1325825214724749
 31
0.0
210
0.0
220
0.0
230
1.0
 40
0.57735
 41
0.0000000000000219
 42
6.283185307179622
  0
LINE
  5
D692
100
AcDbEntity
  8
JOIST
100
AcDbLine
 10
96.239491
 20
46.382072
 30
0.0
 11
96.241951
 21
46.63206
 31
0.0
  0
LINE
  5
D693
100
AcDbEntity
  8
JOIST
100
AcDbLine
 10
96.132468
 20
46.569566
 30
0.0
 11
96.348974
 21
46.444566
 31
0.0
  0
ELLIPSE
  5
D694
100
AcDbEntity
  8
JOIST
100
AcDbEllipse
 10
96.240721
 20
46.507066
 30
0.0
 11
0.0765465544619697
 21
-0.132582521472475
 31
0.0
210
0.0
220
0.0
230
1.0
 40
0.57735
 41
0.0000000000000231
 42
6.283185307179623
  0
LINE
  5
D695
100
AcDbEntity
  8
JOIST
100
AcDbLine
 10
97.004698
 20
41.855178
 30
0.0
 11
96.789432
 21
41.728054
 31
0.0
  0
LINE
  5
D696
100
AcDbEntity
  8
JOIST
100
AcDbLine
 10
96.788812
 20
41.854116
 30
0.0
 11
97.005319
 21
41.729116
 31
0.0
  0
ELLIPSE
  5
D697
100
AcDbEntity
  8
JOIST
100
AcDbEllipse
 10
96.897065
 20
41.791616
 30
0.0
 11
0.153093108923944
 21
0.0000000000000025
 31
0.0
210
0.0
220
0.0
230
-1.0
 40
0.57735
 41
0.0000000000000286
 42
6.283185307179628
  0
POLYLINE
  5
D698
100
AcDbEntity
  8
STUD
100
AcDb2dPolyline
 66
     1
 10
0.0
 20
0.0
 30
0.0
 70
     1
  0
VERTEX
  5
D699
100
AcDbEntity
  8
STUD
100
AcDbVertex
100
AcDb2dVertex
 10
95.495417
 20
36.270632
 30
0.0
 42
0.267949
  0
VERTEX
  5
D69A
100
AcDbEntity
  8
STUD
100
AcDbVertex
100
AcDb2dVertex
 10
95.620417
 20
36.487138
 30
0.0
  0
VERTEX
  5
D69B
100
AcDbEntity
  8
STUD
100
AcDbVertex
100
AcDb2dVertex
 10
95.620417
 20
37.409788
 30
0.0
 42
0.57735
  0
VERTEX
  5
D69C
100
AcDbEntity
  8
STUD
100
AcDbVertex
100
AcDb2dVertex
 10
95.245417
 20
37.626294
 30
0.0
  0
VERTEX
  5
D69D
100
AcDbEntity
  8
STUD
100
AcDbVertex
100
AcDb2dVertex
 10
92.930834
 20
36.289969
 30
0.0
 42
0.267949
  0
VERTEX
  5
D69E
100
AcDbEntity
  8
STUD
100
AcDbVertex
100
AcDb2dVertex
 10
92.805834
 20
36.073463
 30
0.0
  0
VERTEX
  5
D69F
100
AcDbEntity
  8
STUD
100
AcDbVertex
100
AcDb2dVertex
 10
92.805834
 20
35.150813
 30
0.0
 42
0.57735
  0
VERTEX
  5
D6A0
100
AcDbEntity
  8
STUD
100
AcDbVertex
100
AcDb2dVertex
 10
93.180834
 20
34.934307
 30
0.0
  0
SEQEND
  5
D6A1
100
AcDbEntity
  8
STUD
  0
LINE
  5
D6A5
100
AcDbEntity
  8
STUD
100
AcDbLine
 10
88.402054
 20
37.09603
 30
0.0
 11
88.854593
 21
37.357304
 31
0.0
  0
LINE
  5
D6A6
100
AcDbEntity
  8
STUD
100
AcDbLine
 10
88.402054
 20
32.22103
 30
0.0
 11
89.774745
 21
33.013554
 31
0.0
  0
LINE
  5
D6A7
100
AcDbEntity
  8
STUD
100
AcDbLine
 10
101.731698
 20
37.837657
 30
0.0
 11
89.715595
 21
30.900157
 31
0.0
  0
POLYLINE
  5
D6A8
100
AcDbEntity
  8
STUD
100
AcDb2dPolyline
 66
     1
 10
0.0
 20
0.0
 30
0.0
 70
     1
  0
VERTEX
  5
D6A9
100
AcDbEntity
  8
STUD
100
AcDbVertex
100
AcDb2dVertex
 10
88.402054
 20
32.22103
 30
0.0
  0
VERTEX
  5
D6AA
100
AcDbEntity
  8
STUD
100
AcDbVertex
100
AcDb2dVertex
 10
88.402054
 20
31.694614
 30
0.0
 42
0.267949
  0
VERTEX
  5
D6AB
100
AcDbEntity
  8
STUD
100
AcDbVertex
100
AcDb2dVertex
 10
88.433304
 20
31.640488
 30
0.0
  0
VERTEX
  5
D6AC
100
AcDbEntity
  8
STUD
100
AcDbVertex
100
AcDb2dVertex
 10
89.715595
 20
30.900157
 30
0.0
 42
0.57735
  0
VERTEX
  5
D6AD
100
AcDbEntity
  8
STUD
100
AcDbVertex
100
AcDb2dVertex
 10
89.809345
 20
30.954283
 30
0.0
  0
VERTEX
  5
D6AE
100
AcDbEntity
  8
STUD
100
AcDbVertex
100
AcDb2dVertex
 10
89.809345
 20
36.809946
 30
0.0
 42
0.267949
  0
VERTEX
  5
D6AF
100
AcDbEntity
  8
STUD
100
AcDbVertex
100
AcDb2dVertex
 10
89.778095
 20
36.864072
 30
0.0
  0
VERTEX
  5
D6B0
100
AcDbEntity
  8
STUD
100
AcDbVertex
100
AcDb2dVertex
 10
88.495804
 20
37.604403
 30
0.0
 42
0.57735
  0
VERTEX
  5
D6B1
100
AcDbEntity
  8
STUD
100
AcDbVertex
100
AcDb2dVertex
 10
88.402054
 20
37.550277
 30
0.0
  0
VERTEX
  5
D6B2
100
AcDbEntity
  8
STUD
100
AcDbVertex
100
AcDb2dVertex
 10
88.402054
 20
37.09603
 30
0.0
  0
VERTEX
  5
D6B3
100
AcDbEntity
  8
STUD
100
AcDbVertex
100
AcDb2dVertex
 10
88.436654
 20
37.076054
 30
0.0
  0
VERTEX
  5
D6B4
100
AcDbEntity
  8
STUD
100
AcDbVertex
100
AcDb2dVertex
 10
88.436654
 20
37.550277
 30
0.0
 42
-0.57735
  0
VERTEX
  5
D6B5
100
AcDbEntity
  8
STUD
100
AcDbVertex
100
AcDb2dVertex
 10
88.478504
 20
37.574439
 30
0.0
  0
VERTEX
  5
D6B6
100
AcDbEntity
  8
STUD
100
AcDbVertex
100
AcDb2dVertex
 10
89.760795
 20
36.834108
 30
0.0
 42
-0.267949
  0
VERTEX
  5
D6B7
100
AcDbEntity
  8
STUD
100
AcDbVertex
100
AcDb2dVertex
 10
89.774745
 20
36.809946
 30
0.0
  0
VERTEX
  5
D6B8
100
AcDbEntity
  8
STUD
100
AcDbVertex
100
AcDb2dVertex
 10
89.774745
 20
30.954283
 30
0.0
 42
-0.57735
  0
VERTEX
  5
D6B9
100
AcDbEntity
  8
STUD
100
AcDbVertex
100
AcDb2dVertex
 10
89.732895
 20
30.930121
 30
0.0
  0
VERTEX
  5
D6BA
100
AcDbEntity
  8
STUD
100
AcDbVertex
100
AcDb2dVertex
 10
88.450604
 20
31.670452
 30
0.0
 42
-0.267949
  0
VERTEX
  5
D6BB
100
AcDbEntity
  8
STUD
100
AcDbVertex
100
AcDb2dVertex
 10
88.436654
 20
31.694614
 30
0.0
  0
VERTEX
  5
D6BC
100
AcDbEntity
  8
STUD
100
AcDbVertex
100
AcDb2dVertex
 10
88.436654
 20
32.201054
 30
0.0
  0
SEQEND
  5
D6BD
100
AcDbEntity
  8
STUD
  0
LINE
  5
D6BE
100
AcDbEntity
  8
STUD
100
AcDbLine
 10
101.825448
 20
43.747446
 30
0.0
 11
89.809345
 21
36.809946
 31
0.0
  0
LINE
  5
D6BF
100
AcDbEntity
  8
STUD
100
AcDbLine
 10
88.402054
 20
37.550277
 30
0.0
 11
100.511907
 21
44.541903
 31
0.0
  0
LINE
  5
D6C0
100
AcDbEntity
  8
STUD
100
AcDbLine
 10
101.794198
 20
43.801572
 30
0.0
 11
89.778095
 21
36.864072
 31
0.0
  0
POLYLINE
  5
D6C1
100
AcDbEntity
  8
STUD
100
AcDb2dPolyline
 66
     1
 10
0.0
 20
0.0
 30
0.0
  0
VERTEX
  5
D6C2
100
AcDbEntity
  8
STUD
100
AcDbVertex
100
AcDb2dVertex
 10
88.495804
 20
37.604403
 30
0.0
 42
0.57735
  0
VERTEX
  5
D6C3
100
AcDbEntity
  8
STUD
100
AcDbVertex
100
AcDb2dVertex
 10
88.402054
 20
37.550277
 30
0.0
  0
VERTEX
  5
D6C4
100
AcDbEntity
  8
STUD
100
AcDbVertex
100
AcDb2dVertex
 10
88.402054
 20
37.09603
 30
0.0
  0
VERTEX
  5
D6C5
100
AcDbEntity
  8
STUD
100
AcDbVertex
100
AcDb2dVertex
 10
88.436654
 20
37.076054
 30
0.0
  0
SEQEND
  5
D6C6
100
AcDbEntity
  8
STUD
  0
LINE
  5
D6C7
100
AcDbEntity
  8
TRACK
100
AcDbLine
 10
90.80695
 20
36.336172
 30
0.0
 11
90.846903
 21
36.313106
 31
0.0
  0
LINE
  5
D6C8
100
AcDbEntity
  8
TRACK
100
AcDbLine
 10
90.80695
 20
32.586172
 30
0.0
 11
90.846903
 21
32.563106
 31
0.0
  0
LINE
  5
D6C9
100
AcDbEntity
  8
FASTENER
100
AcDbLine
 10
88.761365
 20
31.527069
 30
0.0
 11
88.97909
 21
31.404205
 31
0.0
  0
LINE
  5
D6CA
100
AcDbEntity
  8
FASTENER
100
AcDbLine
 10
88.870228
 20
31.340637
 30
0.0
 11
88.870228
 21
31.590637
 31
0.0
  0
ELLIPSE
  5
D6CB
100
AcDbEntity
  8
FASTENER
100
AcDbEllipse
 10
88.870228
 20
31.465637
 30
0.0
 11
-0.0765465544619741
 21
0.1325825214724724
 31
0.0
210
0.0
220
0.0
230
-1.0
 40
0.57735
 41
0.0000000000000351
 42
6.283185307179635
  0
LINE
  5
D6CC
100
AcDbEntity
  8
FASTENER
100
AcDbLine
 10
88.761365
 20
34.027069
 30
0.0
 11
88.97909
 21
33.904205
 31
0.0
  0
LINE
  5
D6CD
100
AcDbEntity
  8
FASTENER
100
AcDbLine
 10
88.870228
 20
33.840637
 30
0.0
 11
88.870228
 21
34.090637
 31
0.0
  0
ELLIPSE
  5
D6CE
100
AcDbEntity
  8
FASTENER
100
AcDbEllipse
 10
88.870228
 20
33.965637
 30
0.0
 11
-0.0765465544619741
 21
0.1325825214724725
 31
0.0
210
0.0
220
0.0
230
-1.0
 40
0.57735
 41
0.0000000000000337
 42
6.283185307179634
  0
LINE
  5
D6CF
100
AcDbEntity
  8
FASTENER
100
AcDbLine
 10
102.606881
 20
39.25494
 30
0.0
 11
102.606881
 21
39.50494
 31
0.0
  0
ELLIPSE
  5
D6D0
100
AcDbEntity
  8
FASTENER
100
AcDbEllipse
 10
102.606881
 20
39.37994
 30
0.0
 11
-0.0765465544619741
 21
0.1325825214724724
 31
0.0
210
0.0
220
0.0
230
-1.0
 40
0.57735
 41
0.0000000000000351
 42
6.283185307179635
  0
LINE
  5
D6D1
100
AcDbEntity
  8
FASTENER
100
AcDbLine
 10
102.498019
 20
41.941372
 30
0.0
 11
102.715744
 21
41.818508
 31
0.0
  0
LINE
  5
D6D2
100
AcDbEntity
  8
FASTENER
100
AcDbLine
 10
102.606881
 20
41.75494
 30
0.0
 11
102.606881
 21
42.00494
 31
0.0
  0
ELLIPSE
  5
D6D3
100
AcDbEntity
  8
FASTENER
100
AcDbEllipse
 10
102.606881
 20
41.87994
 30
0.0
 11
-0.0765465544619741
 21
0.1325825214724725
 31
0.0
210
0.0
220
0.0
230
-1.0
 40
0.57735
 41
0.0000000000000337
 42
6.283185307179634
  0
ELLIPSE
  5
D6D4
100
AcDbEntity
  8
FASTENER
100
AcDbEllipse
 10
90.31761
 20
32.808831
 30
0.0
 11
0.0765465544619745
 21
0.1325825214724722
 31
0.0
210
0.0
220
0.0
230
1.0
 40
0.57735
 41
0.000000000000039
 42
6.283185307179639
  0
LINE
  5
D6D5
100
AcDbEntity
  8
FASTENER
100
AcDbLine
 10
90.31761
 20
32.683831
 30
0.0
 11
90.31761
 21
32.933831
 31
0.0
  0
LINE
  5
D6D6
100
AcDbEntity
  8
FASTENER
100
AcDbLine
 10
90.426473
 20
32.870263
 30
0.0
 11
90.208747
 21
32.747399
 31
0.0
  0
LINE
  5
D6D7
100
AcDbEntity
  8
FASTENER
100
AcDbLine
 10
90.426473
 20
35.620263
 30
0.0
 11
90.208747
 21
35.497399
 31
0.0
  0
LINE
  5
D6D8
100
AcDbEntity
  8
FASTENER
100
AcDbLine
 10
90.31761
 20
35.433831
 30
0.0
 11
90.31761
 21
35.683831
 31
0.0
  0
ELLIPSE
  5
D6D9
100
AcDbEntity
  8
FASTENER
100
AcDbEllipse
 10
90.31761
 20
35.558831
 30
0.0
 11
0.0765465544619745
 21
0.1325825214724722
 31
0.0
210
0.0
220
0.0
230
1.0
 40
0.57735
 41
0.000000000000039
 42
6.283185307179639
  0
TEXT
  5
D6DA
100
AcDbEntity
  8
TEXT
100
AcDbText
 10
94.988219
 20
21.897548
 30
0.0
 40
2.0
  1
Alt. blocking
 50
30.0
 51
30.0
  7
RIGHT
 11
95.470977
 21
21.061385
 31
0.0
100
AcDbText
 73
     1
  0
TEXT
  5
D6DB
100
AcDbEntity
  8
TEXT
100
AcDbText
 10
95.639654
 20
18.388711
 30
0.0
 40
2.0
  1
Bent web
 50
30.0
 51
30.0
  7
RIGHT
 11
96.122412
 21
17.552549
 31
0.0
100
AcDbText
 73
     1
  0
TEXT
  5
D6DD
100
AcDbEntity
  8
TEXT
100
AcDbText
 10
116.88301
 20
46.470708
 30
0.0
 40
2.0
  1
clips
 50
30.0
 51
30.0
  7
RIGHT
 11
117.365768
 21
45.634545
 31
0.0
100
AcDbText
 73
     1
  0
LINE
  5
D6E9
100
AcDbEntity
  8
STEEL
100
AcDbLine
 10
79.105008
 20
88.450786
 30
0.0
 11
26.448954
 21
58.049799
 31
0.0
  0
LINE
  5
D6EA
100
AcDbEntity
  8
STEEL
100
AcDbLine
 10
79.971033
 20
87.950786
 30
0.0
 11
27.31498
 21
57.549799
 31
0.0
  0
LINE
  5
D6EB
100
AcDbEntity
  8
STEEL
100
AcDbLine
 10
79.105008
 20
88.450786
 30
0.0
 11
79.971033
 21
87.950786
 31
0.0
  0
LINE
  5
D6F5
100
AcDbEntity
  8
STEEL
100
AcDbLine
 10
26.448954
 20
58.049799
 30
0.0
 11
27.31498
 21
57.549799
 31
0.0
  0
LINE
  5
D6F7
100
AcDbEntity
  8
STEEL
100
AcDbLine
 10
66.018736
 20
74.967592
 30
0.0
 11
58.578274
 21
70.671839
 31
0.0
  0
LINE
  5
D6F8
100
AcDbEntity
  8
STEEL
100
AcDbLine
 10
66.88536
 20
74.467247
 30
0.0
 11
59.447806
 21
70.169815
 31
0.0
  0
LINE
  5
DB54
100
AcDbEntity
  8
STUD
100
AcDbLine
 10
21.046946
 20
53.690617
 30
0.0
 11
25.275919
 21
56.132216
 31
0.0
  0
LINE
  5
DB55
100
AcDbEntity
  8
STUD
100
AcDbLine
 10
14.328913
 20
49.213374
 30
0.0
 11
13.46795
 21
48.716297
 31
0.0
  0
LINE
  5
DB56
100
AcDbEntity
  8
STUD
100
AcDbLine
 10
19.764676
 20
54.43096
 30
0.0
 11
23.993628
 21
56.872547
 31
0.0
  0
LINE
  5
DB57
100
AcDbEntity
  8
STUD
100
AcDbLine
 10
21.109445
 20
53.654532
 30
0.0
 11
25.307169
 21
56.078089
 31
0.0
  0
LINE
  5
DB5D
100
AcDbEntity
  8
TRACK
100
AcDbLine
 10
14.511211
 20
52.208289
 30
0.0
 11
10.966752
 21
50.160364
 31
0.0
  0
LINE
  5
DB5E
100
AcDbEntity
  8
TRACK
100
AcDbLine
 10
14.476611
 20
52.228266
 30
0.0
 11
10.932152
 21
50.18034
 31
0.0
  0
LINE
  5
DCD7
100
AcDbEntity
  8
STUD
100
AcDbLine
 10
18.688046
 20
46.895074
 30
0.0
 11
21.200896
 21
48.345868
 31
0.0
  0
LINE
  5
DCD9
100
AcDbEntity
  8
STUD
100
AcDbLine
 10
18.688046
 20
47.933729
 30
0.0
 11
20.301409
 21
48.865205
 31
0.0
  0
LINE
  5
DCDB
100
AcDbEntity
  8
STUD
100
AcDbLine
 10
18.688046
 20
47.901513
 30
0.0
 11
20.329308
 21
48.849096
 31
0.0
  0
LINE
  5
DCE0
100
AcDbEntity
  8
TRACK
100
AcDbLine
 10
14.328913
 20
40.779135
 30
0.0
 11
4.83164
 21
46.262388
 31
0.0
  0
LINE
  5
DCE3
100
AcDbEntity
  8
JOIST
100
AcDbLine
 10
14.328913
 20
42.311365
 30
0.0
 11
10.712967
 21
44.399032
 31
0.0
  0
LINE
  5
DCE5
100
AcDbEntity
  8
JOIST
100
AcDbLine
 10
14.328913
 20
42.343581
 30
0.0
 11
10.740867
 21
44.41514
 31
0.0
  0
LINE
  5
DCE6
100
AcDbEntity
  8
JOIST
100
AcDbLine
 10
14.328913
 20
46.666388
 30
0.0
 11
4.83164
 21
52.149642
 31
0.0
  0
LINE
  5
DCE7
100
AcDbEntity
  8
JOIST
100
AcDbLine
 10
14.328913
 20
48.21922
 30
0.0
 11
4.83164
 21
53.702473
 31
0.0
  0
LINE
  5
DCE9
100
AcDbEntity
  8
JOIST
100
AcDbLine
 10
14.328913
 20
46.738557
 30
0.0
 11
4.83164
 21
52.22181
 31
0.0
  0
LINE
  5
DCEB
100
AcDbEntity
  8
JOIST
100
AcDbLine
 10
14.328913
 20
41.304925
 30
0.0
 11
9.841365
 21
43.895812
 31
0.0
  0
LINE
  5
DCF2
100
AcDbEntity
  8
JOIST
100
AcDbLine
 10
0.472506
 20
49.304925
 30
0.0
 11
-9.024767
 21
54.788179
 31
0.0
  0
LINE
  5
DCF3
100
AcDbEntity
  8
JOIST
100
AcDbLine
 10
0.472506
 20
54.738557
 30
0.0
 11
-9.024767
 21
60.22181
 31
0.0
  0
LINE
  5
DCF4
100
AcDbEntity
  8
JOIST
100
AcDbLine
 10
0.472506
 20
56.21922
 30
0.0
 11
-9.024767
 21
61.702473
 31
0.0
  0
LINE
  5
DCF5
100
AcDbEntity
  8
JOIST
100
AcDbLine
 10
0.472506
 20
54.666388
 30
0.0
 11
-9.024767
 21
60.149642
 31
0.0
  0
LINE
  5
DCF6
100
AcDbEntity
  8
JOIST
100
AcDbLine
 10
0.472506
 20
50.343581
 30
0.0
 11
-9.024767
 21
55.826834
 31
0.0
  0
LINE
  5
DCF7
100
AcDbEntity
  8
JOIST
100
AcDbLine
 10
0.472506
 20
50.311365
 30
0.0
 11
-9.024767
 21
55.794618
 31
0.0
  0
LINE
  5
DCF8
100
AcDbEntity
  8
TRACK
100
AcDbLine
 10
0.472506
 20
48.779135
 30
0.0
 11
-9.024767
 21
54.262388
 31
0.0
  0
LINE
  5
DCFA
100
AcDbEntity
  8
TRACK
100
AcDbLine
 10
5.892313
 20
45.650008
 30
0.0
 11
5.91967
 21
45.665804
 31
0.0
  0
LINE
  5
DCFD
100
AcDbEntity
  8
TRACK
100
AcDbLine
 10
4.83164
 20
38.824508
 30
0.0
 11
14.328913
 21
33.341254
 31
0.0
  0
LINE
  5
DD00
100
AcDbEntity
  8
TRACK
100
AcDbLine
 10
4.83164
 20
44.775406
 30
0.0
 11
14.328913
 21
39.292152
 31
0.0
  0
LINE
  5
DD01
100
AcDbEntity
  8
TRACK
100
AcDbLine
 10
4.83164
 20
44.703237
 30
0.0
 11
14.328913
 21
39.219984
 31
0.0
  0
LINE
  5
DD02
100
AcDbEntity
  8
JOIST
100
AcDbLine
 10
4.83164
 20
46.293979
 30
0.0
 11
6.125827
 21
45.546779
 31
0.0
  0
LINE
  5
DD03
100
AcDbEntity
  8
JOIST
100
AcDbLine
 10
4.83164
 20
51.623226
 30
0.0
 11
14.328913
 21
46.139973
 31
0.0
  0
LINE
  5
DD04
100
AcDbEntity
  8
JOIST
100
AcDbLine
 10
4.83164
 20
46.748226
 30
0.0
 11
6.519217
 21
45.773903
 31
0.0
  0
LINE
  5
DD11
100
AcDbEntity
  8
TRACK
100
AcDbLine
 10
-9.024767
 20
46.824508
 30
0.0
 11
0.472506
 21
41.341254
 31
0.0
  0
LINE
  5
DD14
100
AcDbEntity
  8
TRACK
100
AcDbLine
 10
-9.024767
 20
52.775406
 30
0.0
 11
0.472506
 21
47.292152
 31
0.0
  0
LINE
  5
DD15
100
AcDbEntity
  8
TRACK
100
AcDbLine
 10
-9.024767
 20
52.703237
 30
0.0
 11
0.472506
 21
47.219984
 31
0.0
  0
LINE
  5
DD16
100
AcDbEntity
  8
JOIST
100
AcDbLine
 10
-9.024767
 20
54.293979
 30
0.0
 11
0.472506
 21
48.810726
 31
0.0
  0
LINE
  5
DD17
100
AcDbEntity
  8
JOIST
100
AcDbLine
 10
-9.024767
 20
59.623226
 30
0.0
 11
0.472506
 21
54.139973
 31
0.0
  0
LINE
  5
DD18
100
AcDbEntity
  8
JOIST
100
AcDbLine
 10
-9.024767
 20
54.748226
 30
0.0
 11
0.472506
 21
49.264973
 31
0.0
  0
LINE
  5
DE50
100
AcDbEntity
  8
STUD
100
AcDbLine
 10
-7.847576
 20
53.582736
 30
0.0
 11
-7.847576
 21
53.614327
 31
0.0
  0
LINE
  5
DE51
100
AcDbEntity
  8
STUD
100
AcDbLine
 10
-3.488442
 20
51.065989
 30
0.0
 11
-3.488442
 21
51.097581
 31
0.0
  0
LINE
  5
DE52
100
AcDbEntity
  8
STUD
100
AcDbLine
 10
-3.488442
 20
54.972581
 30
0.0
 11
-3.488442
 21
56.426827
 31
0.0
  0
LINE
  5
DE54
100
AcDbEntity
  8
STUD
100
AcDbLine
 10
-4.833234
 20
51.873996
 30
0.0
 11
-4.833234
 21
51.842405
 31
0.0
  0
LINE
  5
DE55
100
AcDbEntity
  8
STUD
100
AcDbLine
 10
-5.289123
 20
52.137204
 30
0.0
 11
-5.289123
 21
52.105613
 31
0.0
  0
LINE
  5
DE56
100
AcDbEntity
  8
STUD
100
AcDbLine
 10
-7.419587
 20
53.367228
 30
0.0
 11
-7.419587
 21
53.335636
 31
0.0
  0
LINE
  5
DE57
100
AcDbEntity
  8
STUD
100
AcDbLine
 10
-6.520085
 20
52.8479
 30
0.0
 11
-6.520085
 21
52.816309
 31
0.0
  0
LINE
  5
DE58
100
AcDbEntity
  8
STUD
100
AcDbLine
 10
-4.770734
 20
51.837912
 30
0.0
 11
-4.770734
 21
51.806321
 31
0.0
  0
LINE
  5
DE59
100
AcDbEntity
  8
STUD
100
AcDbLine
 10
-7.454187
 20
53.387204
 30
0.0
 11
-7.454187
 21
53.355613
 31
0.0
  0
LINE
  5
DE5B
100
AcDbEntity
  8
STUD
100
AcDbLine
 10
-4.770734
 20
56.96082
 30
0.0
 11
-4.770734
 21
55.735311
 31
0.0
  0
POLYLINE
  5
DE6A
100
AcDbEntity
  8
JOIST
100
AcDb2dPolyline
 66
     1
 10
0.0
 20
0.0
 30
0.0
  0
VERTEX
  5
DE6B
100
AcDbEntity
  8
JOIST
100
AcDbVertex
100
AcDb2dVertex
 10
-2.035076
 20
55.587726
 30
0.0
 42
-0.119683
  0
VERTEX
  5
DE6C
100
AcDbEntity
  8
JOIST
100
AcDbVertex
100
AcDb2dVertex
 10
-2.007231
 20
55.473065
 30
0.0
  0
VERTEX
  5
DE6D
100
AcDbEntity
  8
JOIST
100
AcDbVertex
100
AcDb2dVertex
 10
-2.007231
 20
54.550416
 30
0.0
 42
-0.57735
  0
VERTEX
  5
DE6E
100
AcDbEntity
  8
JOIST
100
AcDbVertex
100
AcDb2dVertex
 10
-2.382231
 20
54.333909
 30
0.0
  0
VERTEX
  5
DE6F
100
AcDbEntity
  8
JOIST
100
AcDbVertex
100
AcDb2dVertex
 10
-4.696814
 20
55.670234
 30
0.0
 42
-0.267949
  0
VERTEX
  5
DE70
100
AcDbEntity
  8
JOIST
100
AcDbVertex
100
AcDb2dVertex
 10
-4.821814
 20
55.88674
 30
0.0
  0
VERTEX
  5
DE71
100
AcDbEntity
  8
JOIST
100
AcDbVertex
100
AcDb2dVertex
 10
-4.821814
 20
56.80939
 30
0.0
 42
-0.400475
  0
VERTEX
  5
DE72
100
AcDbEntity
  8
JOIST
100
AcDbVertex
100
AcDb2dVertex
 10
-4.583592
 20
57.059113
 30
0.0
  0
SEQEND
  5
DE73
100
AcDbEntity
  8
JOIST
  0
LINE
  5
DE8E
100
AcDbEntity
  8
TRACK
100
AcDbLine
 10
12.891754
 20
46.969716
 30
0.0
 11
12.891754
 21
44.180022
 31
0.0
  0
POLYLINE
  5
DEA4
100
AcDbEntity
  8
TRACK
100
AcDb2dPolyline
 66
     1
 10
0.0
 20
0.0
 30
0.0
  0
VERTEX
  5
DEA5
100
AcDbEntity
  8
TRACK
100
AcDbVertex
100
AcDb2dVertex
 10
12.872004
 20
49.418619
 30
0.0
  0
VERTEX
  5
DEA6
100
AcDbEntity
  8
TRACK
100
AcDbVertex
100
AcDb2dVertex
 10
12.561748
 20
49.239493
 30
0.0
 42
0.57735
  0
SEQEND
  5
DEA7
100
AcDbEntity
  8
TRACK
  0
POLYLINE
  5
DEA8
100
AcDbEntity
  8
TRACK
100
AcDb2dPolyline
 66
     1
 10
0.0
 20
0.0
 30
0.0
  0
VERTEX
  5
DEA9
100
AcDbEntity
  8
TRACK
100
AcDbVertex
100
AcDb2dVertex
 10
12.521795
 20
49.262559
 30
0.0
  0
VERTEX
  5
DEAA
100
AcDbEntity
  8
TRACK
100
AcDbVertex
100
AcDb2dVertex
 10
12.832051
 20
49.441686
 30
0.0
 42
-0.267949
  0
SEQEND
  5
DEAB
100
AcDbEntity
  8
TRACK
  0
POLYLINE
  5
DEC2
100
AcDbEntity
  8
STUD
100
AcDb2dPolyline
 66
     1
 10
0.0
 20
0.0
 30
0.0
  0
VERTEX
  5
DEC3
100
AcDbEntity
  8
STUD
100
AcDbVertex
100
AcDb2dVertex
 10
13.291067
 20
48.81842
 30
0.0
  0
VERTEX
  5
DEC4
100
AcDbEntity
  8
STUD
100
AcDbVertex
100
AcDb2dVertex
 10
13.291067
 20
49.140589
 30
0.0
 42
0.267949
  0
VERTEX
  5
DEC5
100
AcDbEntity
  8
STUD
100
AcDbVertex
100
AcDb2dVertex
 10
13.259817
 20
49.194716
 30
0.0
  0
VERTEX
  5
DEC6
100
AcDbEntity
  8
STUD
100
AcDbVertex
100
AcDb2dVertex
 10
11.977525
 20
49.935047
 30
0.0
 42
0.57735
  0
VERTEX
  5
DEC7
100
AcDbEntity
  8
STUD
100
AcDbVertex
100
AcDb2dVertex
 10
11.883775
 20
49.88092
 30
0.0
  0
VERTEX
  5
DEC8
100
AcDbEntity
  8
STUD
100
AcDbVertex
100
AcDb2dVertex
 10
11.883775
 20
49.63092
 30
0.0
 42
0.267949
  0
SEQEND
  5
DEC9
100
AcDbEntity
  8
STUD
  0
POLYLINE
  5
DECA
100
AcDbEntity
  8
STUD
100
AcDb2dPolyline
 66
     1
 10
0.0
 20
0.0
 30
0.0
  0
VERTEX
  5
DECB
100
AcDbEntity
  8
STUD
100
AcDbVertex
100
AcDb2dVertex
 10
11.918375
 20
49.610944
 30
0.0
  0
VERTEX
  5
DECC
100
AcDbEntity
  8
STUD
100
AcDbVertex
100
AcDb2dVertex
 10
11.918375
 20
49.88092
 30
0.0
 42
-0.57735
  0
VERTEX
  5
DECD
100
AcDbEntity
  8
STUD
100
AcDbVertex
100
AcDb2dVertex
 10
11.960225
 20
49.905082
 30
0.0
  0
VERTEX
  5
DECE
100
AcDbEntity
  8
STUD
100
AcDbVertex
100
AcDb2dVertex
 10
13.242517
 20
49.164751
 30
0.0
 42
-0.267949
  0
VERTEX
  5
DECF
100
AcDbEntity
  8
STUD
100
AcDbVertex
100
AcDb2dVertex
 10
13.256467
 20
49.140589
 30
0.0
  0
VERTEX
  5
DED0
100
AcDbEntity
  8
STUD
100
AcDbVertex
100
AcDb2dVertex
 10
13.256467
 20
48.838397
 30
0.0
  0
SEQEND
  5
DED1
100
AcDbEntity
  8
STUD
  0
POLYLINE
  5
DED8
100
AcDbEntity
  8
TRACK
100
AcDb2dPolyline
 66
     1
 10
0.0
 20
0.0
 30
0.0
  0
VERTEX
  5
DED9
100
AcDbEntity
  8
TRACK
100
AcDbVertex
100
AcDb2dVertex
 10
10.781043
 20
48.188336
 30
0.0
  0
VERTEX
  5
DEDA
100
AcDbEntity
  8
TRACK
100
AcDbVertex
100
AcDb2dVertex
 10
6.138421
 20
45.507917
 30
0.0
 42
0.57735
  0
SEQEND
  5
DEDB
100
AcDbEntity
  8
TRACK
  0
POLYLINE
  5
DEDC
100
AcDbEntity
  8
TRACK
100
AcDb2dPolyline
 66
     1
 10
0.0
 20
0.0
 30
0.0
  0
VERTEX
  5
DEDD
100
AcDbEntity
  8
TRACK
100
AcDbVertex
100
AcDb2dVertex
 10
6.098469
 20
45.530984
 30
0.0
  0
VERTEX
  5
DEDE
100
AcDbEntity
  8
TRACK
100
AcDbVertex
100
AcDb2dVertex
 10
10.741091
 20
48.211403
 30
0.0
 42
-0.267949
  0
SEQEND
  5
DEDF
100
AcDbEntity
  8
TRACK
  0
POLYLINE
  5
DEE0
100
AcDbEntity
  8
TRACK
100
AcDb2dPolyline
 66
     1
 10
0.0
 20
0.0
 30
0.0
  0
VERTEX
  5
DEE1
100
AcDbEntity
  8
TRACK
100
AcDbVertex
100
AcDb2dVertex
 10
12.931707
 20
46.94665
 30
0.0
  0
VERTEX
  5
DEE2
100
AcDbEntity
  8
TRACK
100
AcDbVertex
100
AcDb2dVertex
 10
12.931707
 20
44.203089
 30
0.0
  0
VERTEX
  5
DEE3
100
AcDbEntity
  8
TRACK
100
AcDbVertex
100
AcDb2dVertex
 10
12.891754
 20
44.180022
 30
0.0
  0
SEQEND
  5
DEE4
100
AcDbEntity
  8
TRACK
  0
LINE
  5
DEE5
100
AcDbEntity
  8
JOIST
100
AcDbLine
 10
9.413375
 20
43.648713
 30
0.0
 11
14.328913
 21
40.810726
 31
0.0
  0
LINE
  5
DEE6
100
AcDbEntity
  8
JOIST
100
AcDbLine
 10
9.806765
 20
43.875836
 30
0.0
 11
14.328913
 21
41.264973
 31
0.0
  0
LINE
  5
DEE7
100
AcDbEntity
  8
JOIST
100
AcDbLine
 10
6.553817
 20
45.793879
 30
0.0
 11
4.83164
 21
46.788179
 31
0.0
  0
LINE
  5
DEE8
100
AcDbEntity
  8
JOIST
100
AcDbLine
 10
7.453319
 20
46.313207
 30
0.0
 11
4.83164
 21
47.826834
 31
0.0
  0
LINE
  5
DEE9
100
AcDbEntity
  8
JOIST
100
AcDbLine
 10
7.425419
 20
46.297099
 30
0.0
 11
4.83164
 21
47.794618
 31
0.0
  0
POLYLINE
  5
DEEA
100
AcDbEntity
  8
TRACK
100
AcDb2dPolyline
 66
     1
 10
0.0
 20
0.0
 30
0.0
  0
VERTEX
  5
DEEB
100
AcDbEntity
  8
TRACK
100
AcDbVertex
100
AcDb2dVertex
 10
12.891754
 20
44.180022
 30
0.0
  0
VERTEX
  5
DEEC
100
AcDbEntity
  8
TRACK
100
AcDbVertex
100
AcDb2dVertex
 10
11.643943
 20
44.900447
 30
0.0
 42
0.267949
  0
VERTEX
  5
DEED
100
AcDbEntity
  8
TRACK
100
AcDbVertex
100
AcDb2dVertex
 10
11.581443
 20
44.900447
 30
0.0
  0
VERTEX
  5
DEEE
100
AcDbEntity
  8
TRACK
100
AcDbVertex
100
AcDb2dVertex
 10
9.386017
 20
43.632917
 30
0.0
 42
0.57735
  0
SEQEND
  5
DEEF
100
AcDbEntity
  8
TRACK
  0
LINE
  5
E022
100
AcDbEntity
  8
JOIST
100
AcDbLine
 10
36.419862
 20
49.912173
 30
0.0
 11
-10.85275
 21
77.205028
 31
0.0
  0
LINE
  5
E023
100
AcDbEntity
  8
JOIST
100
AcDbLine
 10
36.482362
 20
49.948257
 30
0.0
 11
-10.79025
 21
77.241112
 31
0.0
  0
LINE
  5
E025
100
AcDbEntity
  8
JOIST
100
AcDbLine
 10
37.764653
 20
50.688589
 30
0.0
 11
-9.507958
 21
77.981443
 31
0.0
  0
LINE
  5
E026
100
AcDbEntity
  8
JOIST
100
AcDbLine
 10
35.708617
 20
45.967786
 30
0.0
 11
24.569373
 21
52.399032
 31
0.0
  0
LINE
  5
E027
100
AcDbEntity
  8
JOIST
100
AcDbLine
 10
35.736517
 20
45.983894
 30
0.0
 11
24.597273
 21
52.41514
 31
0.0
  0
LINE
  5
E05B
100
AcDbEntity
  8
JOIST
100
AcDbLine
 10
25.307169
 20
55.801673
 30
0.0
 11
35.963972
 21
49.648965
 31
0.0
  0
LINE
  5
E069
100
AcDbEntity
  8
JOIST
100
AcDbLine
 10
20.435223
 20
54.818101
 30
0.0
 11
-11.366076
 21
73.17859
 31
0.0
  0
LINE
  5
E06A
100
AcDbEntity
  8
JOIST
100
AcDbLine
 10
20.407323
 20
54.801993
 30
0.0
 11
-11.393976
 21
73.162482
 31
0.0
  0
POLYLINE
  5
E087
100
AcDbEntity
  8
TRACK
100
AcDb2dPolyline
 66
     1
 10
0.0
 20
0.0
 30
0.0
  0
VERTEX
  5
E088
100
AcDbEntity
  8
TRACK
100
AcDbVertex
100
AcDb2dVertex
 10
26.72841
 20
57.418619
 30
0.0
  0
VERTEX
  5
E089
100
AcDbEntity
  8
TRACK
100
AcDbVertex
100
AcDb2dVertex
 10
26.418154
 20
57.239493
 30
0.0
 42
0.57735
  0
SEQEND
  5
E08A
100
AcDbEntity
  8
TRACK
  0
POLYLINE
  5
E09F
100
AcDbEntity
  8
TRACK
100
AcDb2dPolyline
 66
     1
 10
0.0
 20
0.0
 30
0.0
  0
VERTEX
  5
E0A0
100
AcDbEntity
  8
TRACK
100
AcDbVertex
100
AcDb2dVertex
 10
26.378201
 20
57.262559
 30
0.0
  0
VERTEX
  5
E0A1
100
AcDbEntity
  8
TRACK
100
AcDbVertex
100
AcDb2dVertex
 10
26.688458
 20
57.441686
 30
0.0
 42
-0.267949
  0
SEQEND
  5
E0A2
100
AcDbEntity
  8
TRACK
  0
POLYLINE
  5
E0A3
100
AcDbEntity
  8
TRACK
100
AcDb2dPolyline
 66
     1
 10
0.0
 20
0.0
 30
0.0
  0
VERTEX
  5
E0A4
100
AcDbEntity
  8
TRACK
100
AcDbVertex
100
AcDb2dVertex
 10
26.788113
 20
54.94665
 30
0.0
  0
VERTEX
  5
E0A5
100
AcDbEntity
  8
TRACK
100
AcDbVertex
100
AcDb2dVertex
 10
26.788113
 20
52.203089
 30
0.0
  0
VERTEX
  5
E0A6
100
AcDbEntity
  8
TRACK
100
AcDbVertex
100
AcDb2dVertex
 10
26.748161
 20
52.180022
 30
0.0
  0
VERTEX
  5
E0A7
100
AcDbEntity
  8
TRACK
100
AcDbVertex
100
AcDb2dVertex
 10
25.500349
 20
52.900447
 30
0.0
 42
0.267949
  0
VERTEX
  5
E0A8
100
AcDbEntity
  8
TRACK
100
AcDbVertex
100
AcDb2dVertex
 10
25.437849
 20
52.900447
 30
0.0
  0
VERTEX
  5
E0A9
100
AcDbEntity
  8
TRACK
100
AcDbVertex
100
AcDb2dVertex
 10
23.926656
 20
52.027959
 30
0.0
 42
0.57735
  0
SEQEND
  5
E0AA
100
AcDbEntity
  8
TRACK
  0
LINE
  5
E0AB
100
AcDbEntity
  8
FASTENER
100
AcDbLine
 10
26.246896
 20
52.995634
 30
0.0
 11
26.029171
 21
53.118498
 31
0.0
  0
LINE
  5
E0AC
100
AcDbEntity
  8
FASTENER
100
AcDbLine
 10
26.138034
 20
53.182066
 30
0.0
 11
26.138034
 21
52.932066
 31
0.0
  0
ELLIPSE
  5
E0AD
100
AcDbEntity
  8
FASTENER
100
AcDbEllipse
 10
26.138034
 20
53.057066
 30
0.0
 11
0.0765465544619741
 21
-0.1325825214724725
 31
0.0
210
0.0
220
0.0
230
-1.0
 40
0.57735
 41
-0.0000000000000359
 42
6.283185307179564
  0
LINE
  5
E0AE
100
AcDbEntity
  8
STUD
100
AcDbLine
 10
30.17788
 20
53.034533
 30
0.0
 11
29.819884
 21
52.827844
 31
0.0
  0
POLYLINE
  5
E0C0
100
AcDbEntity
  8
STUD
100
AcDb2dPolyline
 66
     1
 10
0.0
 20
0.0
 30
0.0
  0
VERTEX
  5
E0C1
100
AcDbEntity
  8
STUD
100
AcDbVertex
100
AcDb2dVertex
 10
25.774782
 20
57.610944
 30
0.0
  0
VERTEX
  5
E0C2
100
AcDbEntity
  8
STUD
100
AcDbVertex
100
AcDb2dVertex
 10
25.774782
 20
57.88092
 30
0.0
 42
-0.57735
  0
VERTEX
  5
E0C3
100
AcDbEntity
  8
STUD
100
AcDbVertex
100
AcDb2dVertex
 10
25.816632
 20
57.905082
 30
0.0
  0
VERTEX
  5
E0C4
100
AcDbEntity
  8
STUD
100
AcDbVertex
100
AcDb2dVertex
 10
27.098923
 20
57.164751
 30
0.0
 42
-0.267949
  0
VERTEX
  5
E0C5
100
AcDbEntity
  8
STUD
100
AcDbVertex
100
AcDb2dVertex
 10
27.112873
 20
57.140589
 30
0.0
  0
VERTEX
  5
E0C6
100
AcDbEntity
  8
STUD
100
AcDbVertex
100
AcDb2dVertex
 10
27.112873
 20
56.838397
 30
0.0
  0
SEQEND
  5
E0C7
100
AcDbEntity
  8
STUD
  0
POLYLINE
  5
E0C8
100
AcDbEntity
  8
STUD
100
AcDb2dPolyline
 66
     1
 10
0.0
 20
0.0
 30
0.0
  0
VERTEX
  5
E0C9
100
AcDbEntity
  8
STUD
100
AcDbVertex
100
AcDb2dVertex
 10
27.147473
 20
56.81842
 30
0.0
  0
VERTEX
  5
E0CA
100
AcDbEntity
  8
STUD
100
AcDbVertex
100
AcDb2dVertex
 10
27.147473
 20
57.140589
 30
0.0
 42
0.267949
  0
VERTEX
  5
E0CB
100
AcDbEntity
  8
STUD
100
AcDbVertex
100
AcDb2dVertex
 10
27.116223
 20
57.194716
 30
0.0
  0
VERTEX
  5
E0CC
100
AcDbEntity
  8
STUD
100
AcDbVertex
100
AcDb2dVertex
 10
25.833932
 20
57.935047
 30
0.0
 42
0.57735
  0
VERTEX
  5
E0CD
100
AcDbEntity
  8
STUD
100
AcDbVertex
100
AcDb2dVertex
 10
25.740182
 20
57.88092
 30
0.0
  0
VERTEX
  5
E0CE
100
AcDbEntity
  8
STUD
100
AcDbVertex
100
AcDb2dVertex
 10
25.740182
 20
57.63092
 30
0.0
 42
0.267949
  0
SEQEND
  5
E0CF
100
AcDbEntity
  8
STUD
  0
LINE
  5
E142
100
AcDbEntity
  8
JOIST
100
AcDbLine
 10
-11.308639
 20
76.94182
 30
0.0
 11
23.722995
 21
56.716297
 31
0.0
  0
LINE
  5
E190
100
AcDbEntity
  8
JOIST
100
AcDbLine
 10
49.565024
 20
53.967786
 30
0.0
 11
38.42578
 21
60.399032
 31
0.0
  0
LINE
  5
E192
100
AcDbEntity
  8
JOIST
100
AcDbLine
 10
49.592924
 20
53.983894
 30
0.0
 11
38.45368
 21
60.41514
 31
0.0
  0
LINE
  5
E193
100
AcDbEntity
  8
JOIST
100
AcDbLine
 10
50.361277
 20
57.863093
 30
0.0
 11
39.109449
 21
64.359339
 31
0.0
  0
LINE
  5
E194
100
AcDbEntity
  8
JOIST
100
AcDbLine
 10
51.706069
 20
58.639508
 30
0.0
 11
40.45424
 21
65.135755
 31
0.0
  0
LINE
  5
E196
100
AcDbEntity
  8
JOIST
100
AcDbLine
 10
50.423777
 20
57.899177
 30
0.0
 11
39.171949
 21
64.395423
 31
0.0
  0
LINE
  5
E198
100
AcDbEntity
  8
JOIST
100
AcDbLine
 10
48.693422
 20
53.464567
 30
0.0
 11
37.790884
 21
59.75915
 31
0.0
  0
LINE
  5
E1A0
100
AcDbEntity
  8
JOIST
100
AcDbLine
 10
63.42143
 20
61.967786
 30
0.0
 11
49.194294
 21
70.181827
 31
0.0
  0
LINE
  5
E1A2
100
AcDbEntity
  8
JOIST
100
AcDbLine
 10
63.44933
 20
61.983894
 30
0.0
 11
49.222194
 21
70.197935
 31
0.0
  0
LINE
  5
E1A3
100
AcDbEntity
  8
JOIST
100
AcDbLine
 10
63.112569
 20
66.501131
 30
0.0
 11
52.965855
 21
72.359339
 31
0.0
  0
LINE
  5
E1A4
100
AcDbEntity
  8
JOIST
100
AcDbLine
 10
64.457361
 20
67.277547
 30
0.0
 11
54.310647
 21
73.135755
 31
0.0
  0
LINE
  5
E1A6
100
AcDbEntity
  8
JOIST
100
AcDbLine
 10
63.175069
 20
66.537215
 30
0.0
 11
53.028355
 21
72.395423
 31
0.0
  0
LINE
  5
E1A8
100
AcDbEntity
  8
JOIST
100
AcDbLine
 10
62.549828
 20
61.464567
 30
0.0
 11
48.322692
 21
69.678608
 31
0.0
  0
POLYLINE
  5
E1C5
100
AcDbEntity
  8
JOIST
100
AcDb2dPolyline
 66
     1
 10
0.0
 20
0.0
 30
0.0
  0
VERTEX
  5
E1C6
100
AcDbEntity
  8
JOIST
100
AcDbVertex
100
AcDb2dVertex
 10
46.462347
 20
59.587726
 30
0.0
 42
-0.119683
  0
VERTEX
  5
E1C7
100
AcDbEntity
  8
JOIST
100
AcDbVertex
100
AcDb2dVertex
 10
46.490191
 20
59.473065
 30
0.0
  0
VERTEX
  5
E1C8
100
AcDbEntity
  8
JOIST
100
AcDbVertex
100
AcDb2dVertex
 10
46.490191
 20
58.550416
 30
0.0
 42
-0.57735
  0
VERTEX
  5
E1C9
100
AcDbEntity
  8
JOIST
100
AcDbVertex
100
AcDb2dVertex
 10
46.115191
 20
58.333909
 30
0.0
  0
VERTEX
  5
E1CA
100
AcDbEntity
  8
JOIST
100
AcDbVertex
100
AcDb2dVertex
 10
43.800609
 20
59.670234
 30
0.0
 42
-0.267949
  0
VERTEX
  5
E1CB
100
AcDbEntity
  8
JOIST
100
AcDbVertex
100
AcDb2dVertex
 10
43.675609
 20
59.88674
 30
0.0
  0
VERTEX
  5
E1CC
100
AcDbEntity
  8
JOIST
100
AcDbVertex
100
AcDb2dVertex
 10
43.675609
 20
60.80939
 30
0.0
 42
-0.400475
  0
VERTEX
  5
E1CD
100
AcDbEntity
  8
JOIST
100
AcDbVertex
100
AcDb2dVertex
 10
43.91383
 20
61.059113
 30
0.0
  0
SEQEND
  5
E1CE
100
AcDbEntity
  8
JOIST
  0
LINE
  5
E1D0
100
AcDbEntity
  8
JOIST
100
AcDbLine
 10
47.456667
 20
70.178608
 30
0.0
 11
9.581628
 21
92.045771
 31
0.0
  0
LINE
  5
E1D1
100
AcDbEntity
  8
JOIST
100
AcDbLine
 10
52.16233
 20
72.895423
 30
0.0
 11
9.781825
 21
97.363819
 31
0.0
  0
LINE
  5
E1D2
100
AcDbEntity
  8
JOIST
100
AcDbLine
 10
53.444621
 20
73.635755
 30
0.0
 11
11.064116
 21
98.104151
 31
0.0
  0
LINE
  5
E1D3
100
AcDbEntity
  8
JOIST
100
AcDbLine
 10
52.09983
 20
72.859339
 30
0.0
 11
9.719325
 21
97.327735
 31
0.0
  0
LINE
  5
E1D4
100
AcDbEntity
  8
JOIST
100
AcDbLine
 10
48.356169
 20
70.697935
 30
0.0
 11
10.48113
 21
92.565099
 31
0.0
  0
LINE
  5
E1D5
100
AcDbEntity
  8
JOIST
100
AcDbLine
 10
48.328269
 20
70.681827
 30
0.0
 11
10.45323
 21
92.548991
 31
0.0
  0
LINE
  5
E1D8
100
AcDbEntity
  8
JOIST
100
AcDbLine
 10
33.392127
 20
62.298773
 30
0.0
 11
-3.849735
 21
83.800373
 31
0.0
  0
LINE
  5
E1D9
100
AcDbEntity
  8
JOIST
100
AcDbLine
 10
38.305924
 20
64.895423
 30
0.0
 11
-4.074582
 21
89.363819
 31
0.0
  0
LINE
  5
E1DA
100
AcDbEntity
  8
JOIST
100
AcDbLine
 10
39.588215
 20
65.635755
 30
0.0
 11
-2.79229
 21
90.104151
 31
0.0
  0
LINE
  5
E1DB
100
AcDbEntity
  8
JOIST
100
AcDbLine
 10
38.243424
 20
64.859339
 30
0.0
 11
-4.137082
 21
89.327735
 31
0.0
  0
LINE
  5
E1DC
100
AcDbEntity
  8
JOIST
100
AcDbLine
 10
34.291629
 20
62.818101
 30
0.0
 11
-2.950233
 21
84.3197
 31
0.0
  0
LINE
  5
E1DD
100
AcDbEntity
  8
JOIST
100
AcDbLine
 10
34.263729
 20
62.801993
 30
0.0
 11
-2.978133
 21
84.303592
 31
0.0
  0
POLYLINE
  5
E1DE
100
AcDbEntity
  8
STUD
100
AcDb2dPolyline
 66
     1
 10
0.0
 20
0.0
 30
0.0
  0
VERTEX
  5
E1DF
100
AcDbEntity
  8
STUD
100
AcDbVertex
100
AcDb2dVertex
 10
39.163576
 20
63.551673
 30
0.0
  0
VERTEX
  5
E1E0
100
AcDbEntity
  8
STUD
100
AcDbVertex
100
AcDb2dVertex
 10
39.163576
 20
64.078089
 30
0.0
 42
0.267949
  0
VERTEX
  5
E1E1
100
AcDbEntity
  8
STUD
100
AcDbVertex
100
AcDb2dVertex
 10
39.132326
 20
64.132216
 30
0.0
  0
VERTEX
  5
E1E2
100
AcDbEntity
  8
STUD
100
AcDbVertex
100
AcDb2dVertex
 10
38.924193
 20
64.252381
 30
0.0
 42
0.57735
  0
SEQEND
  5
E1E3
100
AcDbEntity
  8
STUD
  0
POLYLINE
  5
E1E4
100
AcDbEntity
  8
STUD
100
AcDb2dPolyline
 66
     1
 10
0.0
 20
0.0
 30
0.0
  0
VERTEX
  5
E1E5
100
AcDbEntity
  8
STUD
100
AcDbVertex
100
AcDb2dVertex
 10
38.058167
 20
64.752381
 30
0.0
  0
VERTEX
  5
E1E6
100
AcDbEntity
  8
STUD
100
AcDbVertex
100
AcDb2dVertex
 10
37.850034
 20
64.872547
 30
0.0
 42
0.57735
  0
VERTEX
  5
E1E7
100
AcDbEntity
  8
STUD
100
AcDbVertex
100
AcDb2dVertex
 10
37.756284
 20
64.81842
 30
0.0
  0
SEQEND
  5
E1E8
100
AcDbEntity
  8
STUD
  0
LINE
  5
E1E9
100
AcDbEntity
  8
JOIST
100
AcDbLine
 10
37.790884
 20
59.26495
 30
0.0
 11
38.952093
 21
58.594526
 31
0.0
  0
LINE
  5
E1EA
100
AcDbEntity
  8
JOIST
100
AcDbLine
 10
39.163576
 20
63.814881
 30
0.0
 11
49.905388
 21
57.599885
 31
0.0
  0
LINE
  5
E1EB
100
AcDbEntity
  8
JOIST
100
AcDbLine
 10
37.790884
 20
59.719197
 30
0.0
 11
48.658822
 21
53.44459
 31
0.0
  0
LINE
  5
E1EC
100
AcDbEntity
  8
JOIST
100
AcDbLine
 10
47.894703
 20
69.431508
 30
0.0
 11
62.121839
 21
61.217467
 31
0.0
  0
LINE
  5
E1ED
100
AcDbEntity
  8
JOIST
100
AcDbLine
 10
52.509966
 20
72.096131
 30
0.0
 11
62.65668
 21
66.237923
 31
0.0
  0
LINE
  5
E1EE
100
AcDbEntity
  8
JOIST
100
AcDbLine
 10
48.288092
 20
69.658631
 30
0.0
 11
62.515228
 21
61.44459
 31
0.0
  0
LINE
  5
E204
100
AcDbEntity
  8
JOIST
100
AcDbLine
 10
61.313073
 20
78.178608
 30
0.0
 11
21.65285
 21
101.076448
 31
0.0
  0
LINE
  5
E205
100
AcDbEntity
  8
JOIST
100
AcDbLine
 10
62.144499
 20
77.658631
 30
0.0
 11
76.371635
 21
69.44459
 31
0.0
  0
LINE
  5
E206
100
AcDbEntity
  8
JOIST
100
AcDbLine
 10
66.018736
 20
80.895423
 30
0.0
 11
23.638231
 21
105.363819
 31
0.0
  0
LINE
  5
E207
100
AcDbEntity
  8
JOIST
100
AcDbLine
 10
66.366373
 20
80.096131
 30
0.0
 11
76.90219
 21
74.013274
 31
0.0
  0
LINE
  5
E208
100
AcDbEntity
  8
JOIST
100
AcDbLine
 10
65.956236
 20
80.859339
 30
0.0
 11
23.575731
 21
105.327735
 31
0.0
  0
LINE
  5
E209
100
AcDbEntity
  8
JOIST
100
AcDbLine
 10
62.212575
 20
78.697935
 30
0.0
 11
22.552352
 21
101.595776
 31
0.0
  0
LINE
  5
E20A
100
AcDbEntity
  8
JOIST
100
AcDbLine
 10
61.751109
 20
77.431508
 30
0.0
 11
75.978246
 21
69.217467
 31
0.0
  0
LINE
  5
E20B
100
AcDbEntity
  8
JOIST
100
AcDbLine
 10
62.184675
 20
78.681827
 30
0.0
 11
22.524452
 21
101.579668
 31
0.0
  0
POLYLINE
  5
E238
100
AcDbEntity
  8
TRACK
100
AcDb2dPolyline
 66
     1
 10
0.0
 20
0.0
 30
0.0
  0
VERTEX
  5
E239
100
AcDbEntity
  8
TRACK
100
AcDbVertex
100
AcDb2dVertex
 10
40.64452
 20
62.958432
 30
0.0
  0
VERTEX
  5
E23A
100
AcDbEntity
  8
TRACK
100
AcDbVertex
100
AcDb2dVertex
 10
40.64452
 20
60.203089
 30
0.0
  0
VERTEX
  5
E23B
100
AcDbEntity
  8
TRACK
100
AcDbVertex
100
AcDb2dVertex
 10
40.604567
 20
60.180022
 30
0.0
  0
VERTEX
  5
E23C
100
AcDbEntity
  8
TRACK
100
AcDbVertex
100
AcDb2dVertex
 10
39.356756
 20
60.900447
 30
0.0
 42
0.267949
  0
VERTEX
  5
E23D
100
AcDbEntity
  8
TRACK
100
AcDbVertex
100
AcDb2dVertex
 10
39.294256
 20
60.900447
 30
0.0
  0
VERTEX
  5
E23E
100
AcDbEntity
  8
TRACK
100
AcDbVertex
100
AcDb2dVertex
 10
36.758679
 20
59.436531
 30
0.0
 42
0.57735
  0
SEQEND
  5
E23F
100
AcDbEntity
  8
TRACK
  0
LINE
  5
E240
100
AcDbEntity
  8
JOIST
100
AcDbLine
 10
39.183379
 20
58.460993
 30
0.0
 11
48.265433
 21
53.217467
 31
0.0
  0
POLYLINE
  5
E241
100
AcDbEntity
  8
STUD
100
AcDb2dPolyline
 66
     1
 10
0.0
 20
0.0
 30
0.0
  0
VERTEX
  5
E242
100
AcDbEntity
  8
STUD
100
AcDbVertex
100
AcDb2dVertex
 10
38.676436
 20
58.435376
 30
0.0
  0
VERTEX
  5
E243
100
AcDbEntity
  8
STUD
100
AcDbVertex
100
AcDb2dVertex
 10
37.804834
 20
58.938596
 30
0.0
 42
-0.267949
  0
VERTEX
  5
E244
100
AcDbEntity
  8
STUD
100
AcDbVertex
100
AcDb2dVertex
 10
37.790884
 20
58.962758
 30
0.0
  0
VERTEX
  5
E245
100
AcDbEntity
  8
STUD
100
AcDbVertex
100
AcDb2dVertex
 10
37.790884
 20
60.032475
 30
0.0
 42
-0.57735
  0
SEQEND
  5
E246
100
AcDbEntity
  8
STUD
  0
POLYLINE
  5
E251
100
AcDbEntity
  8
JOIST
100
AcDb2dPolyline
 66
     1
 10
0.0
 20
0.0
 30
0.0
  0
VERTEX
  5
E252
100
AcDbEntity
  8
JOIST
100
AcDbVertex
100
AcDb2dVertex
 10
25.677737
 20
71.587726
 30
0.0
 42
-0.119683
  0
VERTEX
  5
E253
100
AcDbEntity
  8
JOIST
100
AcDbVertex
100
AcDb2dVertex
 10
25.705582
 20
71.473065
 30
0.0
  0
VERTEX
  5
E254
100
AcDbEntity
  8
JOIST
100
AcDbVertex
100
AcDb2dVertex
 10
25.705582
 20
70.550416
 30
0.0
 42
-0.57735
  0
VERTEX
  5
E255
100
AcDbEntity
  8
JOIST
100
AcDbVertex
100
AcDb2dVertex
 10
25.330582
 20
70.333909
 30
0.0
  0
VERTEX
  5
E256
100
AcDbEntity
  8
JOIST
100
AcDbVertex
100
AcDb2dVertex
 10
23.015999
 20
71.670234
 30
0.0
 42
-0.267949
  0
VERTEX
  5
E257
100
AcDbEntity
  8
JOIST
100
AcDbVertex
100
AcDb2dVertex
 10
22.890999
 20
71.88674
 30
0.0
  0
VERTEX
  5
E258
100
AcDbEntity
  8
JOIST
100
AcDbVertex
100
AcDb2dVertex
 10
22.890999
 20
72.80939
 30
0.0
 42
-0.400475
  0
VERTEX
  5
E259
100
AcDbEntity
  8
JOIST
100
AcDbVertex
100
AcDb2dVertex
 10
23.129221
 20
73.059113
 30
0.0
  0
SEQEND
  5
E25A
100
AcDbEntity
  8
JOIST
  0
LINE
  5
E277
100
AcDbEntity
  8
JOIST
100
AcDbLine
 10
-4.592971
 20
89.064527
 30
0.0
 11
37.579401
 21
64.716297
 31
0.0
  0
LINE
  5
E27B
100
AcDbEntity
  8
JOIST
100
AcDbLine
 10
-3.884335
 20
83.780396
 30
0.0
 11
33.357527
 21
62.278797
 31
0.0
  0
LINE
  5
E27C
100
AcDbEntity
  8
JOIST
100
AcDbLine
 10
-4.277724
 20
83.553273
 30
0.0
 11
32.964138
 21
62.051673
 31
0.0
  0
LINE
  5
E316
100
AcDbEntity
  8
JOIST
100
AcDbLine
 10
9.263436
 20
97.064527
 30
0.0
 11
51.643941
 21
72.596131
 31
0.0
  0
LINE
  5
E31E
100
AcDbEntity
  8
JOIST
100
AcDbLine
 10
9.547028
 20
92.025795
 30
0.0
 11
47.422067
 21
70.158631
 31
0.0
  0
LINE
  5
E31F
100
AcDbEntity
  8
JOIST
100
AcDbLine
 10
9.153639
 20
91.798672
 30
0.0
 11
47.028678
 21
69.931508
 31
0.0
  0
LINE
  5
E32A
100
AcDbEntity
  8
JOIST
100
AcDbLine
 10
21.224861
 20
100.829349
 30
0.0
 11
60.885084
 21
77.931508
 31
0.0
  0
LINE
  5
E32C
100
AcDbEntity
  8
JOIST
100
AcDbLine
 10
21.61825
 20
101.056472
 30
0.0
 11
61.278473
 21
78.158631
 31
0.0
  0
LINE
  5
E337
100
AcDbEntity
  8
JOIST
100
AcDbLine
 10
39.161689
 20
106.473516
 30
0.0
 11
74.533358
 21
86.051673
 31
0.0
  0
LINE
  5
E338
100
AcDbEntity
  8
JOIST
100
AcDbLine
 10
39.555078
 20
106.700639
 30
0.0
 11
74.926747
 21
86.278797
 31
0.0
  0
LINE
  5
E343
100
AcDbEntity
  8
JOIST
100
AcDbLine
 10
23.119842
 20
105.064527
 30
0.0
 11
65.500347
 21
80.596131
 31
0.0
  0
POLYLINE
  5
E370
100
AcDbEntity
  8
JOIST
100
AcDb2dPolyline
 66
     1
 10
0.0
 20
0.0
 30
0.0
  0
VERTEX
  5
E371
100
AcDbEntity
  8
JOIST
100
AcDbVertex
100
AcDb2dVertex
 10
39.534143
 20
79.587726
 30
0.0
 42
-0.119683
  0
VERTEX
  5
E372
100
AcDbEntity
  8
JOIST
100
AcDbVertex
100
AcDb2dVertex
 10
39.561988
 20
79.473065
 30
0.0
  0
VERTEX
  5
E373
100
AcDbEntity
  8
JOIST
100
AcDbVertex
100
AcDb2dVertex
 10
39.561988
 20
78.550416
 30
0.0
 42
-0.57735
  0
VERTEX
  5
E374
100
AcDbEntity
  8
JOIST
100
AcDbVertex
100
AcDb2dVertex
 10
39.186988
 20
78.333909
 30
0.0
  0
VERTEX
  5
E375
100
AcDbEntity
  8
JOIST
100
AcDbVertex
100
AcDb2dVertex
 10
36.872406
 20
79.670234
 30
0.0
 42
-0.267949
  0
VERTEX
  5
E376
100
AcDbEntity
  8
JOIST
100
AcDbVertex
100
AcDb2dVertex
 10
36.747406
 20
79.88674
 30
0.0
  0
VERTEX
  5
E377
100
AcDbEntity
  8
JOIST
100
AcDbVertex
100
AcDb2dVertex
 10
36.747406
 20
80.80939
 30
0.0
 42
-0.400475
  0
VERTEX
  5
E378
100
AcDbEntity
  8
JOIST
100
AcDbVertex
100
AcDb2dVertex
 10
36.985627
 20
81.059113
 30
0.0
  0
SEQEND
  5
E379
100
AcDbEntity
  8
JOIST
  0
LINE
  5
E384
100
AcDbEntity
  8
STEEL
100
AcDbLine
 10
53.03437
 20
66.46412
 30
0.0
 11
45.596815
 21
62.166688
 31
0.0
  0
LINE
  5
E385
100
AcDbEntity
  8
STEEL
100
AcDbLine
 10
52.16233
 20
66.967592
 30
0.0
 11
44.721867
 21
62.671839
 31
0.0
  0
LINE
  5
E3C5
100
AcDbEntity
  8
JOIST
100
AcDbLine
 10
76.406235
 20
69.464567
 30
0.0
 11
62.179099
 21
77.678608
 31
0.0
  0
LINE
  5
E3C6
100
AcDbEntity
  8
JOIST
100
AcDbLine
 10
77.305737
 20
69.983894
 30
0.0
 11
63.078601
 21
78.197935
 31
0.0
  0
LINE
  5
E3C7
100
AcDbEntity
  8
JOIST
100
AcDbLine
 10
77.277837
 20
69.967786
 30
0.0
 11
63.050701
 21
78.181827
 31
0.0
  0
LINE
  5
E3C8
100
AcDbEntity
  8
JOIST
100
AcDbLine
 10
77.358079
 20
74.276482
 30
0.0
 11
66.822262
 21
80.359339
 31
0.0
  0
LINE
  5
E3C9
100
AcDbEntity
  8
JOIST
100
AcDbLine
 10
78.702871
 20
75.052898
 30
0.0
 11
68.167053
 21
81.135755
 31
0.0
  0
LINE
  5
E3CA
100
AcDbEntity
  8
JOIST
100
AcDbLine
 10
77.420579
 20
74.312566
 30
0.0
 11
66.884762
 21
80.395423
 31
0.0
  0
LINE
  5
E3D0
100
AcDbEntity
  8
JOIST
100
AcDbLine
 10
104.99065
 20
85.967786
 30
0.0
 11
93.851405
 21
92.399032
 31
0.0
  0
LINE
  5
E3D2
100
AcDbEntity
  8
JOIST
100
AcDbLine
 10
105.01855
 20
85.983894
 30
0.0
 11
93.879305
 21
92.41514
 31
0.0
  0
LINE
  5
E3D3
100
AcDbEntity
  8
JOIST
100
AcDbLine
 10
104.853756
 20
90.401846
 30
0.0
 11
56.219054
 21
118.481104
 31
0.0
  0
LINE
  5
E3D4
100
AcDbEntity
  8
JOIST
100
AcDbLine
 10
106.198548
 20
91.178261
 30
0.0
 11
57.563845
 21
119.25752
 31
0.0
  0
LINE
  5
E3D6
100
AcDbEntity
  8
JOIST
100
AcDbLine
 10
104.916256
 20
90.43793
 30
0.0
 11
56.281554
 21
118.517188
 31
0.0
  0
LINE
  5
E3D8
100
AcDbEntity
  8
JOIST
100
AcDbLine
 10
104.119048
 20
85.464567
 30
0.0
 11
93.21651
 21
91.75915
 31
0.0
  0
LINE
  5
E3D9
100
AcDbEntity
  8
JOIST
100
AcDbLine
 10
91.134243
 20
77.967786
 30
0.0
 11
79.994999
 21
84.399032
 31
0.0
  0
LINE
  5
E3DA
100
AcDbEntity
  8
JOIST
100
AcDbLine
 10
91.162143
 20
77.983894
 30
0.0
 11
80.022899
 21
84.41514
 31
0.0
  0
LINE
  5
E3DB
100
AcDbEntity
  8
JOIST
100
AcDbLine
 10
91.377339
 20
82.182459
 30
0.0
 11
41.937604
 21
110.726503
 31
0.0
  0
LINE
  5
E3DC
100
AcDbEntity
  8
JOIST
100
AcDbLine
 10
92.72213
 20
82.958874
 30
0.0
 11
43.282395
 21
111.502919
 31
0.0
  0
LINE
  5
E3DE
100
AcDbEntity
  8
JOIST
100
AcDbLine
 10
91.439839
 20
82.218543
 30
0.0
 11
42.000104
 21
110.762587
 31
0.0
  0
LINE
  5
E3DF
100
AcDbEntity
  8
JOIST
100
AcDbLine
 10
90.262641
 20
77.464567
 30
0.0
 11
79.360104
 21
83.75915
 31
0.0
  0
LINE
  5
E3FF
100
AcDbEntity
  8
STUD
100
AcDbLine
 10
73.5607
 20
75.942485
 30
0.0
 11
73.5607
 21
74.488238
 31
0.0
  0
LINE
  5
E400
100
AcDbEntity
  8
STUD
100
AcDbLine
 10
71.708158
 20
77.01205
 30
0.0
 11
71.389104
 21
76.827844
 31
0.0
  0
POLYLINE
  5
E40C
100
AcDbEntity
  8
JOIST
100
AcDb2dPolyline
 66
     1
 10
0.0
 20
0.0
 30
0.0
  0
VERTEX
  5
E40D
100
AcDbEntity
  8
JOIST
100
AcDbVertex
100
AcDb2dVertex
 10
74.17516
 20
75.587726
 30
0.0
 42
-0.119683
  0
VERTEX
  5
E40E
100
AcDbEntity
  8
JOIST
100
AcDbVertex
100
AcDb2dVertex
 10
74.203004
 20
75.473065
 30
0.0
  0
VERTEX
  5
E40F
100
AcDbEntity
  8
JOIST
100
AcDbVertex
100
AcDb2dVertex
 10
74.203004
 20
74.550416
 30
0.0
 42
-0.57735
  0
VERTEX
  5
E410
100
AcDbEntity
  8
JOIST
100
AcDbVertex
100
AcDb2dVertex
 10
73.828004
 20
74.333909
 30
0.0
  0
VERTEX
  5
E411
100
AcDbEntity
  8
JOIST
100
AcDbVertex
100
AcDb2dVertex
 10
71.513422
 20
75.670234
 30
0.0
 42
-0.267949
  0
VERTEX
  5
E412
100
AcDbEntity
  8
JOIST
100
AcDbVertex
100
AcDb2dVertex
 10
71.388422
 20
75.88674
 30
0.0
  0
VERTEX
  5
E413
100
AcDbEntity
  8
JOIST
100
AcDbVertex
100
AcDb2dVertex
 10
71.388422
 20
76.80939
 30
0.0
 42
-0.400475
  0
VERTEX
  5
E414
100
AcDbEntity
  8
JOIST
100
AcDbVertex
100
AcDb2dVertex
 10
71.626643
 20
77.059113
 30
0.0
  0
SEQEND
  5
E415
100
AcDbEntity
  8
JOIST
  0
POLYLINE
  5
E42F
100
AcDbEntity
  8
STUD
100
AcDb2dPolyline
 66
     1
 10
0.0
 20
0.0
 30
0.0
  0
VERTEX
  5
E430
100
AcDbEntity
  8
STUD
100
AcDbVertex
100
AcDb2dVertex
 10
67.344001
 20
81.610944
 30
0.0
  0
VERTEX
  5
E431
100
AcDbEntity
  8
STUD
100
AcDbVertex
100
AcDb2dVertex
 10
67.344001
 20
81.88092
 30
0.0
 42
-0.57735
  0
VERTEX
  5
E432
100
AcDbEntity
  8
STUD
100
AcDbVertex
100
AcDb2dVertex
 10
67.385851
 20
81.905082
 30
0.0
  0
VERTEX
  5
E433
100
AcDbEntity
  8
STUD
100
AcDbVertex
100
AcDb2dVertex
 10
67.576684
 20
81.794905
 30
0.0
 42
-0.267949
  0
SEQEND
  5
E434
100
AcDbEntity
  8
STUD
  0
POLYLINE
  5
E442
100
AcDbEntity
  8
STUD
100
AcDb2dPolyline
 66
     1
 10
0.0
 20
0.0
 30
0.0
  0
VERTEX
  5
E443
100
AcDbEntity
  8
STUD
100
AcDbVertex
100
AcDb2dVertex
 10
67.611284
 20
81.814881
 30
0.0
  0
VERTEX
  5
E444
100
AcDbEntity
  8
STUD
100
AcDbVertex
100
AcDb2dVertex
 10
67.403151
 20
81.935047
 30
0.0
 42
0.57735
  0
VERTEX
  5
E445
100
AcDbEntity
  8
STUD
100
AcDbVertex
100
AcDb2dVertex
 10
67.309401
 20
81.88092
 30
0.0
  0
VERTEX
  5
E446
100
AcDbEntity
  8
STUD
100
AcDbVertex
100
AcDb2dVertex
 10
67.309401
 20
81.63092
 30
0.0
 42
0.267949
  0
SEQEND
  5
E447
100
AcDbEntity
  8
STUD
  0
LINE
  5
E448
100
AcDbEntity
  8
JOIST
100
AcDbLine
 10
67.301028
 20
81.635755
 30
0.0
 11
24.920523
 21
106.104151
 31
0.0
  0
POLYLINE
  5
E449
100
AcDbEntity
  8
STUD
100
AcDb2dPolyline
 66
     1
 10
0.0
 20
0.0
 30
0.0
  0
VERTEX
  5
E44A
100
AcDbEntity
  8
STUD
100
AcDbVertex
100
AcDb2dVertex
 10
70.944201
 20
81.900226
 30
0.0
 42
0.119683
  0
VERTEX
  5
E44B
100
AcDbEntity
  8
STUD
100
AcDbVertex
100
AcDb2dVertex
 10
70.916356
 20
81.785565
 30
0.0
  0
VERTEX
  5
E44C
100
AcDbEntity
  8
STUD
100
AcDbVertex
100
AcDb2dVertex
 10
70.916356
 20
80.862916
 30
0.0
 42
0.57735
  0
VERTEX
  5
E44D
100
AcDbEntity
  8
STUD
100
AcDbVertex
100
AcDb2dVertex
 10
71.291356
 20
80.646409
 30
0.0
  0
VERTEX
  5
E44E
100
AcDbEntity
  8
STUD
100
AcDbVertex
100
AcDb2dVertex
 10
73.605938
 20
81.982734
 30
0.0
 42
0.267949
  0
VERTEX
  5
E44F
100
AcDbEntity
  8
STUD
100
AcDbVertex
100
AcDb2dVertex
 10
73.730938
 20
82.19924
 30
0.0
  0
VERTEX
  5
E450
100
AcDbEntity
  8
STUD
100
AcDbVertex
100
AcDb2dVertex
 10
73.730938
 20
83.12189
 30
0.0
 42
0.400475
  0
VERTEX
  5
E451
100
AcDbEntity
  8
STUD
100
AcDbVertex
100
AcDb2dVertex
 10
73.492717
 20
83.371613
 30
0.0
  0
SEQEND
  5
E452
100
AcDbEntity
  8
STUD
  0
LINE
  5
E453
100
AcDbEntity
  8
STUD
100
AcDbLine
 10
87.417106
 20
83.942485
 30
0.0
 11
87.417106
 21
82.488238
 31
0.0
  0
LINE
  5
E454
100
AcDbEntity
  8
STUD
100
AcDbLine
 10
88.699397
 20
77.872907
 30
0.0
 11
88.699397
 21
76.562027
 31
0.0
  0
LINE
  5
E455
100
AcDbEntity
  8
STUD
100
AcDbLine
 10
88.761897
 20
77.836822
 30
0.0
 11
88.761897
 21
76.598112
 31
0.0
  0
LINE
  5
E456
100
AcDbEntity
  8
STUD
100
AcDbLine
 10
89.217787
 20
77.573614
 30
0.0
 11
89.217787
 21
76.86132
 31
0.0
  0
LINE
  5
E457
100
AcDbEntity
  8
STUD
100
AcDbLine
 10
87.417106
 20
78.613238
 30
0.0
 11
87.417106
 21
75.821696
 31
0.0
  0
POLYLINE
  5
E458
100
AcDbEntity
  8
JOIST
100
AcDb2dPolyline
 66
     1
 10
0.0
 20
0.0
 30
0.0
  0
VERTEX
  5
E459
100
AcDbEntity
  8
JOIST
100
AcDbVertex
100
AcDb2dVertex
 10
88.031566
 20
83.587726
 30
0.0
 42
-0.119683
  0
VERTEX
  5
E45A
100
AcDbEntity
  8
JOIST
100
AcDbVertex
100
AcDb2dVertex
 10
88.059411
 20
83.473065
 30
0.0
  0
VERTEX
  5
E45B
100
AcDbEntity
  8
JOIST
100
AcDbVertex
100
AcDb2dVertex
 10
88.059411
 20
82.550416
 30
0.0
 42
-0.57735
  0
VERTEX
  5
E45C
100
AcDbEntity
  8
JOIST
100
AcDbVertex
100
AcDb2dVertex
 10
87.684411
 20
82.333909
 30
0.0
  0
VERTEX
  5
E45D
100
AcDbEntity
  8
JOIST
100
AcDbVertex
100
AcDb2dVertex
 10
85.369828
 20
83.670234
 30
0.0
 42
-0.267949
  0
VERTEX
  5
E45E
100
AcDbEntity
  8
JOIST
100
AcDbVertex
100
AcDb2dVertex
 10
85.244828
 20
83.88674
 30
0.0
  0
VERTEX
  5
E45F
100
AcDbEntity
  8
JOIST
100
AcDbVertex
100
AcDb2dVertex
 10
85.244828
 20
84.80939
 30
0.0
 42
-0.400475
  0
VERTEX
  5
E460
100
AcDbEntity
  8
JOIST
100
AcDbVertex
100
AcDb2dVertex
 10
85.48305
 20
85.059113
 30
0.0
  0
SEQEND
  5
E461
100
AcDbEntity
  8
JOIST
  0
POLYLINE
  5
E468
100
AcDbEntity
  8
STUD
100
AcDb2dPolyline
 66
     1
 10
0.0
 20
0.0
 30
0.0
  0
VERTEX
  5
E469
100
AcDbEntity
  8
STUD
100
AcDbVertex
100
AcDb2dVertex
 10
68.716692
 20
80.81842
 30
0.0
  0
VERTEX
  5
E46A
100
AcDbEntity
  8
STUD
100
AcDbVertex
100
AcDb2dVertex
 10
68.716692
 20
81.140589
 30
0.0
 42
0.267949
  0
VERTEX
  5
E46B
100
AcDbEntity
  8
STUD
100
AcDbVertex
100
AcDb2dVertex
 10
68.685442
 20
81.194716
 30
0.0
  0
VERTEX
  5
E46C
100
AcDbEntity
  8
STUD
100
AcDbVertex
100
AcDb2dVertex
 10
68.477309
 20
81.314881
 30
0.0
 42
0.57735
  0
SEQEND
  5
E46D
100
AcDbEntity
  8
STUD
  0
LINE
  5
E67F
100
AcDbEntity
  8
JOIST
100
AcDbLine
 10
55.058306
 20
113.2956
 30
0.0
 11
88.389764
 21
94.051673
 31
0.0
  0
LINE
  5
E680
100
AcDbEntity
  8
JOIST
100
AcDbLine
 10
55.763165
 20
118.217896
 30
0.0
 11
93.005027
 21
96.716297
 31
0.0
  0
LINE
  5
E681
100
AcDbEntity
  8
JOIST
100
AcDbLine
 10
55.451695
 20
113.522723
 30
0.0
 11
88.783153
 21
94.278797
 31
0.0
  0
LINE
  5
E683
100
AcDbEntity
  8
TRACK
100
AcDbLine
 10
58.404929
 20
125.436381
 30
0.0
 11
115.875905
 21
92.252392
 31
0.0
  0
LINE
  5
E686
100
AcDbEntity
  8
TRACK
100
AcDbLine
 10
58.139531
 20
119.589892
 30
0.0
 11
96.231229
 21
97.595314
 31
0.0
  0
LINE
  5
E69B
100
AcDbEntity
  8
JOIST
100
AcDbLine
 10
41.481715
 20
110.463295
 30
0.0
 11
79.148621
 21
88.716297
 31
0.0
  0
LINE
  5
E6FE
100
AcDbEntity
  8
STUD
100
AcDbLine
 10
85.564564
 20
85.01205
 30
0.0
 11
85.24551
 21
84.827844
 31
0.0
  0
LINE
  5
E6FF
100
AcDbEntity
  8
STUD
100
AcDbLine
 10
86.065654
 20
86.801993
 30
0.0
 11
93.23046
 21
90.938596
 31
0.0
  0
LINE
  5
E700
100
AcDbEntity
  8
STUD
100
AcDbLine
 10
86.037754
 20
86.818101
 30
0.0
 11
93.21651
 21
90.962758
 31
0.0
  0
LINE
  5
E702
100
AcDbEntity
  8
STUD
100
AcDbLine
 10
86.937256
 20
86.298773
 30
0.0
 11
94.554601
 21
90.69665
 31
0.0
  0
LINE
  5
E703
100
AcDbEntity
  8
STUD
100
AcDbLine
 10
77.526444
 20
80.371239
 30
0.0
 11
77.526444
 21
75.732108
 31
0.0
  0
LINE
  5
E704
100
AcDbEntity
  8
STUD
100
AcDbLine
 10
77.491844
 20
80.351263
 30
0.0
 11
77.491844
 21
75.752084
 31
0.0
  0
LINE
  5
E705
100
AcDbEntity
  8
STUD
100
AcDbLine
 10
77.919833
 20
80.598362
 30
0.0
 11
77.919833
 21
75.504985
 31
0.0
  0
LINE
  5
E706
100
AcDbEntity
  8
STUD
100
AcDbLine
 10
76.620242
 20
79.848043
 30
0.0
 11
76.620242
 21
76.255304
 31
0.0
  0
LINE
  5
E707
100
AcDbEntity
  8
STUD
100
AcDbLine
 10
76.592342
 20
79.831935
 30
0.0
 11
76.592342
 21
76.271412
 31
0.0
  0
LINE
  5
E708
100
AcDbEntity
  8
STUD
100
AcDbLine
 10
73.5607
 20
86.613238
 30
0.0
 11
73.5607
 21
85.490109
 31
0.0
  0
LINE
  5
E709
100
AcDbEntity
  8
STUD
100
AcDbLine
 10
74.842991
 20
78.821947
 30
0.0
 11
74.842991
 21
77.2814
 31
0.0
  0
LINE
  5
E70A
100
AcDbEntity
  8
STUD
100
AcDbLine
 10
74.905491
 20
78.858031
 30
0.0
 11
74.905491
 21
77.245316
 31
0.0
  0
LINE
  5
E70B
100
AcDbEntity
  8
STUD
100
AcDbLine
 10
75.36138
 20
79.121239
 30
0.0
 11
75.36138
 21
76.982108
 31
0.0
  0
LINE
  5
E70C
100
AcDbEntity
  8
STUD
100
AcDbLine
 10
73.5607
 20
78.081615
 30
0.0
 11
73.5607
 21
78.021731
 31
0.0
  0
LINE
  5
E70D
100
AcDbEntity
  8
STUD
100
AcDbLine
 10
73.5607
 20
83.358825
 30
0.0
 11
73.5607
 21
81.956615
 31
0.0
  0
LINE
  5
E70E
100
AcDbEntity
  8
JOIST
100
AcDbLine
 10
79.360104
 20
83.26495
 30
0.0
 11
80.521312
 21
82.594526
 31
0.0
  0
LINE
  5
E70F
100
AcDbEntity
  8
JOIST
100
AcDbLine
 10
74.961347
 20
86.298773
 30
0.0
 11
39.589678
 21
106.720616
 31
0.0
  0
LINE
  5
E710
100
AcDbEntity
  8
JOIST
100
AcDbLine
 10
79.360104
 20
83.719197
 30
0.0
 11
90.228041
 21
77.44459
 31
0.0
  0
LINE
  5
E711
100
AcDbEntity
  8
JOIST
100
AcDbLine
 10
75.860849
 20
86.818101
 30
0.0
 11
40.48918
 21
107.239943
 31
0.0
  0
LINE
  5
E712
100
AcDbEntity
  8
JOIST
100
AcDbLine
 10
75.832949
 20
86.801993
 30
0.0
 11
40.46128
 21
107.223835
 31
0.0
  0
POLYLINE
  5
E72C
100
AcDbEntity
  8
STUD
100
AcDb2dPolyline
 66
     1
 10
0.0
 20
0.0
 30
0.0
  0
VERTEX
  5
E72D
100
AcDbEntity
  8
STUD
100
AcDbVertex
100
AcDb2dVertex
 10
82.573099
 20
88.81842
 30
0.0
  0
VERTEX
  5
E72E
100
AcDbEntity
  8
STUD
100
AcDbVertex
100
AcDb2dVertex
 10
82.573099
 20
89.140589
 30
0.0
 42
0.267949
  0
VERTEX
  5
E72F
100
AcDbEntity
  8
STUD
100
AcDbVertex
100
AcDb2dVertex
 10
82.541849
 20
89.194716
 30
0.0
  0
VERTEX
  5
E730
100
AcDbEntity
  8
STUD
100
AcDbVertex
100
AcDb2dVertex
 10
81.259558
 20
89.935047
 30
0.0
 42
0.57735
  0
VERTEX
  5
E731
100
AcDbEntity
  8
STUD
100
AcDbVertex
100
AcDb2dVertex
 10
81.165808
 20
89.88092
 30
0.0
  0
VERTEX
  5
E732
100
AcDbEntity
  8
STUD
100
AcDbVertex
100
AcDb2dVertex
 10
81.165808
 20
89.63092
 30
0.0
 42
0.267949
  0
SEQEND
  5
E733
100
AcDbEntity
  8
STUD
  0
POLYLINE
  5
E734
100
AcDbEntity
  8
STUD
100
AcDb2dPolyline
 66
     1
 10
0.0
 20
0.0
 30
0.0
  0
VERTEX
  5
E735
100
AcDbEntity
  8
STUD
100
AcDbVertex
100
AcDb2dVertex
 10
81.200408
 20
89.610944
 30
0.0
  0
VERTEX
  5
E736
100
AcDbEntity
  8
STUD
100
AcDbVertex
100
AcDb2dVertex
 10
81.200408
 20
89.88092
 30
0.0
 42
-0.57735
  0
VERTEX
  5
E737
100
AcDbEntity
  8
STUD
100
AcDbVertex
100
AcDb2dVertex
 10
81.242258
 20
89.905082
 30
0.0
  0
VERTEX
  5
E738
100
AcDbEntity
  8
STUD
100
AcDbVertex
100
AcDb2dVertex
 10
82.524549
 20
89.164751
 30
0.0
 42
-0.267949
  0
VERTEX
  5
E739
100
AcDbEntity
  8
STUD
100
AcDbVertex
100
AcDb2dVertex
 10
82.538499
 20
89.140589
 30
0.0
  0
VERTEX
  5
E73A
100
AcDbEntity
  8
STUD
100
AcDbVertex
100
AcDb2dVertex
 10
82.538499
 20
88.838397
 30
0.0
  0
SEQEND
  5
E73B
100
AcDbEntity
  8
STUD
  0
POLYLINE
  5
E73C
100
AcDbEntity
  8
TRACK
100
AcDb2dPolyline
 66
     1
 10
0.0
 20
0.0
 30
0.0
  0
VERTEX
  5
E73D
100
AcDbEntity
  8
TRACK
100
AcDbVertex
100
AcDb2dVertex
 10
82.154036
 20
89.418619
 30
0.0
  0
VERTEX
  5
E73E
100
AcDbEntity
  8
TRACK
100
AcDbVertex
100
AcDb2dVertex
 10
81.84378
 20
89.239493
 30
0.0
 42
0.57735
  0
SEQEND
  5
E73F
100
AcDbEntity
  8
TRACK
  0
POLYLINE
  5
E740
100
AcDbEntity
  8
TRACK
100
AcDb2dPolyline
 66
     1
 10
0.0
 20
0.0
 30
0.0
  0
VERTEX
  5
E741
100
AcDbEntity
  8
TRACK
100
AcDbVertex
100
AcDb2dVertex
 10
81.803827
 20
89.262559
 30
0.0
  0
VERTEX
  5
E742
100
AcDbEntity
  8
TRACK
100
AcDbVertex
100
AcDb2dVertex
 10
82.114084
 20
89.441686
 30
0.0
 42
-0.267949
  0
SEQEND
  5
E743
100
AcDbEntity
  8
TRACK
  0
POLYLINE
  5
E744
100
AcDbEntity
  8
TRACK
100
AcDb2dPolyline
 66
     1
 10
0.0
 20
0.0
 30
0.0
  0
VERTEX
  5
E745
100
AcDbEntity
  8
TRACK
100
AcDbVertex
100
AcDb2dVertex
 10
82.213739
 20
86.94665
 30
0.0
  0
VERTEX
  5
E746
100
AcDbEntity
  8
TRACK
100
AcDbVertex
100
AcDb2dVertex
 10
82.213739
 20
84.203089
 30
0.0
  0
VERTEX
  5
E747
100
AcDbEntity
  8
TRACK
100
AcDbVertex
100
AcDb2dVertex
 10
82.173787
 20
84.180022
 30
0.0
  0
VERTEX
  5
E748
100
AcDbEntity
  8
TRACK
100
AcDbVertex
100
AcDb2dVertex
 10
80.925975
 20
84.900447
 30
0.0
 42
0.267949
  0
VERTEX
  5
E749
100
AcDbEntity
  8
TRACK
100
AcDbVertex
100
AcDb2dVertex
 10
80.863475
 20
84.900447
 30
0.0
  0
VERTEX
  5
E74A
100
AcDbEntity
  8
TRACK
100
AcDbVertex
100
AcDb2dVertex
 10
78.327899
 20
83.436531
 30
0.0
 42
0.57735
  0
SEQEND
  5
E74B
100
AcDbEntity
  8
TRACK
  0
LINE
  5
E754
100
AcDbEntity
  8
TRACK
100
AcDbLine
 10
69.744874
 20
81.207794
 30
0.0
 11
69.744874
 21
80.2248
 31
0.0
  0
LINE
  5
E75F
100
AcDbEntity
  8
JOIST
100
AcDbLine
 10
93.21651
 20
91.26495
 30
0.0
 11
94.377718
 21
90.594526
 31
0.0
  0
LINE
  5
E760
100
AcDbEntity
  8
JOIST
100
AcDbLine
 10
93.21651
 20
91.719197
 30
0.0
 11
104.084448
 21
85.44459
 31
0.0
  0
LINE
  5
E761
100
AcDbEntity
  8
JOIST
100
AcDbLine
 10
88.817753
 20
94.298773
 30
0.0
 11
55.486295
 21
113.542699
 31
0.0
  0
LINE
  5
E762
100
AcDbEntity
  8
JOIST
100
AcDbLine
 10
89.717255
 20
94.818101
 30
0.0
 11
56.385797
 21
114.062027
 31
0.0
  0
LINE
  5
E763
100
AcDbEntity
  8
JOIST
100
AcDbLine
 10
89.689355
 20
94.801993
 30
0.0
 11
56.357897
 21
114.045919
 31
0.0
  0
LINE
  5
E764
100
AcDbEntity
  8
STUD
100
AcDbLine
 10
91.38285
 20
88.371239
 30
0.0
 11
91.38285
 21
83.732108
 31
0.0
  0
LINE
  5
E765
100
AcDbEntity
  8
STUD
100
AcDbLine
 10
91.34825
 20
88.351263
 30
0.0
 11
91.34825
 21
83.752084
 31
0.0
  0
LINE
  5
E766
100
AcDbEntity
  8
STUD
100
AcDbLine
 10
91.776239
 20
88.598362
 30
0.0
 11
91.776239
 21
83.504985
 31
0.0
  0
LINE
  5
E767
100
AcDbEntity
  8
STUD
100
AcDbLine
 10
90.476648
 20
87.848043
 30
0.0
 11
90.476648
 21
84.255304
 31
0.0
  0
LINE
  5
E768
100
AcDbEntity
  8
STUD
100
AcDbLine
 10
90.448748
 20
87.831935
 30
0.0
 11
90.448748
 21
84.271412
 31
0.0
  0
LINE
  5
E769
100
AcDbEntity
  8
STUD
100
AcDbLine
 10
87.417106
 20
91.358825
 30
0.0
 11
87.417106
 21
89.956615
 31
0.0
  0
LINE
  5
E76A
100
AcDbEntity
  8
STUD
100
AcDbLine
 10
88.699397
 20
86.821947
 30
0.0
 11
88.699397
 21
85.2814
 31
0.0
  0
LINE
  5
E76B
100
AcDbEntity
  8
STUD
100
AcDbLine
 10
88.761897
 20
86.858031
 30
0.0
 11
88.761897
 21
85.245316
 31
0.0
  0
LINE
  5
E76C
100
AcDbEntity
  8
STUD
100
AcDbLine
 10
89.217787
 20
87.121239
 30
0.0
 11
89.217787
 21
84.982108
 31
0.0
  0
LINE
  5
E76D
100
AcDbEntity
  8
STUD
100
AcDbLine
 10
87.417106
 20
86.081615
 30
0.0
 11
87.417106
 21
86.021731
 31
0.0
  0
POLYLINE
  5
E76E
100
AcDbEntity
  8
TRACK
100
AcDb2dPolyline
 66
     1
 10
0.0
 20
0.0
 30
0.0
  0
VERTEX
  5
E76F
100
AcDbEntity
  8
TRACK
100
AcDbVertex
100
AcDb2dVertex
 10
102.423383
 20
99.647289
 30
0.0
  0
VERTEX
  5
E770
100
AcDbEntity
  8
TRACK
100
AcDbVertex
100
AcDb2dVertex
 10
102.423383
 20
95.897289
 30
0.0
  0
VERTEX
  5
E771
100
AcDbEntity
  8
TRACK
100
AcDbVertex
100
AcDb2dVertex
 10
102.38343
 20
95.874222
 30
0.0
  0
VERTEX
  5
E772
100
AcDbEntity
  8
TRACK
100
AcDbVertex
100
AcDb2dVertex
 10
101.135618
 20
96.594647
 30
0.0
 42
0.267949
  0
VERTEX
  5
E773
100
AcDbEntity
  8
TRACK
100
AcDbVertex
100
AcDb2dVertex
 10
101.073118
 20
96.594647
 30
0.0
  0
VERTEX
  5
E774
100
AcDbEntity
  8
TRACK
100
AcDbVertex
100
AcDb2dVertex
 10
98.945105
 20
95.366038
 30
0.0
 42
0.57735
  0
SEQEND
  5
E775
100
AcDbEntity
  8
TRACK
  0
LINE
  5
E776
100
AcDbEntity
  8
TRACK
100
AcDbLine
 10
99.518623
 20
95.697159
 30
0.0
 11
110.679998
 21
89.252533
 31
0.0
  0
LINE
  5
E777
100
AcDbEntity
  8
TRACK
100
AcDbLine
 10
96.27118
 20
97.61838
 30
0.0
 11
55.714227
 21
121.036273
 31
0.0
  0
LINE
  5
E778
100
AcDbEntity
  8
TRACK
100
AcDbLine
 10
97.518992
 20
98.338804
 30
0.0
 11
56.962039
 21
121.756697
 31
0.0
  0
LINE
  5
E779
100
AcDbEntity
  8
TRACK
100
AcDbLine
 10
97.581491
 20
98.374888
 30
0.0
 11
57.024537
 21
121.792781
 31
0.0
  0
POLYLINE
  5
E77A
100
AcDbEntity
  8
STUD
100
AcDb2dPolyline
 66
     1
 10
0.0
 20
0.0
 30
0.0
  0
VERTEX
  5
E77B
100
AcDbEntity
  8
STUD
100
AcDbVertex
100
AcDb2dVertex
 10
94.102062
 20
90.435376
 30
0.0
  0
VERTEX
  5
E77C
100
AcDbEntity
  8
STUD
100
AcDbVertex
100
AcDb2dVertex
 10
93.23046
 20
90.938596
 30
0.0
 42
-0.267949
  0
VERTEX
  5
E77D
100
AcDbEntity
  8
STUD
100
AcDbVertex
100
AcDb2dVertex
 10
93.21651
 20
90.962758
 30
0.0
  0
VERTEX
  5
E77E
100
AcDbEntity
  8
STUD
100
AcDbVertex
100
AcDb2dVertex
 10
93.21651
 20
92.032475
 30
0.0
 42
-0.57735
  0
SEQEND
  5
E77F
100
AcDbEntity
  8
STUD
  0
POLYLINE
  5
E780
100
AcDbEntity
  8
TRACK
100
AcDb2dPolyline
 66
     1
 10
0.0
 20
0.0
 30
0.0
  0
VERTEX
  5
E781
100
AcDbEntity
  8
TRACK
100
AcDbVertex
100
AcDb2dVertex
 10
96.070146
 20
94.94665
 30
0.0
  0
VERTEX
  5
E782
100
AcDbEntity
  8
TRACK
100
AcDbVertex
100
AcDb2dVertex
 10
96.070146
 20
92.203089
 30
0.0
  0
VERTEX
  5
E783
100
AcDbEntity
  8
TRACK
100
AcDbVertex
100
AcDb2dVertex
 10
96.030193
 20
92.180022
 30
0.0
  0
VERTEX
  5
E784
100
AcDbEntity
  8
TRACK
100
AcDbVertex
100
AcDb2dVertex
 10
94.782381
 20
92.900447
 30
0.0
 42
0.267949
  0
VERTEX
  5
E785
100
AcDbEntity
  8
TRACK
100
AcDbVertex
100
AcDb2dVertex
 10
94.719881
 20
92.900447
 30
0.0
  0
VERTEX
  5
E786
100
AcDbEntity
  8
TRACK
100
AcDbVertex
100
AcDb2dVertex
 10
92.184305
 20
91.436531
 30
0.0
 42
0.57735
  0
SEQEND
  5
E787
100
AcDbEntity
  8
TRACK
  0
LINE
  5
E788
100
AcDbEntity
  8
JOIST
100
AcDbLine
 10
94.589201
 20
90.472427
 30
0.0
 11
103.691058
 21
85.217467
 31
0.0
  0
LINE
  5
E79A
100
AcDbEntity
  8
STUD
100
AcDbLine
 10
87.417106
 20
94.613238
 30
0.0
 11
87.417106
 21
93.490109
 31
0.0
  0
LINE
  5
E79B
100
AcDbEntity
  8
STUD
100
AcDbLine
 10
91.38285
 20
100.440923
 30
0.0
 11
91.38285
 21
99.732108
 31
0.0
  0
LINE
  5
E79C
100
AcDbEntity
  8
STUD
100
AcDbLine
 10
91.34825
 20
100.460901
 30
0.0
 11
91.34825
 21
99.752084
 31
0.0
  0
LINE
  5
E79D
100
AcDbEntity
  8
STUD
100
AcDbLine
 10
91.776239
 20
100.213778
 30
0.0
 11
91.776239
 21
99.504985
 31
0.0
  0
LINE
  5
E79E
100
AcDbEntity
  8
STUD
100
AcDbLine
 10
90.476648
 20
100.964168
 30
0.0
 11
90.476648
 21
100.255304
 31
0.0
  0
LINE
  5
E79F
100
AcDbEntity
  8
STUD
100
AcDbLine
 10
90.448748
 20
100.980277
 30
0.0
 11
90.448748
 21
100.271412
 31
0.0
  0
LINE
  5
E7A0
100
AcDbEntity
  8
STUD
100
AcDbLine
 10
87.417106
 20
102.730761
 30
0.0
 11
87.417106
 21
102.021731
 31
0.0
  0
LINE
  5
E7A1
100
AcDbEntity
  8
STUD
100
AcDbLine
 10
88.699397
 20
101.99036
 30
0.0
 11
88.699397
 21
101.2814
 31
0.0
  0
LINE
  5
E7A2
100
AcDbEntity
  8
STUD
100
AcDbLine
 10
88.761897
 20
101.954272
 30
0.0
 11
88.761897
 21
101.245316
 31
0.0
  0
LINE
  5
E7A3
100
AcDbEntity
  8
STUD
100
AcDbLine
 10
89.217787
 20
101.69104
 30
0.0
 11
89.217787
 21
100.982108
 31
0.0
  0
LINE
  5
E7A4
100
AcDbEntity
  8
STUD
100
AcDbLine
 10
77.526444
 20
108.441672
 30
0.0
 11
77.526444
 21
107.732108
 31
0.0
  0
LINE
  5
E7A5
100
AcDbEntity
  8
STUD
100
AcDbLine
 10
77.491844
 20
108.46165
 30
0.0
 11
77.491844
 21
107.752084
 31
0.0
  0
LINE
  5
E7A6
100
AcDbEntity
  8
STUD
100
AcDbLine
 10
77.919833
 20
108.214527
 30
0.0
 11
77.919833
 21
107.504985
 31
0.0
  0
LINE
  5
E7A7
100
AcDbEntity
  8
STUD
100
AcDbLine
 10
76.620242
 20
108.964917
 30
0.0
 11
76.620242
 21
108.255304
 31
0.0
  0
LINE
  5
E7A8
100
AcDbEntity
  8
STUD
100
AcDbLine
 10
76.592342
 20
108.981026
 30
0.0
 11
76.592342
 21
108.271412
 31
0.0
  0
LINE
  5
E7A9
100
AcDbEntity
  8
STUD
100
AcDbLine
 10
73.5607
 20
110.731509
 30
0.0
 11
73.5607
 21
110.021731
 31
0.0
  0
LINE
  5
E7AA
100
AcDbEntity
  8
STUD
100
AcDbLine
 10
74.842991
 20
109.991109
 30
0.0
 11
74.842991
 21
109.2814
 31
0.0
  0
LINE
  5
E7AB
100
AcDbEntity
  8
STUD
100
AcDbLine
 10
74.905491
 20
109.955021
 30
0.0
 11
74.905491
 21
109.245316
 31
0.0
  0
LINE
  5
E7AC
100
AcDbEntity
  8
STUD
100
AcDbLine
 10
75.36138
 20
109.691789
 30
0.0
 11
75.36138
 21
108.982108
 31
0.0
  0
LINE
  5
E7AD
100
AcDbEntity
  8
STUD
100
AcDbLine
 10
75.36138
 20
101.573614
 30
0.0
 11
75.36138
 21
92.982108
 31
0.0
  0
LINE
  5
E7AE
100
AcDbEntity
  8
STUD
100
AcDbLine
 10
74.905491
 20
101.836822
 30
0.0
 11
74.905491
 21
93.245316
 31
0.0
  0
LINE
  5
E7AF
100
AcDbEntity
  8
STUD
100
AcDbLine
 10
74.842991
 20
101.872907
 30
0.0
 11
74.842991
 21
93.2814
 31
0.0
  0
LINE
  5
E7B0
100
AcDbEntity
  8
STUD
100
AcDbLine
 10
73.5607
 20
102.613238
 30
0.0
 11
73.5607
 21
94.021731
 31
0.0
  0
LINE
  5
E7B1
100
AcDbEntity
  8
STUD
100
AcDbLine
 10
76.592342
 20
100.862918
 30
0.0
 11
76.592342
 21
92.271412
 31
0.0
  0
LINE
  5
E7B2
100
AcDbEntity
  8
STUD
100
AcDbLine
 10
76.620242
 20
100.84681
 30
0.0
 11
76.620242
 21
92.255304
 31
0.0
  0
LINE
  5
E7B3
100
AcDbEntity
  8
STUD
100
AcDbLine
 10
77.919833
 20
100.096491
 30
0.0
 11
77.919833
 21
91.504985
 31
0.0
  0
LINE
  5
E7B4
100
AcDbEntity
  8
STUD
100
AcDbLine
 10
77.491844
 20
100.343591
 30
0.0
 11
77.491844
 21
91.752084
 31
0.0
  0
LINE
  5
E7B5
100
AcDbEntity
  8
STUD
100
AcDbLine
 10
77.526444
 20
100.323614
 30
0.0
 11
77.526444
 21
91.732108
 31
0.0
  0
POLYLINE
  5
E7B6
100
AcDbEntity
  8
STUD
100
AcDb2dPolyline
 66
     1
 10
0.0
 20
0.0
 30
0.0
  0
VERTEX
  5
E7B7
100
AcDbEntity
  8
STUD
100
AcDbVertex
100
AcDb2dVertex
 10
75.84239
 20
101.295903
 30
0.0
  0
VERTEX
  5
E7B8
100
AcDbEntity
  8
STUD
100
AcDbVertex
100
AcDb2dVertex
 10
75.84239
 20
100.910415
 30
0.0
 42
-0.267949
  0
VERTEX
  5
E7B9
100
AcDbEntity
  8
STUD
100
AcDbVertex
100
AcDb2dVertex
 10
75.71739
 20
100.693909
 30
0.0
  0
VERTEX
  5
E7BA
100
AcDbEntity
  8
STUD
100
AcDbVertex
100
AcDb2dVertex
 10
75.36138
 20
100.488366
 30
0.0
 42
-0.57735
  0
SEQEND
  5
E7BB
100
AcDbEntity
  8
STUD
  0
LINE
  5
E7BC
100
AcDbEntity
  8
STUD
100
AcDbLine
 10
105.239257
 20
92.394041
 30
0.0
 11
105.239257
 21
91.732108
 31
0.0
  0
LINE
  5
E7BD
100
AcDbEntity
  8
STUD
100
AcDbLine
 10
105.204657
 20
92.414019
 30
0.0
 11
105.204657
 21
91.752084
 31
0.0
  0
LINE
  5
E7BE
100
AcDbEntity
  8
STUD
100
AcDbLine
 10
105.632646
 20
92.166896
 30
0.0
 11
105.632646
 21
91.504985
 31
0.0
  0
LINE
  5
E7BF
100
AcDbEntity
  8
STUD
100
AcDbLine
 10
104.333055
 20
92.917286
 30
0.0
 11
104.333055
 21
92.255304
 31
0.0
  0
LINE
  5
E7C0
100
AcDbEntity
  8
STUD
100
AcDbLine
 10
104.305155
 20
92.933395
 30
0.0
 11
104.305155
 21
92.271412
 31
0.0
  0
LINE
  5
E7C1
100
AcDbEntity
  8
STUD
100
AcDbLine
 10
101.273513
 20
94.683878
 30
0.0
 11
101.273513
 21
94.021731
 31
0.0
  0
LINE
  5
E7C2
100
AcDbEntity
  8
STUD
100
AcDbLine
 10
102.555804
 20
93.943478
 30
0.0
 11
102.555804
 21
93.2814
 31
0.0
  0
LINE
  5
E7C3
100
AcDbEntity
  8
STUD
100
AcDbLine
 10
102.618304
 20
93.90739
 30
0.0
 11
102.618304
 21
93.245316
 31
0.0
  0
LINE
  5
E7C4
100
AcDbEntity
  8
STUD
100
AcDbLine
 10
103.074193
 20
93.644158
 30
0.0
 11
103.074193
 21
92.982108
 31
0.0
  0
LINE
  5
E7C5
100
AcDbEntity
  8
JOIST
100
AcDbLine
 10
94.697455
 20
95.739173
 30
0.0
 11
104.397867
 21
90.138638
 31
0.0
  0
LINE
  5
E7C6
100
AcDbEntity
  8
STUD
100
AcDbLine
 10
103.074193
 20
85.573614
 30
0.0
 11
103.074193
 21
84.86132
 31
0.0
  0
LINE
  5
E7C7
100
AcDbEntity
  8
STUD
100
AcDbLine
 10
102.618304
 20
85.836822
 30
0.0
 11
102.618304
 21
84.598112
 31
0.0
  0
LINE
  5
E7C8
100
AcDbEntity
  8
STUD
100
AcDbLine
 10
102.555804
 20
85.872907
 30
0.0
 11
102.555804
 21
84.562027
 31
0.0
  0
LINE
  5
E7C9
100
AcDbEntity
  8
STUD
100
AcDbLine
 10
101.273513
 20
91.942485
 30
0.0
 11
101.273513
 21
90.488238
 31
0.0
  0
LINE
  5
E7CA
100
AcDbEntity
  8
STUD
100
AcDbLine
 10
101.273513
 20
86.613238
 30
0.0
 11
101.273513
 21
83.821696
 31
0.0
  0
POLYLINE
  5
E7CB
100
AcDbEntity
  8
JOIST
100
AcDb2dPolyline
 66
     1
 10
0.0
 20
0.0
 30
0.0
  0
VERTEX
  5
E7CC
100
AcDbEntity
  8
JOIST
100
AcDbVertex
100
AcDb2dVertex
 10
101.887973
 20
91.587726
 30
0.0
 42
-0.119683
  0
VERTEX
  5
E7CD
100
AcDbEntity
  8
JOIST
100
AcDbVertex
100
AcDb2dVertex
 10
101.915817
 20
91.473065
 30
0.0
  0
VERTEX
  5
E7CE
100
AcDbEntity
  8
JOIST
100
AcDbVertex
100
AcDb2dVertex
 10
101.915817
 20
90.550416
 30
0.0
 42
-0.57735
  0
VERTEX
  5
E7CF
100
AcDbEntity
  8
JOIST
100
AcDbVertex
100
AcDb2dVertex
 10
101.540817
 20
90.333909
 30
0.0
  0
VERTEX
  5
E7D0
100
AcDbEntity
  8
JOIST
100
AcDbVertex
100
AcDb2dVertex
 10
99.226235
 20
91.670234
 30
0.0
 42
-0.267949
  0
VERTEX
  5
E7D1
100
AcDbEntity
  8
JOIST
100
AcDbVertex
100
AcDb2dVertex
 10
99.101235
 20
91.88674
 30
0.0
  0
VERTEX
  5
E7D2
100
AcDbEntity
  8
JOIST
100
AcDbVertex
100
AcDb2dVertex
 10
99.101235
 20
92.80939
 30
0.0
 42
-0.400475
  0
VERTEX
  5
E7D3
100
AcDbEntity
  8
JOIST
100
AcDbVertex
100
AcDb2dVertex
 10
99.339456
 20
93.059113
 30
0.0
  0
SEQEND
  5
E7D4
100
AcDbEntity
  8
JOIST
  0
LINE
  5
E7D7
100
AcDbEntity
  8
TRACK
100
AcDbLine
 10
117.12115
 20
92.971334
 30
0.0
 11
59.650169
 21
126.155321
 31
0.0
  0
LINE
  5
E7D8
100
AcDbEntity
  8
TRACK
100
AcDbLine
 10
115.915856
 20
92.275457
 30
0.0
 11
58.444879
 21
125.459447
 31
0.0
  0
LINE
  5
E7D9
100
AcDbEntity
  8
TRACK
100
AcDbLine
 10
110.719949
 20
89.275599
 30
0.0
 11
99.558574
 21
95.720225
 31
0.0
  0
LINE
  5
E7DA
100
AcDbEntity
  8
TRACK
100
AcDbLine
 10
111.967761
 20
89.996023
 30
0.0
 11
100.806386
 21
96.440649
 31
0.0
  0
LINE
  5
E7DB
100
AcDbEntity
  8
TRACK
100
AcDbLine
 10
112.030259
 20
90.032107
 30
0.0
 11
100.868885
 21
96.476733
 31
0.0
  0
LINE
  5
E91E
100
AcDbEntity
  8
FASTENER
100
AcDbLine
 10
88.198871
 20
104.589888
 30
0.0
 11
87.981146
 21
104.712752
 31
0.0
  0
LINE
  5
E91F
100
AcDbEntity
  8
FASTENER
100
AcDbLine
 10
88.090009
 20
104.77632
 30
0.0
 11
88.090009
 21
104.52632
 31
0.0
  0
ELLIPSE
  5
E920
100
AcDbEntity
  8
FASTENER
100
AcDbEllipse
 10
88.090009
 20
104.65132
 30
0.0
 11
0.0765465544619741
 21
-0.1325825214724725
 31
0.0
210
0.0
220
0.0
230
-1.0
 40
0.57735
 41
0.0000000000000337
 42
6.283185307179634
  0
LINE
  5
E940
100
AcDbEntity
  8
FASTENER
100
AcDbLine
 10
38.076421
 20
64.160572
 30
0.0
 11
37.861155
 21
64.287696
 31
0.0
  0
LINE
  5
E941
100
AcDbEntity
  8
FASTENER
100
AcDbLine
 10
37.860535
 20
64.161634
 30
0.0
 11
38.077041
 21
64.286634
 31
0.0
  0
ELLIPSE
  5
E942
100
AcDbEntity
  8
FASTENER
100
AcDbEllipse
 10
37.968788
 20
64.224134
 30
0.0
 11
0.153093108923944
 21
-0.0000000000000025
 31
0.0
210
0.0
220
0.0
230
1.0
 40
0.57735
 41
0.0000000000000286
 42
6.283185307179628
  0
ELLIPSE
  5
E943
100
AcDbEntity
  8
FASTENER
100
AcDbEllipse
 10
32.772636
 20
61.224134
 30
0.0
 11
0.153093108923944
 21
-0.0000000000000025
 31
0.0
210
0.0
220
0.0
230
1.0
 40
0.57735
 41
0.0000000000000286
 42
6.283185307179628
  0
LINE
  5
E944
100
AcDbEntity
  8
FASTENER
100
AcDbLine
 10
32.664383
 20
61.161634
 30
0.0
 11
32.880889
 21
61.286634
 31
0.0
  0
LINE
  5
E945
100
AcDbEntity
  8
FASTENER
100
AcDbLine
 10
32.880269
 20
61.160572
 30
0.0
 11
32.665003
 21
61.287696
 31
0.0
  0
ELLIPSE
  5
E946
100
AcDbEntity
  8
FASTENER
100
AcDbEllipse
 10
27.576483
 20
58.224134
 30
0.0
 11
0.153093108923944
 21
-0.0000000000000025
 31
0.0
210
0.0
220
0.0
230
1.0
 40
0.57735
 41
0.0000000000000286
 42
6.283185307179628
  0
LINE
  5
E947
100
AcDbEntity
  8
FASTENER
100
AcDbLine
 10
27.46823
 20
58.161634
 30
0.0
 11
27.684737
 21
58.286634
 31
0.0
  0
LINE
  5
E948
100
AcDbEntity
  8
FASTENER
100
AcDbLine
 10
27.684116
 20
58.160572
 30
0.0
 11
27.46885
 21
58.287696
 31
0.0
  0
ELLIPSE
  5
E949
100
AcDbEntity
  8
FASTENER
100
AcDbEllipse
 10
39.267826
 20
64.974134
 30
0.0
 11
0.153093108923944
 21
-0.0000000000000025
 31
0.0
210
0.0
220
0.0
230
1.0
 40
0.57735
 41
0.0000000000000286
 42
6.283185307179628
  0
LINE
  5
E94A
100
AcDbEntity
  8
FASTENER
100
AcDbLine
 10
39.159573
 20
64.911634
 30
0.0
 11
39.37608
 21
65.036634
 31
0.0
  0
LINE
  5
E94B
100
AcDbEntity
  8
FASTENER
100
AcDbLine
 10
39.375459
 20
64.910572
 30
0.0
 11
39.160193
 21
65.037696
 31
0.0
  0
ELLIPSE
  5
E94C
100
AcDbEntity
  8
FASTENER
100
AcDbEllipse
 10
53.124233
 20
72.974134
 30
0.0
 11
0.153093108923944
 21
-0.0000000000000025
 31
0.0
210
0.0
220
0.0
230
1.0
 40
0.57735
 41
0.0000000000000286
 42
6.283185307179628
  0
LINE
  5
E94D
100
AcDbEntity
  8
FASTENER
100
AcDbLine
 10
53.01598
 20
72.911634
 30
0.0
 11
53.232486
 21
73.036634
 31
0.0
  0
LINE
  5
E94E
100
AcDbEntity
  8
FASTENER
100
AcDbLine
 10
53.231866
 20
72.910572
 30
0.0
 11
53.0166
 21
73.037696
 31
0.0
  0
ELLIPSE
  5
E94F
100
AcDbEntity
  8
FASTENER
100
AcDbEllipse
 10
39.267826
 20
59.349134
 30
0.0
 11
0.076546554461972
 21
-0.0000000000000013
 31
0.0
210
0.0
220
0.0
230
1.0
 40
0.57735
 41
0.0000000000000286
 42
6.283185307179628
  0
LINE
  5
E950
100
AcDbEntity
  8
FASTENER
100
AcDbLine
 10
39.159573
 20
59.286634
 30
0.0
 11
39.37608
 21
59.411634
 31
0.0
  0
LINE
  5
E951
100
AcDbEntity
  8
FASTENER
100
AcDbLine
 10
39.375459
 20
59.285572
 30
0.0
 11
39.160193
 21
59.412696
 31
0.0
  0
ELLIPSE
  5
E952
100
AcDbEntity
  8
FASTENER
100
AcDbEllipse
 10
37.968788
 20
58.474134
 30
0.0
 11
0.076546554461972
 21
-0.0000000000000013
 31
0.0
210
0.0
220
0.0
230
1.0
 40
0.57735
 41
0.0000000000000286
 42
6.283185307179628
  0
LINE
  5
E953
100
AcDbEntity
  8
FASTENER
100
AcDbLine
 10
37.860535
 20
58.411634
 30
0.0
 11
38.077041
 21
58.536634
 31
0.0
  0
LINE
  5
E954
100
AcDbEntity
  8
FASTENER
100
AcDbLine
 10
38.076421
 20
58.410572
 30
0.0
 11
37.861155
 21
58.537696
 31
0.0
  0
LINE
  5
E955
100
AcDbEntity
  8
FASTENER
100
AcDbLine
 10
32.880269
 20
55.410572
 30
0.0
 11
32.665003
 21
55.537696
 31
0.0
  0
LINE
  5
E956
100
AcDbEntity
  8
FASTENER
100
AcDbLine
 10
32.664383
 20
55.411634
 30
0.0
 11
32.880889
 21
55.536634
 31
0.0
  0
ELLIPSE
  5
E957
100
AcDbEntity
  8
FASTENER
100
AcDbEllipse
 10
32.772636
 20
55.474134
 30
0.0
 11
0.076546554461972
 21
-0.0000000000000013
 31
0.0
210
0.0
220
0.0
230
1.0
 40
0.57735
 41
0.0000000000000286
 42
6.283185307179628
  0
LINE
  5
E958
100
AcDbEntity
  8
FASTENER
100
AcDbLine
 10
53.340119
 20
67.223072
 30
0.0
 11
53.124853
 21
67.350196
 31
0.0
  0
LINE
  5
E959
100
AcDbEntity
  8
FASTENER
100
AcDbLine
 10
53.124233
 20
67.224134
 30
0.0
 11
53.340739
 21
67.349134
 31
0.0
  0
ELLIPSE
  5
E95A
100
AcDbEntity
  8
FASTENER
100
AcDbEllipse
 10
53.232486
 20
67.286634
 30
0.0
 11
0.076546554461972
 21
-0.0000000000000013
 31
0.0
210
0.0
220
0.0
230
1.0
 40
0.57735
 41
0.0000000000000286
 42
6.283185307179628
  0
ELLIPSE
  5
E95B
100
AcDbEntity
  8
FASTENER
100
AcDbEllipse
 10
67.197146
 20
75.349134
 30
0.0
 11
0.076546554461972
 21
-0.0000000000000013
 31
0.0
210
0.0
220
0.0
230
1.0
 40
0.57735
 41
0.0000000000000286
 42
6.283185307179628
  0
LINE
  5
E95C
100
AcDbEntity
  8
FASTENER
100
AcDbLine
 10
67.088892
 20
75.286634
 30
0.0
 11
67.305399
 21
75.411634
 31
0.0
  0
LINE
  5
E95D
100
AcDbEntity
  8
FASTENER
100
AcDbLine
 10
67.304779
 20
75.285572
 30
0.0
 11
67.089513
 21
75.412696
 31
0.0
  0
LINE
  5
E95E
100
AcDbEntity
  8
FASTENER
100
AcDbLine
 10
67.196526
 20
80.973072
 30
0.0
 11
66.981259
 21
81.100196
 31
0.0
  0
LINE
  5
E95F
100
AcDbEntity
  8
FASTENER
100
AcDbLine
 10
66.980639
 20
80.974134
 30
0.0
 11
67.197146
 21
81.099134
 31
0.0
  0
ELLIPSE
  5
E960
100
AcDbEntity
  8
FASTENER
100
AcDbEllipse
 10
67.088892
 20
81.036634
 30
0.0
 11
0.153093108923944
 21
-0.0000000000000025
 31
0.0
210
0.0
220
0.0
230
1.0
 40
0.57735
 41
0.0000000000000286
 42
6.283185307179628
  0
ELLIPSE
  5
E964
100
AcDbEntity
  8
FASTENER
100
AcDbEllipse
 10
68.604437
 20
81.911634
 30
0.0
 11
0.153093108923944
 21
-0.0000000000000025
 31
0.0
210
0.0
220
0.0
230
1.0
 40
0.57735
 41
0.0000000000000286
 42
6.283185307179628
  0
LINE
  5
E965
100
AcDbEntity
  8
FASTENER
100
AcDbLine
 10
68.496184
 20
81.849134
 30
0.0
 11
68.71269
 21
81.974134
 31
0.0
  0
LINE
  5
E966
100
AcDbEntity
  8
FASTENER
100
AcDbLine
 10
68.71207
 20
81.848072
 30
0.0
 11
68.496804
 21
81.975196
 31
0.0
  0
LINE
  5
E967
100
AcDbEntity
  8
FASTENER
100
AcDbLine
 10
73.908222
 20
84.848072
 30
0.0
 11
73.692956
 21
84.975196
 31
0.0
  0
LINE
  5
E968
100
AcDbEntity
  8
FASTENER
100
AcDbLine
 10
73.692336
 20
84.849134
 30
0.0
 11
73.908843
 21
84.974134
 31
0.0
  0
ELLIPSE
  5
E969
100
AcDbEntity
  8
FASTENER
100
AcDbEllipse
 10
73.800589
 20
84.911634
 30
0.0
 11
0.153093108923944
 21
-0.0000000000000025
 31
0.0
210
0.0
220
0.0
230
1.0
 40
0.57735
 41
0.0000000000000286
 42
6.283185307179628
  0
ELLIPSE
  5
E96A
100
AcDbEntity
  8
FASTENER
100
AcDbEllipse
 10
73.908843
 20
79.224134
 30
0.0
 11
0.076546554461972
 21
-0.0000000000000013
 31
0.0
210
0.0
220
0.0
230
1.0
 40
0.57735
 41
0.0000000000000286
 42
6.283185307179628
  0
LINE
  5
E96B
100
AcDbEntity
  8
FASTENER
100
AcDbLine
 10
73.800589
 20
79.161634
 30
0.0
 11
74.017096
 21
79.286634
 31
0.0
  0
LINE
  5
E96C
100
AcDbEntity
  8
FASTENER
100
AcDbLine
 10
74.016476
 20
79.160572
 30
0.0
 11
73.801209
 21
79.287696
 31
0.0
  0
LINE
  5
E96D
100
AcDbEntity
  8
FASTENER
100
AcDbLine
 10
79.104375
 20
87.848072
 30
0.0
 11
78.889109
 21
87.975196
 31
0.0
  0
LINE
  5
E96E
100
AcDbEntity
  8
FASTENER
100
AcDbLine
 10
78.888489
 20
87.849134
 30
0.0
 11
79.104995
 21
87.974134
 31
0.0
  0
ELLIPSE
  5
E96F
100
AcDbEntity
  8
FASTENER
100
AcDbEllipse
 10
78.996742
 20
87.911634
 30
0.0
 11
0.153093108923944
 21
-0.0000000000000025
 31
0.0
210
0.0
220
0.0
230
1.0
 40
0.57735
 41
0.0000000000000286
 42
6.283185307179628
  0
ELLIPSE
  5
E970
100
AcDbEntity
  8
FASTENER
100
AcDbEllipse
 10
79.104995
 20
82.224134
 30
0.0
 11
0.076546554461972
 21
-0.0000000000000013
 31
0.0
210
0.0
220
0.0
230
1.0
 40
0.57735
 41
0.0000000000000286
 42
6.283185307179628
  0
LINE
  5
E971
100
AcDbEntity
  8
FASTENER
100
AcDbLine
 10
78.996742
 20
82.161634
 30
0.0
 11
79.213248
 21
82.286634
 31
0.0
  0
LINE
  5
E972
100
AcDbEntity
  8
FASTENER
100
AcDbLine
 10
79.212628
 20
82.160572
 30
0.0
 11
78.997362
 21
82.287696
 31
0.0
  0
POLYLINE
  5
E973
100
AcDbEntity
  8
STUD
100
AcDb2dPolyline
 66
     1
 10
0.0
 20
0.0
 30
0.0
  0
VERTEX
  5
E974
100
AcDbEntity
  8
STUD
100
AcDbVertex
100
AcDb2dVertex
 10
75.84239
 20
79.39895
 30
0.0
  0
VERTEX
  5
E975
100
AcDbEntity
  8
STUD
100
AcDbVertex
100
AcDb2dVertex
 10
75.84239
 20
76.910415
 30
0.0
 42
-0.186862
  0
VERTEX
  5
E976
100
AcDbEntity
  8
STUD
100
AcDbVertex
100
AcDb2dVertex
 10
75.777188
 20
76.742041
 30
0.0
  0
SEQEND
  5
E977
100
AcDbEntity
  8
STUD
  0
LINE
  5
E978
100
AcDbEntity
  8
JOIST
100
AcDbLine
 10
80.732795
 20
82.472427
 30
0.0
 11
89.834652
 21
77.217467
 31
0.0
  0
LINE
  5
E979
100
AcDbEntity
  8
JOIST
100
AcDbLine
 10
80.732795
 20
87.801673
 30
0.0
 11
90.921449
 21
81.919251
 31
0.0
  0
POLYLINE
  5
E97A
100
AcDbEntity
  8
STUD
100
AcDb2dPolyline
 66
     1
 10
0.0
 20
0.0
 30
0.0
  0
VERTEX
  5
E97B
100
AcDbEntity
  8
STUD
100
AcDbVertex
100
AcDb2dVertex
 10
84.800607
 20
89.900226
 30
0.0
 42
0.119683
  0
VERTEX
  5
E97C
100
AcDbEntity
  8
STUD
100
AcDbVertex
100
AcDb2dVertex
 10
84.772762
 20
89.785565
 30
0.0
  0
VERTEX
  5
E97D
100
AcDbEntity
  8
STUD
100
AcDbVertex
100
AcDb2dVertex
 10
84.772762
 20
88.862916
 30
0.0
 42
0.57735
  0
VERTEX
  5
E97E
100
AcDbEntity
  8
STUD
100
AcDbVertex
100
AcDb2dVertex
 10
85.147762
 20
88.646409
 30
0.0
  0
VERTEX
  5
E97F
100
AcDbEntity
  8
STUD
100
AcDbVertex
100
AcDb2dVertex
 10
87.462345
 20
89.982734
 30
0.0
 42
0.267949
  0
VERTEX
  5
E980
100
AcDbEntity
  8
STUD
100
AcDbVertex
100
AcDb2dVertex
 10
87.587345
 20
90.19924
 30
0.0
  0
VERTEX
  5
E981
100
AcDbEntity
  8
STUD
100
AcDbVertex
100
AcDb2dVertex
 10
87.587345
 20
91.12189
 30
0.0
 42
0.400475
  0
VERTEX
  5
E982
100
AcDbEntity
  8
STUD
100
AcDbVertex
100
AcDb2dVertex
 10
87.349124
 20
91.371613
 30
0.0
  0
SEQEND
  5
E983
100
AcDbEntity
  8
STUD
  0
POLYLINE
  5
E984
100
AcDbEntity
  8
JOIST
100
AcDb2dPolyline
 66
     1
 10
0.0
 20
0.0
 30
0.0
  0
VERTEX
  5
E985
100
AcDbEntity
  8
JOIST
100
AcDbVertex
100
AcDb2dVertex
 10
67.246956
 20
95.587726
 30
0.0
 42
-0.119683
  0
VERTEX
  5
E986
100
AcDbEntity
  8
JOIST
100
AcDbVertex
100
AcDb2dVertex
 10
67.274801
 20
95.473065
 30
0.0
  0
VERTEX
  5
E987
100
AcDbEntity
  8
JOIST
100
AcDbVertex
100
AcDb2dVertex
 10
67.274801
 20
94.550416
 30
0.0
 42
-0.57735
  0
VERTEX
  5
E988
100
AcDbEntity
  8
JOIST
100
AcDbVertex
100
AcDb2dVertex
 10
66.899801
 20
94.333909
 30
0.0
  0
VERTEX
  5
E989
100
AcDbEntity
  8
JOIST
100
AcDbVertex
100
AcDb2dVertex
 10
64.585219
 20
95.670234
 30
0.0
 42
-0.267949
  0
VERTEX
  5
E98A
100
AcDbEntity
  8
JOIST
100
AcDbVertex
100
AcDb2dVertex
 10
64.460219
 20
95.88674
 30
0.0
  0
VERTEX
  5
E98B
100
AcDbEntity
  8
JOIST
100
AcDbVertex
100
AcDb2dVertex
 10
64.460219
 20
96.80939
 30
0.0
 42
-0.400475
  0
VERTEX
  5
E98C
100
AcDbEntity
  8
JOIST
100
AcDbVertex
100
AcDb2dVertex
 10
64.69844
 20
97.059113
 30
0.0
  0
SEQEND
  5
E98D
100
AcDbEntity
  8
JOIST
  0
POLYLINE
  5
E98E
100
AcDbEntity
  8
JOIST
100
AcDb2dPolyline
 66
     1
 10
0.0
 20
0.0
 30
0.0
  0
VERTEX
  5
E98F
100
AcDbEntity
  8
JOIST
100
AcDbVertex
100
AcDb2dVertex
 10
53.39055
 20
87.587726
 30
0.0
 42
-0.119683
  0
VERTEX
  5
E990
100
AcDbEntity
  8
JOIST
100
AcDbVertex
100
AcDb2dVertex
 10
53.418395
 20
87.473065
 30
0.0
  0
VERTEX
  5
E991
100
AcDbEntity
  8
JOIST
100
AcDbVertex
100
AcDb2dVertex
 10
53.418395
 20
86.550416
 30
0.0
 42
-0.57735
  0
VERTEX
  5
E992
100
AcDbEntity
  8
JOIST
100
AcDbVertex
100
AcDb2dVertex
 10
53.043395
 20
86.333909
 30
0.0
  0
VERTEX
  5
E993
100
AcDbEntity
  8
JOIST
100
AcDbVertex
100
AcDb2dVertex
 10
50.728812
 20
87.670234
 30
0.0
 42
-0.267949
  0
VERTEX
  5
E994
100
AcDbEntity
  8
JOIST
100
AcDbVertex
100
AcDb2dVertex
 10
50.603812
 20
87.88674
 30
0.0
  0
VERTEX
  5
E995
100
AcDbEntity
  8
JOIST
100
AcDbVertex
100
AcDb2dVertex
 10
50.603812
 20
88.80939
 30
0.0
 42
-0.400475
  0
VERTEX
  5
E996
100
AcDbEntity
  8
JOIST
100
AcDbVertex
100
AcDb2dVertex
 10
50.842033
 20
89.059113
 30
0.0
  0
SEQEND
  5
E997
100
AcDbEntity
  8
JOIST
  0
TEXT
  5
E9F8
100
AcDbEntity
  8
LINK
 62
     1
100
AcDbText
 10
101.088497
 20
4.226935
 30
0.0
 40
2.565
  1
Cemco drawing list
  7
BLOCK
 72
     1
 11
121.059562
 21
4.226935
 31
0.0
100
AcDbText
1001
PE_URL
1000
Cemco_drawings.htm
  0
TEXT
  5
E9F9
100
AcDbEntity
  8
LINK
 62
     1
100
AcDbText
 10
101.088497
 20
8.726935
 30
0.0
 40
2.565
  1
Asembly drawing 10
  7
BLOCK
 72
     1
 11
121.059562
 21
8.726935
 31
0.0
100
AcDbText
1001
PE_URL
1000
6020-010.dwf
  0
TEXT
  5
E9FA
100
AcDbEntity
  8
LINK
 62
     1
100
AcDbText
 10
116.574864
 20
-0.273065
 30
0.0
 40
2.565
  1
home
  7
BLOCK
 72
     1
 11
121.059562
 21
-0.273065
 31
0.0
100
AcDbText
1001
PE_URL
1000
http://www.cemcosteel.com/
  0
INSERT
  5
EE09
100
AcDbEntity
  8
DETAIL_NO
100
AcDbBlockReference
 66
     1
  2
DETAIL_MARK
 10
0.439597
 20
103.346945
 30
0.0
1001
PE_URL
1000
6020-025.dwf
  0
ATTRIB
  5
EE0A
100
AcDbEntity
  8
0
100
AcDbText
 10
-0.181093
 20
104.312462
 30
0.0
 40
2.0
  1
-
  7
ARCH
 72
     1
 11
0.439597
 21
103.346945
 31
0.0
100
AcDbAttribute
  2
DETAIL_#
 70
     0
 74
     1
  0
ATTRIB
  5
EE0B
100
AcDbEntity
  8
0
100
AcDbText
 10
-3.456955
 20
100.562462
 30
0.0
 40
2.0
  1
D-25
  7
ARCH
 72
     1
 11
0.439597
 21
99.596945
 31
0.0
100
AcDbAttribute
  2
DETAIL_PAGE
 70
     0
 74
     1
  0
SEQEND
  5
EE0C
100
AcDbEntity
  8
DETAIL_NO
  0
TEXT
  5
EE42
100
AcDbEntity
  8
LINK
 62
     1
100
AcDbText
 10
102.189519
 20
13.226935
 30
0.0
 40
2.565
  1
Asembly drawing 9
  7
BLOCK
 72
     1
 11
121.059562
 21
13.226935
 31
0.0
100
AcDbText
1001
PE_URL
1000
6020-009.dwf
  0
POLYLINE
  5
EE5B
100
AcDbEntity
  8
STEEL
100
AcDb2dPolyline
 66
     1
 10
0.0
 20
0.0
 30
0.0
  0
VERTEX
  5
EE5C
100
AcDbEntity
  8
STEEL
100
AcDbVertex
100
AcDb2dVertex
 10
452.58445
 20
375.152039
 30
0.0
  0
SEQEND
  5
EE5D
100
AcDbEntity
  8
STEEL
  0
INSERT
  5
EE5E
100
AcDbEntity
  8
0
100
AcDbBlockReference
  2
CEMCO_BLANK
 10
-458.830198
 20
325.6031
 30
0.0
 41
0.5
 42
0.5
 43
-0.5
210
0.0
220
0.0
230
-1.0
  0
POLYLINE
  5
F1C0
100
AcDbEntity
  8
TRACK
100
AcDb2dPolyline
 66
     1
 10
0.0
 20
0.0
 30
0.0
  0
VERTEX
  5
F1C1
100
AcDbEntity
  8
TRACK
100
AcDbVertex
100
AcDb2dVertex
 10
302.731286
 20
195.235897
 30
0.0
  0
SEQEND
  5
F1C2
100
AcDbEntity
  8
TRACK
  0
TEXT
  5
F1EB
100
AcDbEntity
  8
TEXT
100
AcDbText
 10
13.026807
 20
5.90218
 30
0.0
 40
4.5
  1
SOLID BLOCKING
  7
BLOCK
100
AcDbText
  0
TEXT
  5
F1EC
100
AcDbEntity
  8
TEXT
100
AcDbText
 10
41.694622
 20
-0.572446
 30
0.0
 40
3.42
  1
N.T.S.
  7
BLOCK
 72
     1
 11
50.226009
 21
-0.572446
 31
0.0
100
AcDbText
  0
TEXT
  5
F1ED
100
AcDbEntity
  8
TEXT
100
AcDbText
 39
3.6
 10
0.027161
 20
1.517715
 30
0.0
 40
6.0
  1
26
  7
BLOCK
 72
     4
 11
5.269261
 21
4.4503
 31
0.0
100
AcDbText
  0
CIRCLE
  5
F1EE
100
AcDbEntity
  8
TEXT
100
AcDbCircle
 10
5.269261
 20
4.4503
 30
0.0
 40
6.231115
1001
PE_URL
1000
6020-009.dwf
  0
POLYLINE
  5
F1EF
100
AcDbEntity
  8
TEXT
100
AcDb2dPolyline
 66
     1
 10
0.0
 20
0.0
 30
0.0
 40
0.6
 41
0.6
  0
VERTEX
  5
F1F0
100
AcDbEntity
  8
TEXT
100
AcDbVertex
100
AcDb2dVertex
 10
11.500376
 20
4.4503
 30
0.0
  0
VERTEX
  5
F1F1
100
AcDbEntity
  8
TEXT
100
AcDbVertex
100
AcDb2dVertex
 10
74.943182
 20
4.4503
 30
0.0
  0
SEQEND
  5
F1F2
100
AcDbEntity
  8
TEXT
  0
POLYLINE
  5
F24D
100
AcDbEntity
  8
JOIST
100
AcDb2dPolyline
 66
     1
 10
0.0
 20
0.0
 30
0.0
 70
     1
  0
VERTEX
  5
F24E
100
AcDbEntity
  8
JOIST
100
AcDbVertex
100
AcDb2dVertex
 10
-9.060434
 20
75.689572
 30
0.0
 42
-0.267949
  0
VERTEX
  5
F24F
100
AcDbEntity
  8
JOIST
100
AcDbVertex
100
AcDb2dVertex
 10
-8.935434
 20
75.473065
 30
0.0
  0
VERTEX
  5
F250
100
AcDbEntity
  8
JOIST
100
AcDbVertex
100
AcDb2dVertex
 10
-8.935434
 20
74.550416
 30
0.0
 42
-0.57735
  0
VERTEX
  5
F251
100
AcDbEntity
  8
JOIST
100
AcDbVertex
100
AcDb2dVertex
 10
-9.310434
 20
74.333909
 30
0.0
  0
VERTEX
  5
F252
100
AcDbEntity
  8
JOIST
100
AcDbVertex
100
AcDb2dVertex
 10
-11.625017
 20
75.670234
 30
0.0
 42
-0.267949
  0
VERTEX
  5
F253
100
AcDbEntity
  8
JOIST
100
AcDbVertex
100
AcDb2dVertex
 10
-11.750017
 20
75.88674
 30
0.0
  0
VERTEX
  5
F254
100
AcDbEntity
  8
JOIST
100
AcDbVertex
100
AcDb2dVertex
 10
-11.750017
 20
76.80939
 30
0.0
 42
-0.57735
  0
VERTEX
  5
F255
100
AcDbEntity
  8
JOIST
100
AcDbVertex
100
AcDb2dVertex
 10
-11.375017
 20
77.025897
 30
0.0
  0
SEQEND
  5
F256
100
AcDbEntity
  8
JOIST
  0
POLYLINE
  5
F257
100
AcDbEntity
  8
JOIST
100
AcDb2dPolyline
 66
     1
 10
0.0
 20
0.0
 30
0.0
  0
VERTEX
  5
F258
100
AcDbEntity
  8
JOIST
100
AcDbVertex
100
AcDb2dVertex
 10
4.893127
 20
83.587726
 30
0.0
 42
-0.119683
  0
VERTEX
  5
F259
100
AcDbEntity
  8
JOIST
100
AcDbVertex
100
AcDb2dVertex
 10
4.920972
 20
83.473065
 30
0.0
  0
VERTEX
  5
F25A
100
AcDbEntity
  8
JOIST
100
AcDbVertex
100
AcDb2dVertex
 10
4.920972
 20
82.550416
 30
0.0
 42
-0.57735
  0
VERTEX
  5
F25B
100
AcDbEntity
  8
JOIST
100
AcDbVertex
100
AcDb2dVertex
 10
4.545972
 20
82.333909
 30
0.0
  0
VERTEX
  5
F25C
100
AcDbEntity
  8
JOIST
100
AcDbVertex
100
AcDb2dVertex
 10
2.23139
 20
83.670234
 30
0.0
 42
-0.267949
  0
VERTEX
  5
F25D
100
AcDbEntity
  8
JOIST
100
AcDbVertex
100
AcDb2dVertex
 10
2.10639
 20
83.88674
 30
0.0
  0
VERTEX
  5
F25E
100
AcDbEntity
  8
JOIST
100
AcDbVertex
100
AcDb2dVertex
 10
2.10639
 20
84.80939
 30
0.0
 42
-0.400475
  0
VERTEX
  5
F25F
100
AcDbEntity
  8
JOIST
100
AcDbVertex
100
AcDb2dVertex
 10
2.344611
 20
85.059113
 30
0.0
  0
SEQEND
  5
F260
100
AcDbEntity
  8
JOIST
  0
POLYLINE
  5
F261
100
AcDbEntity
  8
JOIST
100
AcDb2dPolyline
 66
     1
 10
0.0
 20
0.0
 30
0.0
  0
VERTEX
  5
F262
100
AcDbEntity
  8
JOIST
100
AcDbVertex
100
AcDb2dVertex
 10
18.749534
 20
91.587726
 30
0.0
 42
-0.119683
  0
VERTEX
  5
F263
100
AcDbEntity
  8
JOIST
100
AcDbVertex
100
AcDb2dVertex
 10
18.777379
 20
91.473065
 30
0.0
  0
VERTEX
  5
F264
100
AcDbEntity
  8
JOIST
100
AcDbVertex
100
AcDb2dVertex
 10
18.777379
 20
90.550416
 30
0.0
 42
-0.57735
  0
VERTEX
  5
F265
100
AcDbEntity
  8
JOIST
100
AcDbVertex
100
AcDb2dVertex
 10
18.402379
 20
90.333909
 30
0.0
  0
VERTEX
  5
F266
100
AcDbEntity
  8
JOIST
100
AcDbVertex
100
AcDb2dVertex
 10
16.087796
 20
91.670234
 30
0.0
 42
-0.267949
  0
VERTEX
  5
F267
100
AcDbEntity
  8
JOIST
100
AcDbVertex
100
AcDb2dVertex
 10
15.962796
 20
91.88674
 30
0.0
  0
VERTEX
  5
F268
100
AcDbEntity
  8
JOIST
100
AcDbVertex
100
AcDb2dVertex
 10
15.962796
 20
92.80939
 30
0.0
 42
-0.400475
  0
VERTEX
  5
F269
100
AcDbEntity
  8
JOIST
100
AcDbVertex
100
AcDb2dVertex
 10
16.201017
 20
93.059113
 30
0.0
  0
SEQEND
  5
F26A
100
AcDbEntity
  8
JOIST
  0
POLYLINE
  5
F26B
100
AcDbEntity
  8
JOIST
100
AcDb2dPolyline
 66
     1
 10
0.0
 20
0.0
 30
0.0
  0
VERTEX
  5
F26C
100
AcDbEntity
  8
JOIST
100
AcDbVertex
100
AcDb2dVertex
 10
32.60594
 20
99.587726
 30
0.0
 42
-0.119683
  0
VERTEX
  5
F26D
100
AcDbEntity
  8
JOIST
100
AcDbVertex
100
AcDb2dVertex
 10
32.633785
 20
99.473065
 30
0.0
  0
VERTEX
  5
F26E
100
AcDbEntity
  8
JOIST
100
AcDbVertex
100
AcDb2dVertex
 10
32.633785
 20
98.550416
 30
0.0
 42
-0.57735
  0
VERTEX
  5
F26F
100
AcDbEntity
  8
JOIST
100
AcDbVertex
100
AcDb2dVertex
 10
32.258785
 20
98.333909
 30
0.0
  0
VERTEX
  5
F270
100
AcDbEntity
  8
JOIST
100
AcDbVertex
100
AcDb2dVertex
 10
29.944202
 20
99.670234
 30
0.0
 42
-0.267949
  0
VERTEX
  5
F271
100
AcDbEntity
  8
JOIST
100
AcDbVertex
100
AcDb2dVertex
 10
29.819202
 20
99.88674
 30
0.0
  0
VERTEX
  5
F272
100
AcDbEntity
  8
JOIST
100
AcDbVertex
100
AcDb2dVertex
 10
29.819202
 20
100.80939
 30
0.0
 42
-0.400475
  0
VERTEX
  5
F273
100
AcDbEntity
  8
JOIST
100
AcDbVertex
100
AcDb2dVertex
 10
30.057424
 20
101.059113
 30
0.0
  0
SEQEND
  5
F274
100
AcDbEntity
  8
JOIST
  0
POLYLINE
  5
F275
100
AcDbEntity
  8
JOIST
100
AcDb2dPolyline
 66
     1
 10
0.0
 20
0.0
 30
0.0
  0
VERTEX
  5
F276
100
AcDbEntity
  8
JOIST
100
AcDbVertex
100
AcDb2dVertex
 10
46.462347
 20
107.587726
 30
0.0
 42
-0.119683
  0
VERTEX
  5
F277
100
AcDbEntity
  8
JOIST
100
AcDbVertex
100
AcDb2dVertex
 10
46.490191
 20
107.473065
 30
0.0
  0
VERTEX
  5
F278
100
AcDbEntity
  8
JOIST
100
AcDbVertex
100
AcDb2dVertex
 10
46.490191
 20
106.550416
 30
0.0
 42
-0.57735
  0
VERTEX
  5
F279
100
AcDbEntity
  8
JOIST
100
AcDbVertex
100
AcDb2dVertex
 10
46.115191
 20
106.333909
 30
0.0
  0
VERTEX
  5
F27A
100
AcDbEntity
  8
JOIST
100
AcDbVertex
100
AcDb2dVertex
 10
43.800609
 20
107.670234
 30
0.0
 42
-0.267949
  0
VERTEX
  5
F27B
100
AcDbEntity
  8
JOIST
100
AcDbVertex
100
AcDb2dVertex
 10
43.675609
 20
107.88674
 30
0.0
  0
VERTEX
  5
F27C
100
AcDbEntity
  8
JOIST
100
AcDbVertex
100
AcDb2dVertex
 10
43.675609
 20
108.80939
 30
0.0
 42
-0.400475
  0
VERTEX
  5
F27D
100
AcDbEntity
  8
JOIST
100
AcDbVertex
100
AcDb2dVertex
 10
43.91383
 20
109.059113
 30
0.0
  0
SEQEND
  5
F27E
100
AcDbEntity
  8
JOIST
  0
POLYLINE
  5
F27F
100
AcDbEntity
  8
JOIST
100
AcDb2dPolyline
 66
     1
 10
0.0
 20
0.0
 30
0.0
 70
     1
  0
VERTEX
  5
F280
100
AcDbEntity
  8
JOIST
100
AcDbVertex
100
AcDb2dVertex
 10
60.221598
 20
115.689572
 30
0.0
 42
-0.267949
  0
VERTEX
  5
F281
100
AcDbEntity
  8
JOIST
100
AcDbVertex
100
AcDb2dVertex
 10
60.346598
 20
115.473065
 30
0.0
  0
VERTEX
  5
F282
100
AcDbEntity
  8
JOIST
100
AcDbVertex
100
AcDb2dVertex
 10
60.346598
 20
114.550416
 30
0.0
 42
-0.57735
  0
VERTEX
  5
F283
100
AcDbEntity
  8
JOIST
100
AcDbVertex
100
AcDb2dVertex
 10
59.971598
 20
114.333909
 30
0.0
  0
VERTEX
  5
F284
100
AcDbEntity
  8
JOIST
100
AcDbVertex
100
AcDb2dVertex
 10
57.657015
 20
115.670234
 30
0.0
 42
-0.267949
  0
VERTEX
  5
F285
100
AcDbEntity
  8
JOIST
100
AcDbVertex
100
AcDb2dVertex
 10
57.532015
 20
115.88674
 30
0.0
  0
VERTEX
  5
F286
100
AcDbEntity
  8
JOIST
100
AcDbVertex
100
AcDb2dVertex
 10
57.532015
 20
116.80939
 30
0.0
 42
-0.57735
  0
VERTEX
  5
F287
100
AcDbEntity
  8
JOIST
100
AcDbVertex
100
AcDb2dVertex
 10
57.907015
 20
117.025897
 30
0.0
  0
SEQEND
  5
F288
100
AcDbEntity
  8
JOIST
  0
LINE
  5
F547
100
AcDbEntity
  8
JOIST
100
AcDbLine
 10
101.828323
 20
38.140123
 30
0.0
 11
109.186664
 21
33.891783
 31
0.0
  0
POLYLINE
  5
F553
100
AcDbEntity
  8
JOIST
  6
HIDDEN2
100
AcDb2dPolyline
 66
     1
 10
0.0
 20
0.0
 30
0.0
  0
VERTEX
  5
F554
100
AcDbEntity
  8
JOIST
  6
HIDDEN2
100
AcDbVertex
100
AcDb2dVertex
 10
103.315769
 20
39.31484
 30
0.0
  0
VERTEX
  5
F555
100
AcDbEntity
  8
JOIST
  6
HIDDEN2
100
AcDbVertex
100
AcDb2dVertex
 10
102.309807
 20
39.895632
 30
0.0
 42
-0.267949
  0
SEQEND
  5
F556
100
AcDbEntity
  8
JOIST
  0
POLYLINE
  5
F557
100
AcDbEntity
  8
JOIST
  6
HIDDEN2
100
AcDb2dPolyline
 66
     1
 10
0.0
 20
0.0
 30
0.0
  0
VERTEX
  5
F558
100
AcDbEntity
  8
JOIST
  6
HIDDEN2
100
AcDbVertex
100
AcDb2dVertex
 10
102.309807
 20
39.895632
 30
0.0
 42
-0.267949
  0
VERTEX
  5
F559
100
AcDbEntity
  8
JOIST
  6
HIDDEN2
100
AcDbVertex
100
AcDb2dVertex
 10
102.184807
 20
40.112138
 30
0.0
  0
VERTEX
  5
F55A
100
AcDbEntity
  8
JOIST
  6
HIDDEN2
100
AcDbVertex
100
AcDb2dVertex
 10
102.184807
 20
41.034788
 30
0.0
 42
-0.57735
  0
VERTEX
  5
F55B
100
AcDbEntity
  8
JOIST
  6
HIDDEN2
100
AcDbVertex
100
AcDb2dVertex
 10
102.559807
 20
41.251294
 30
0.0
  0
VERTEX
  5
F55C
100
AcDbEntity
  8
JOIST
  6
HIDDEN2
100
AcDbVertex
100
AcDb2dVertex
 10
103.315769
 20
40.81484
 30
0.0
 42
-0.267949
  0
SEQEND
  5
F55D
100
AcDbEntity
  8
JOIST
  6
HIDDEN2
  0
POLYLINE
  5
F55E
100
AcDbEntity
  8
JOIST
100
AcDb2dPolyline
 66
     1
 10
0.0
 20
0.0
 30
0.0
  0
VERTEX
  5
F55F
100
AcDbEntity
  8
JOIST
100
AcDbVertex
100
AcDb2dVertex
 10
103.315769
 20
40.81484
 30
0.0
  0
VERTEX
  5
F560
100
AcDbEntity
  8
JOIST
100
AcDbVertex
100
AcDb2dVertex
 10
104.87439
 20
39.914969
 30
0.0
 42
-0.267949
  0
VERTEX
  5
F561
100
AcDbEntity
  8
JOIST
100
AcDbVertex
100
AcDb2dVertex
 10
104.99939
 20
39.698463
 30
0.0
  0
VERTEX
  5
F562
100
AcDbEntity
  8
JOIST
100
AcDbVertex
100
AcDb2dVertex
 10
104.99939
 20
38.775813
 30
0.0
 42
-0.57735
  0
VERTEX
  5
F563
100
AcDbEntity
  8
JOIST
100
AcDbVertex
100
AcDb2dVertex
 10
104.62439
 20
38.559307
 30
0.0
  0
VERTEX
  5
F564
100
AcDbEntity
  8
JOIST
100
AcDbVertex
100
AcDb2dVertex
 10
103.315769
 20
39.31484
 30
0.0
 42
-0.267949
  0
SEQEND
  5
F565
100
AcDbEntity
  8
JOIST
  0
LINE
  5
F56D
100
AcDbEntity
  8
JOIST
  6
HIDDEN2
100
AcDbLine
 10
102.34976
 20
39.918698
 30
0.0
 11
103.315769
 21
39.360973
 31
0.0
  0
POLYLINE
  5
F56E
100
AcDbEntity
  8
JOIST
  6
HIDDEN2
100
AcDb2dPolyline
 66
     1
 10
0.0
 20
0.0
 30
0.0
  0
VERTEX
  5
F56F
100
AcDbEntity
  8
JOIST
  6
HIDDEN2
100
AcDbVertex
100
AcDb2dVertex
 10
102.34976
 20
39.918698
 30
0.0
 42
-0.267949
  0
VERTEX
  5
F570
100
AcDbEntity
  8
JOIST
  6
HIDDEN2
100
AcDbVertex
100
AcDb2dVertex
 10
102.22476
 20
40.135205
 30
0.0
  0
VERTEX
  5
F571
100
AcDbEntity
  8
JOIST
  6
HIDDEN2
100
AcDbVertex
100
AcDb2dVertex
 10
102.22476
 20
41.057854
 30
0.0
 42
-0.219611
  0
VERTEX
  5
F572
100
AcDbEntity
  8
JOIST
  6
HIDDEN2
100
AcDbVertex
100
AcDb2dVertex
 10
102.312546
 20
41.248082
 30
0.0
  0
SEQEND
  5
F573
100
AcDbEntity
  8
JOIST
  6
HIDDEN2
  0
LINE
  5
F579
100
AcDbEntity
  8
JOIST
100
AcDbLine
 10
103.315769
 20
39.360973
 30
0.0
 11
104.761776
 21
38.52612
 31
0.0
  0
POLYLINE
  5
F581
100
AcDbEntity
  8
JOIST
  6
HIDDEN2
100
AcDb2dPolyline
 66
     1
 10
0.0
 20
0.0
 30
0.0
  0
VERTEX
  5
F582
100
AcDbEntity
  8
JOIST
  6
HIDDEN2
100
AcDbVertex
100
AcDb2dVertex
 10
88.587103
 20
31.864572
 30
0.0
 42
-0.267949
  0
VERTEX
  5
F583
100
AcDbEntity
  8
JOIST
  6
HIDDEN2
100
AcDbVertex
100
AcDb2dVertex
 10
88.462103
 20
32.081078
 30
0.0
  0
VERTEX
  5
F584
100
AcDbEntity
  8
JOIST
  6
HIDDEN2
100
AcDbVertex
100
AcDb2dVertex
 10
88.462103
 20
33.003728
 30
0.0
 42
-0.219611
  0
VERTEX
  5
F585
100
AcDbEntity
  8
JOIST
  6
HIDDEN2
100
AcDbVertex
100
AcDb2dVertex
 10
88.54989
 20
33.193956
 30
0.0
  0
SEQEND
  5
F586
100
AcDbEntity
  8
JOIST
  6
HIDDEN2
  0
LINE
  5
F587
100
AcDbEntity
  8
JOIST
  6
HIDDEN2
100
AcDbLine
 10
88.587103
 20
31.864572
 30
0.0
 11
89.553112
 21
31.306846
 31
0.0
  0
POLYLINE
  5
F5A0
100
AcDbEntity
  8
JOIST
  6
HIDDEN2
100
AcDb2dPolyline
 66
     1
 10
0.0
 20
0.0
 30
0.0
  0
VERTEX
  5
F5A1
100
AcDbEntity
  8
JOIST
  6
HIDDEN2
100
AcDbVertex
100
AcDb2dVertex
 10
131.255197
 20
32.836596
 30
0.0
 42
-0.243339
  0
VERTEX
  5
F5A2
100
AcDbEntity
  8
JOIST
  6
HIDDEN2
100
AcDbVertex
100
AcDb2dVertex
 10
131.025707
 20
32.847206
 30
0.0
  0
VERTEX
  5
F5A3
100
AcDbEntity
  8
JOIST
  6
HIDDEN2
100
AcDbVertex
100
AcDb2dVertex
 10
128.711124
 20
34.183531
 30
0.0
 42
-0.267949
  0
VERTEX
  5
F5A4
100
AcDbEntity
  8
JOIST
  6
HIDDEN2
100
AcDbVertex
100
AcDb2dVertex
 10
128.586124
 20
34.400037
 30
0.0
  0
VERTEX
  5
F5A5
100
AcDbEntity
  8
JOIST
  6
HIDDEN2
100
AcDbVertex
100
AcDb2dVertex
 10
128.586124
 20
35.322687
 30
0.0
 42
-0.243339
  0
VERTEX
  5
F5A6
100
AcDbEntity
  8
JOIST
  6
HIDDEN2
100
AcDbVertex
100
AcDb2dVertex
 10
128.691681
 20
35.526736
 30
0.0
  0
SEQEND
  5
F5A7
100
AcDbEntity
  8
JOIST
  6
HIDDEN2
  0
LINE
  5
F5A8
100
AcDbEntity
  8
JOIST
100
AcDbLine
 10
145.143507
 20
36.775157
 30
0.0
 11
150.231406
 21
33.837657
 31
0.0
  0
LINE
  5
F5A9
100
AcDbEntity
  8
JOIST
100
AcDbLine
 10
143.770816
 20
37.56768
 30
0.0
 11
144.932024
 21
36.897256
 31
0.0
  0
LINE
  5
F5AA
100
AcDbEntity
  8
JOIST
100
AcDbLine
 10
143.770816
 20
38.021927
 30
0.0
 11
150.231406
 21
34.291903
 31
0.0
  0
LINE
  5
F5AB
100
AcDbEntity
  8
JOIST
100
AcDbLine
 10
139.372059
 20
40.601503
 30
0.0
 11
136.842613
 21
42.06188
 31
0.0
  0
LINE
  5
F5AC
100
AcDbEntity
  8
JOIST
100
AcDbLine
 10
140.243661
 20
41.104723
 30
0.0
 11
138.166754
 21
42.303826
 31
0.0
  0
LINE
  5
F5AD
100
AcDbEntity
  8
JOIST
100
AcDbLine
 10
140.271561
 20
41.120831
 30
0.0
 11
138.180704
 21
42.327988
 31
0.0
  0
LINE
  5
F5AE
100
AcDbEntity
  8
JOIST
100
AcDbLine
 10
145.143507
 20
42.104403
 30
0.0
 11
150.231406
 21
39.166903
 31
0.0
  0
POLYLINE
  5
F5DA
100
AcDbEntity
  8
JOIST
  6
HIDDEN2
100
AcDb2dPolyline
 66
     1
 10
0.0
 20
0.0
 30
0.0
  0
VERTEX
  5
F5DB
100
AcDbEntity
  8
JOIST
  6
HIDDEN2
100
AcDbVertex
100
AcDb2dVertex
 10
145.111604
 20
40.836596
 30
0.0
 42
-0.243339
  0
VERTEX
  5
F5DC
100
AcDbEntity
  8
JOIST
  6
HIDDEN2
100
AcDbVertex
100
AcDb2dVertex
 10
144.882113
 20
40.847206
 30
0.0
  0
VERTEX
  5
F5DD
100
AcDbEntity
  8
JOIST
  6
HIDDEN2
100
AcDbVertex
100
AcDb2dVertex
 10
142.56753
 20
42.183531
 30
0.0
 42
-0.267949
  0
VERTEX
  5
F5DE
100
AcDbEntity
  8
JOIST
  6
HIDDEN2
100
AcDbVertex
100
AcDb2dVertex
 10
142.44253
 20
42.400037
 30
0.0
  0
SEQEND
  5
F5DF
100
AcDbEntity
  8
JOIST
  6
HIDDEN2
  0
POLYLINE
  5
F5E0
100
AcDbEntity
  8
JOIST
100
AcDb2dPolyline
 66
     1
 10
0.0
 20
0.0
 30
0.0
  0
VERTEX
  5
F5E1
100
AcDbEntity
  8
JOIST
100
AcDbVertex
100
AcDb2dVertex
 10
142.44253
 20
42.400037
 30
0.0
  0
VERTEX
  5
F5E2
100
AcDbEntity
  8
JOIST
100
AcDbVertex
100
AcDb2dVertex
 10
142.44253
 20
43.322687
 30
0.0
 42
-0.243339
  0
VERTEX
  5
F5E3
100
AcDbEntity
  8
JOIST
100
AcDbVertex
100
AcDb2dVertex
 10
142.548087
 20
43.526736
 30
0.0
  0
SEQEND
  5
F5E4
100
AcDbEntity
  8
JOIST
  0
POLYLINE
  5
F5E5
100
AcDbEntity
  8
JOIST
100
AcDb2dPolyline
 66
     1
 10
0.0
 20
0.0
 30
0.0
  0
VERTEX
  5
F5E6
100
AcDbEntity
  8
JOIST
100
AcDbVertex
100
AcDb2dVertex
 10
142.402578
 20
42.37697
 30
0.0
  0
VERTEX
  5
F5E7
100
AcDbEntity
  8
JOIST
100
AcDbVertex
100
AcDb2dVertex
 10
142.402578
 20
43.29962
 30
0.0
 42
-0.400475
  0
VERTEX
  5
F5E8
100
AcDbEntity
  8
JOIST
100
AcDbVertex
100
AcDb2dVertex
 10
142.640799
 20
43.549343
 30
0.0
  0
SEQEND
  5
F5E9
100
AcDbEntity
  8
JOIST
  0
POLYLINE
  5
F5EF
100
AcDbEntity
  8
JOIST
  6
HIDDEN2
100
AcDb2dPolyline
 66
     1
 10
0.0
 20
0.0
 30
0.0
  0
VERTEX
  5
F5F0
100
AcDbEntity
  8
JOIST
  6
HIDDEN2
100
AcDbVertex
100
AcDb2dVertex
 10
145.189316
 20
42.077956
 30
0.0
 42
-0.119683
  0
VERTEX
  5
F5F1
100
AcDbEntity
  8
JOIST
  6
HIDDEN2
100
AcDbVertex
100
AcDb2dVertex
 10
145.21716
 20
41.963295
 30
0.0
  0
VERTEX
  5
F5F2
100
AcDbEntity
  8
JOIST
  6
HIDDEN2
100
AcDbVertex
100
AcDb2dVertex
 10
145.21716
 20
41.040646
 30
0.0
 42
-0.57735
  0
VERTEX
  5
F5F3
100
AcDbEntity
  8
JOIST
  6
HIDDEN2
100
AcDbVertex
100
AcDb2dVertex
 10
144.84216
 20
40.824139
 30
0.0
  0
VERTEX
  5
F5F4
100
AcDbEntity
  8
JOIST
  6
HIDDEN2
100
AcDbVertex
100
AcDb2dVertex
 10
142.527578
 20
42.160464
 30
0.0
 42
-0.267949
  0
VERTEX
  5
F5F5
100
AcDbEntity
  8
JOIST
  6
HIDDEN2
100
AcDbVertex
100
AcDb2dVertex
 10
142.402578
 20
42.37697
 30
0.0
  0
SEQEND
  5
F5F6
100
AcDbEntity
  8
JOIST
  6
HIDDEN2
  0
LINE
  5
F601
100
AcDbEntity
  8
FASTENER
100
AcDbLine
 10
74.160943
 20
115.216948
 30
0.0
 11
74.158483
 21
114.96696
 31
0.0
  0
LINE
  5
F602
100
AcDbEntity
  8
FASTENER
100
AcDbLine
 10
74.267966
 20
115.029454
 30
0.0
 11
74.05146
 21
115.154454
 31
0.0
  0
ELLIPSE
  5
F603
100
AcDbEntity
  8
FASTENER
100
AcDbEllipse
 10
74.159713
 20
115.091954
 30
0.0
 11
-0.0765465544619697
 21
0.132582521472475
 31
0.0
210
0.0
220
0.0
230
1.0
 40
0.57735
 41
-0.0000000000003359
 42
6.283185307179264
  0
ELLIPSE
  5
F604
100
AcDbEntity
  8
FASTENER
100
AcDbEllipse
 10
88.090009
 20
106.682619
 30
0.0
 11
0.0765465544619741
 21
-0.1325825214724725
 31
0.0
210
0.0
220
0.0
230
-1.0
 40
0.57735
 41
0.0000000000000337
 42
6.283185307179634
  0
LINE
  5
F605
100
AcDbEntity
  8
FASTENER
100
AcDbLine
 10
88.090009
 20
106.807619
 30
0.0
 11
88.090009
 21
106.557619
 31
0.0
  0
LINE
  5
F606
100
AcDbEntity
  8
FASTENER
100
AcDbLine
 10
88.198871
 20
106.621187
 30
0.0
 11
87.981146
 21
106.744051
 31
0.0
  0
LINE
  5
F607
100
AcDbEntity
  8
FASTENER
100
AcDbLine
 10
74.160943
 20
117.430213
 30
0.0
 11
74.158483
 21
117.180226
 31
0.0
  0
LINE
  5
F608
100
AcDbEntity
  8
FASTENER
100
AcDbLine
 10
74.267966
 20
117.24272
 30
0.0
 11
74.05146
 21
117.36772
 31
0.0
  0
ELLIPSE
  5
F609
100
AcDbEntity
  8
FASTENER
100
AcDbEllipse
 10
74.159713
 20
117.30522
 30
0.0
 11
-0.0382732772309849
 21
0.0662912607362375
 31
0.0
210
0.0
220
0.0
230
1.0
 40
0.57735
 41
-0.0000000000004163
 42
6.283185307179183
  0
ELLIPSE
  5
F60A
100
AcDbEntity
  8
FASTENER
100
AcDbEllipse
 10
88.090009
 20
108.895885
 30
0.0
 11
0.038273277230987
 21
-0.0662912607362363
 31
0.0
210
0.0
220
0.0
230
-1.0
 40
0.57735
 41
0.000000000000473
 42
6.283185307180073
  0
LINE
  5
F60B
100
AcDbEntity
  8
FASTENER
100
AcDbLine
 10
88.090009
 20
109.020885
 30
0.0
 11
88.090009
 21
108.770885
 31
0.0
  0
LINE
  5
F60C
100
AcDbEntity
  8
FASTENER
100
AcDbLine
 10
88.198871
 20
108.834453
 30
0.0
 11
87.981146
 21
108.957317
 31
0.0
  0
LEADER
  5
F60D
100
AcDbEntity
  8
JOIST
  6
HIDDEN2
100
AcDbLeader
  3
LEADER
 76
     3
 10
57.489673
 20
75.971166
 30
0.0
 10
10.543806
 20
102.986232
 30
0.0
 10
5.377492
 20
103.346945
 30
0.0
 77
   256
1001
ACAD
1000
DSTYLE
1002
{
1070
    40
1040
16.0
1002
}
  0
LEADER
  5
F61E
100
AcDbEntity
  8
JOIST
  6
HIDDEN2
100
AcDbLeader
  3
LEADER
 73
     0
 40
1.0
 41
11.0
 76
     2
 10
9.581628
 20
92.045771
 30
0.0
 10
-0.642998
 20
93.788042
 30
0.0
 77
   256
1001
ACAD
1000
DSTYLE
1002
{
1070
    40
1040
16.0
1002
}
  0
MTEXT
  5
F61F
100
AcDbEntity
  8
JOIST
  6
HIDDEN2
100
AcDbMText
 10
-1.642998
 20
93.788042
 30
0.0
 40
2.0
 41
0.0
 71
     6
 72
     1
  1
CEMCO JOIST
  7
ARCH
  0
LEADER
  5
F620
100
AcDbEntity
  8
JOIST
  6
HIDDEN2
100
AcDbLeader
  3
LEADER
 73
     0
 74
     0
 75
     1
 40
1.0
 41
18.655172
 76
     3
 10
49.315592
 20
64.315404
 30
0.0
 10
56.982264
 20
57.716711
 30
0.0
 10
59.982264
 20
57.716711
 30
0.0
 77
   256
1001
ACAD
1000
DSTYLE
1002
{
1070
    40
1040
16.0
1002
}
  0
MTEXT
  5
F621
100
AcDbEntity
  8
JOIST
  6
HIDDEN2
100
AcDbMText
 10
60.982264
 20
57.716711
 30
0.0
 40
2.0
 41
0.0
 71
     4
 72
     1
  1
FLAT STRAP BRIDGING
  7
ARCH
  0
LEADER
  5
F63A
100
AcDbEntity
  8
JOIST
  6
HIDDEN2
100
AcDbLeader
  3
LEADER
 73
     0
 74
     0
 75
     1
 40
2.666667
 41
29.758621
 76
     3
 10
90.476648
 20
87.848043
 30
0.0
 10
99.713585
 20
79.549149
 30
0.0
 10
102.713585
 20
79.549149
 30
0.0
 77
   256
1001
ACAD
1000
DSTYLE
1002
{
1070
    40
1040
16.0
1002
}
  0
MTEXT
  5
F63B
100
AcDbEntity
  8
JOIST
  6
HIDDEN2
100
AcDbMText
 10
103.713585
 20
79.549149
 30
0.0
 40
2.0
 41
0.0
 71
     4
 72
     1
  1
SOLID BLOCKING SIZE AS REQUIRED\PMAXIMUM 8'-0" ON CENTER
  7
ARCH
  0
MTEXT
  5
F67D
100
AcDbEntity
  8
LINK
100
AcDbMText
 10
-14.446923
 20
5.636094
 30
0.0
 40
2.0
 41
0.0
 71
     4
 72
     1
  1
BACK\PBUTTON
  7
ARCH
1001
PE_URL
1000
6020-009.dwf
  0
LEADER
  5
F67E
100
AcDbEntity
  8
LINK
100
AcDbLeader
  3
LEADER
 72
     1
 73
     0
 74
     0
 40
5.333333
 41
11.655172
 76
     7
 10
0.78388
 20
10.364494
 30
0.0
 10
-3.794534
 20
17.266206
 30
0.0
 10
-10.099236
 20
18.916616
 30
0.0
 10
-16.55405
 20
16.441001
 30
0.0
 10
-19.931569
 20
10.58955
 30
0.0
 10
-19.105954
 20
6.463527
 30
0.0
 10
-14.752707
 20
5.563303
 30
0.0
 77
   256
1001
PE_URL
1000
6020-009.dwf
  0
TEXT
  5
F687
100
AcDbEntity
  8
TEXT
100
AcDbText
 10
139.942173
 20
21.022863
 30
0.0
 40
2.0
  1
with clips
 50
30.0
 51
30.0
  7
RIGHT
 11
140.424932
 21
20.1867
 31
0.0
100
AcDbText
 73
     1
  0
TEXT
  5
F688
100
AcDbEntity
  8
TEXT
100
AcDbText
 10
139.290738
 20
24.531699
 30
0.0
 40
2.0
  1
blocking
 50
30.0
 51
30.0
  7
RIGHT
 11
139.773497
 21
23.695537
 31
0.0
100
AcDbText
 73
     1
  0
INSERT
  5
F6AF
100
AcDbEntity
  8
JOIST
  6
HIDDEN2
100
AcDbBlockReference
  2
A$CE091
 10
30.195844
 20
20.181388
 30
0.0
 41
2.0
 42
2.0
 43
2.0
  0
POLYLINE
  5
F6BB
100
AcDbEntity
  8
_KTI_CONTROL
 60
     1
100
AcDb3dPolyline
 66
     1
 10
0.0
 20
0.0
 30
0.0
 70
     8
1001
_KTI_ARCHT
1070
 12000
1000
ENVIRONMENT
1070
 10003
1000
6020-026
1070
 20000
1000
standard
1070
 20001
1000
f:\archt
1070
 20003
1000
j:\archt
1070
 20002
1000
f:\archt\tmp
1070
 20004
1002
{
1000
f:\archt\blks
1000
f:\archt\blks3d
1000
h:\archt\blks
1000
h:\archt\blks3d
1000
j:\archt\blks
1000
j:\archt\blks3d
1002
}
1070
 20005
1002
{
1000
f:\archt\slds
1002
}
1070
 20006
1002
{
1000
f:\archt\dclswin
1002
}
1070
 20007
1002
{
1000
f:\archt\docs
1002
}
1070
 20008
1002
{
1000
f:\archt\help
1002
}
  0
VERTEX
  5
F6BC
100
AcDbEntity
  8
_KTI_CONTROL
100
AcDbVertex
100
AcDb3dPolylineVertex
 10
0.0
 20
0.0
 30
0.0
 70
    32
  0
VERTEX
  5
F6BD
100
AcDbEntity
  8
_KTI_CONTROL
100
AcDbVertex
100
AcDb3dPolylineVertex
 10
0.0
 20
0.0
 30
0.0
 70
    32
  0
SEQEND
  5
F6BE
100
AcDbEntity
  8
_KTI_CONTROL
  0
POLYLINE
  5
F6BF
100
AcDbEntity
  8
_KTI_CONTROL
 60
     1
100
AcDb3dPolyline
 66
     1
 10
0.0
 20
0.0
 30
0.0
 70
     8
1001
_KTI_ARCHT
1070
 12000
1000
ARCHTVARS
1070
 10003
1000
6020-026
1070
 12030
1000
in
1070
 12020
1070
     1
1070
 12021
1070
     0
1070
 12070
1070
     0
1070
 12071
1070
     1
1070
 12907
1070
     0
1070
 12072
1070
     2
1070
 12073
1070
    48
1070
 12074
1070
     0
1070
 12080
1070
     1
1070
 12092
1070
     1
1070
 12096
1070
     0
1070
 12095
1070
     0
1070
 12081
1070
     1
1070
 12082
1070
     1
1070
 12083
1070
     1
1070
 12084
1070
     1
1070
 12085
1070
     0
1070
 12086
1070
     1
1070
 12087
1070
     0
1070
 12088
1070
     0
1070
 12097
1070
     1
1070
 12089
1070
     4
1070
 12090
1070
     6
1070
 12091
1070
     1
1070
 12045
1000
standard
1070
 12046
1000

1070
 12047
1000
standard
1070
 12048
1000

1070
 12049
1000

1070
 12093
1070
     1
1070
 12094
1070
     1
1070
 12908
1070
     0
1070
 12909
1070
     0
1070
 12911
1070
     0
1070
 12910
1070
     0
1070
 12912
1070
     0
1070
 12098
1070
   640
1070
 12060
1002
{
1000

1000

1000

1000

1002
}
1070
 12904
1002
{
1070
     0
1070
     0
1070
     0
1070
     0
1070
     0
1002
}
1070
 12905
1002
{
1040
0.0
1040
0.0
1040
0.0
1040
0.0
1040
0.0
1002
}
1070
 12906
1002
{
1000

1000

1000

1000

1000

1002
}
1070
 12040
1002
{
1002
}
  0
VERTEX
  5
F6C0
100
AcDbEntity
  8
_KTI_CONTROL
100
AcDbVertex
100
AcDb3dPolylineVertex
 10
0.0
 20
0.0
 30
0.0
 70
    32
  0
VERTEX
  5
F6C1
100
AcDbEntity
  8
_KTI_CONTROL
100
AcDbVertex
100
AcDb3dPolylineVertex
 10
0.0
 20
0.0
 30
0.0
 70
    32
  0
SEQEND
  5
F6C2
100
AcDbEntity
  8
_KTI_CONTROL
  0
ENDSEC
  0
SECTION
  2
OBJECTS
  0
DICTIONARY
  5
C
100
AcDbDictionary
  3
ACAD_GROUP
350
D
  3
ACAD_MLINESTYLE
350
E
  0
DICTIONARY
  5
D
102
{ACAD_REACTORS
330
C
102
}
100
AcDbDictionary
  3
*A1
350
13B4
  3
*A2
350
13B5
  0
DICTIONARY
  5
E
102
{ACAD_REACTORS
330
C
102
}
100
AcDbDictionary
  3
STANDARD
350
13
  0
GROUP
  5
13B4
102
{ACAD_REACTORS
330
D
102
}
100
AcDbGroup
300

 70
     3
 71
     1
  0
GROUP
  5
13B5
102
{ACAD_REACTORS
330
D
102
}
100
AcDbGroup
300
stud_3p625x1p625x96_woleEnchala
 70
     3
 71
     1
  0
MLINESTYLE
  5
13
102
{ACAD_REACTORS
330
E
102
}
100
AcDbMlineStyle
  2
STANDARD
 70
     0
  3

 62
     0
 51
90.0
 52
90.0
 71
     2
 49
0.5
 62
   256
  6
BYLAYER
 49
-0.5
 62
   256
  6
BYLAYER
  0
ENDSEC
  0
EOF
