  0
SECTION
  2
HEADER
  9
$ACADVER
  1
AC1012
  9
$DWGCODEPAGE
  3
ansi_1252
  9
$INSBASE
 10
0.0
 20
0.0
 30
0.0
  9
$EXTMIN
 10
-26.371285
 20
0.0
 30
0.0
  9
$EXTMAX
 10
95.16
 20
90.712367
 30
0.0
  9
$LIMMIN
 10
0.0
 20
0.0
  9
$LIMMAX
 10
95.16
 20
95.16
  9
$ORTHOMODE
 70
     0
  9
$REGENMODE
 70
     1
  9
$FILLMODE
 70
     1
  9
$QTEXTMODE
 70
     0
  9
$MIRRTEXT
 70
     1
  9
$DRAGMODE
 70
     2
  9
$LTSCALE
 40
1.0
  9
$OSMODE
 70
    39
  9
$ATTMODE
 70
     1
  9
$TEXTSIZE
 40
1.0
  9
$TRACEWID
 40
3.0
  9
$TEXTSTYLE
  7
ARCH
  9
$CLAYER
  8
D-TEXT
  9
$CELTYPE
  6
BYLAYER
  9
$CECOLOR
 62
   256
  9
$CELTSCALE
 40
1.0
  9
$DELOBJ
 70
     1
  9
$DISPSILH
 70
     0
  9
$DIMSCALE
 40
12.0
  9
$DIMASZ
 40
0.1875
  9
$DIMEXO
 40
0.0625
  9
$DIMDLI
 40
0.375
  9
$DIMRND
 40
0.0
  9
$DIMDLE
 40
0.0
  9
$DIMEXE
 40
0.1875
  9
$DIMTP
 40
0.0
  9
$DIMTM
 40
0.0
  9
$DIMTXT
 40
0.125
  9
$DIMCEN
 40
0.1875
  9
$DIMTSZ
 40
0.0
  9
$DIMTOL
 70
     0
  9
$DIMLIM
 70
     0
  9
$DIMTIH
 70
     1
  9
$DIMTOH
 70
     1
  9
$DIMSE1
 70
     0
  9
$DIMSE2
 70
     0
  9
$DIMTAD
 70
     0
  9
$DIMZIN
 70
     0
  9
$DIMBLK
  1
OBLIQUE
  9
$DIMASO
 70
     1
  9
$DIMSHO
 70
     1
  9
$DIMPOST
  1

  9
$DIMAPOST
  1

  9
$DIMALT
 70
     0
  9
$DIMALTD
 70
     1
  9
$DIMALTF
 40
25.4
  9
$DIMLFAC
 40
1.0
  9
$DIMTOFL
 70
     0
  9
$DIMTVP
 40
0.0
  9
$DIMTIX
 70
     0
  9
$DIMSOXD
 70
     0
  9
$DIMSAH
 70
     1
  9
$DIMBLK1
  1
_OPEN90
  9
$DIMBLK2
  1
_OPEN90
  9
$DIMSTYLE
  2
LEADER
  9
$DIMCLRD
 70
     0
  9
$DIMCLRE
 70
     0
  9
$DIMCLRT
 70
     0
  9
$DIMTFAC
 40
1.0
  9
$DIMGAP
 40
0.125
  9
$DIMJUST
 70
     0
  9
$DIMSD1
 70
     0
  9
$DIMSD2
 70
     0
  9
$DIMTOLJ
 70
     0
  9
$DIMTZIN
 70
     0
  9
$DIMALTZ
 70
     0
  9
$DIMALTTZ
 70
     0
  9
$DIMFIT
 70
     1
  9
$DIMUPT
 70
     1
  9
$DIMUNIT
 70
     4
  9
$DIMDEC
 70
     4
  9
$DIMTDEC
 70
     2
  9
$DIMALTU
 70
     2
  9
$DIMALTTD
 70
     1
  9
$DIMTXSTY
  7
ARCH
  9
$DIMAUNIT
 70
     0
  9
$LUNITS
 70
     4
  9
$LUPREC
 70
     4
  9
$SKETCHINC
 40
12.0
  9
$FILLETRAD
 40
0.0
  9
$AUNITS
 70
     0
  9
$AUPREC
 70
     0
  9
$MENU
  1
.
  9
$ELEVATION
 40
0.0
  9
$PELEVATION
 40
0.0
  9
$THICKNESS
 40
0.0
  9
$LIMCHECK
 70
     0
  9
$BLIPMODE
 70
     0
  9
$CHAMFERA
 40
24.0
  9
$CHAMFERB
 40
24.0
  9
$CHAMFERC
 40
24.0
  9
$CHAMFERD
 40
0.785398
  9
$SKPOLY
 70
     0
  9
$TDCREATE
 40
2451092.980109722
  9
$TDUPDATE
 40
2451105.698974537
  9
$TDINDWG
 40
0.0298442130
  9
$TDUSRTIMER
 40
0.0298442130
  9
$USRTIMER
 70
     1
  9
$ANGBASE
 50
0.0
  9
$ANGDIR
 70
     0
  9
$PDMODE
 70
     0
  9
$PDSIZE
 40
4.0
  9
$PLINEWID
 40
0.0
  9
$COORDS
 70
     2
  9
$SPLFRAME
 70
     0
  9
$SPLINETYPE
 70
     6
  9
$SPLINESEGS
 70
     8
  9
$ATTDIA
 70
     0
  9
$ATTREQ
 70
     1
  9
$HANDLING
 70
     1
  9
$HANDSEED
  5
F929
  9
$SURFTAB1
 70
     6
  9
$SURFTAB2
 70
     6
  9
$SURFTYPE
 70
     6
  9
$SURFU
 70
     6
  9
$SURFV
 70
     6
  9
$UCSNAME
  2

  9
$UCSORG
 10
0.0
 20
0.0
 30
0.0
  9
$UCSXDIR
 10
1.0
 20
0.0
 30
0.0
  9
$UCSYDIR
 10
0.0
 20
1.0
 30
0.0
  9
$PUCSNAME
  2

  9
$PUCSORG
 10
0.0
 20
0.0
 30
0.0
  9
$PUCSXDIR
 10
1.0
 20
0.0
 30
0.0
  9
$PUCSYDIR
 10
0.0
 20
1.0
 30
0.0
  9
$USERI1
 70
     0
  9
$USERI2
 70
     0
  9
$USERI3
 70
     0
  9
$USERI4
 70
     0
  9
$USERI5
 70
     0
  9
$USERR1
 40
0.0
  9
$USERR2
 40
0.0
  9
$USERR3
 40
0.0
  9
$USERR4
 40
0.0
  9
$USERR5
 40
0.0
  9
$WORLDVIEW
 70
     1
  9
$SHADEDGE
 70
     3
  9
$SHADEDIF
 70
    70
  9
$TILEMODE
 70
     1
  9
$MAXACTVP
 70
    16
  9
$PINSBASE
 10
0.0
 20
0.0
 30
0.0
  9
$PLIMCHECK
 70
     0
  9
$PEXTMIN
 10
1.000000E+20
 20
1.000000E+20
 30
1.000000E+20
  9
$PEXTMAX
 10
-1.000000E+20
 20
-1.000000E+20
 30
-1.000000E+20
  9
$PLIMMIN
 10
0.0
 20
0.0
  9
$PLIMMAX
 10
12.0
 20
9.0
  9
$UNITMODE
 70
     0
  9
$VISRETAIN
 70
     0
  9
$PLINEGEN
 70
     0
  9
$PSLTSCALE
 70
     1
  9
$TREEDEPTH
 70
  3020
  9
$PICKSTYLE
 70
     1
  9
$CMLSTYLE
  2
STANDARD
  9
$CMLJUST
 70
     0
  9
$CMLSCALE
 40
1.0
  9
$SAVEIMAGES
 70
     0
  0
ENDSEC
  0
SECTION
  2
CLASSES
  0
ENDSEC
  0
SECTION
  2
TABLES
  0
TABLE
  2
VPORT
  5
8
100
AcDbSymbolTable
 70
     5
  0
VPORT
  5
F928
100
AcDbSymbolTableRecord
100
AcDbViewportTableRecord
  2
*ACTIVE
 70
     0
 10
0.0
 20
0.0
 11
1.0
 21
1.0
 12
47.544663
 22
45.356184
 13
0.0
 23
0.0
 14
0.125
 24
0.125
 15
1.0
 25
1.0
 16
0.0
 26
0.0
 36
1.0
 17
0.0
 27
0.0
 37
0.0
 40
90.712367
 41
1.629677
 42
50.0
 43
0.0
 44
0.0
 50
0.0
 51
0.0
 71
     0
 72
   100
 73
     1
 74
     0
 75
     0
 76
     1
 77
     0
 78
     2
  0
ENDTAB
  0
TABLE
  2
LTYPE
  5
5
100
AcDbSymbolTable
 70
     1
  0
LTYPE
  5
14
100
AcDbSymbolTableRecord
100
AcDbLinetypeTableRecord
  2
BYBLOCK
 70
     0
  3

 72
    65
 73
     0
 40
0.0
  0
LTYPE
  5
15
100
AcDbSymbolTableRecord
100
AcDbLinetypeTableRecord
  2
BYLAYER
 70
     0
  3

 72
    65
 73
     0
 40
0.0
  0
LTYPE
  5
16
100
AcDbSymbolTableRecord
100
AcDbLinetypeTableRecord
  2
CONTINUOUS
 70
    64
  3
Solid line
 72
    65
 73
     0
 40
0.0
  0
ENDTAB
  0
TABLE
  2
LAYER
  5
2
100
AcDbSymbolTable
 70
    10
  0
LAYER
  5
F
100
AcDbSymbolTableRecord
100
AcDbLayerTableRecord
  2
0
 70
    64
 62
     7
  6
CONTINUOUS
  0
LAYER
  5
2F
100
AcDbSymbolTableRecord
100
AcDbLayerTableRecord
  2
STUD
 70
    64
 62
     5
  6
CONTINUOUS
  0
LAYER
  5
30
100
AcDbSymbolTableRecord
100
AcDbLayerTableRecord
  2
TRACK
 70
    64
 62
     1
  6
CONTINUOUS
  0
LAYER
  5
34
100
AcDbSymbolTableRecord
100
AcDbLayerTableRecord
  2
STEEL
 70
    64
 62
   142
  6
CONTINUOUS
  0
LAYER
  5
37
100
AcDbSymbolTableRecord
100
AcDbLayerTableRecord
  2
FASTENER
 70
    64
 62
    15
  6
CONTINUOUS
  0
LAYER
  5
3B
100
AcDbSymbolTableRecord
100
AcDbLayerTableRecord
  2
_KTI_CONTROL
 70
    69
 62
     7
  6
CONTINUOUS
  0
LAYER
  5
BFAF
100
AcDbSymbolTableRecord
100
AcDbLayerTableRecord
  2
JOIST
 70
    64
 62
   142
  6
CONTINUOUS
  0
LAYER
  5
E9D8
100
AcDbSymbolTableRecord
100
AcDbLayerTableRecord
  2
LINK
 70
    64
 62
     7
  6
CONTINUOUS
  0
LAYER
  5
F7ED
100
AcDbSymbolTableRecord
100
AcDbLayerTableRecord
  2
D-TEXT
 70
    64
 62
    94
  6
CONTINUOUS
  0
LAYER
  5
F7EE
100
AcDbSymbolTableRecord
100
AcDbLayerTableRecord
  2
LAYOUT
 70
    65
 62
    52
  6
CONTINUOUS
  0
ENDTAB
  0
TABLE
  2
STYLE
  5
3
100
AcDbSymbolTable
 70
     4
  0
STYLE
  5
10
100
AcDbSymbolTableRecord
100
AcDbTextStyleTableRecord
  2
STANDARD
 70
     0
 40
0.0
 41
1.0
 50
0.0
 71
     0
 42
12.0
  3
txt
  4

  0
STYLE
  5
4E
100
AcDbSymbolTableRecord
100
AcDbTextStyleTableRecord
  2
ARCH
 70
    64
 40
1.0
 41
1.0
 50
0.0
 71
     0
 42
1.0
  3
F:\r13\com\fonts\Architxt.shx
  4

  0
STYLE
  5
13AF
100
AcDbSymbolTableRecord
100
AcDbTextStyleTableRecord
  2
BLOCK
 70
    64
 40
0.0
 41
1.0
 50
0.0
 71
     0
 42
2.0
  3
F:\r13\com\fonts\monos.ttf
  4

  0
STYLE
  5
F7F7
100
AcDbSymbolTableRecord
100
AcDbTextStyleTableRecord
  2
BLD
 70
    64
 40
0.0
 41
1.0
 50
0.0
 71
     0
 42
1.5
  3
F:\r13\com\fonts\monos.ttf
  4

  0
ENDTAB
  0
TABLE
  2
VIEW
  5
6
100
AcDbSymbolTable
 70
     1
  0
VIEW
  5
81B3
100
AcDbSymbolTableRecord
100
AcDbViewTableRecord
  2
ALL
 70
     0
 40
333.126148
 10
-103.458643
 20
185.88084
 41
279.218159
 11
0.0
 21
0.0
 31
1.0
 12
0.0
 22
0.0
 32
0.0
 42
50.0
 43
0.0
 44
0.0
 50
0.0
 71
     0
  0
ENDTAB
  0
TABLE
  2
UCS
  5
7
100
AcDbSymbolTable
 70
     0
  0
ENDTAB
  0
TABLE
  2
APPID
  5
9
100
AcDbSymbolTable
 70
     5
  0
APPID
  5
11
100
AcDbSymbolTableRecord
100
AcDbRegAppTableRecord
  2
ACAD
 70
     0
  0
APPID
  5
3A
100
AcDbSymbolTableRecord
100
AcDbRegAppTableRecord
  2
_KTI_ARCHT
 70
     0
  0
APPID
  5
13B1
100
AcDbSymbolTableRecord
100
AcDbRegAppTableRecord
  2
AVE_FINISH
 70
     0
  0
APPID
  5
13B2
100
AcDbSymbolTableRecord
100
AcDbRegAppTableRecord
  2
ADE
 70
     0
  0
APPID
  5
13B3
100
AcDbSymbolTableRecord
100
AcDbRegAppTableRecord
  2
PE_URL
 70
     0
  0
ENDTAB
  0
TABLE
  2
DIMSTYLE
  5
A
100
AcDbSymbolTable
 70
     2
  0
DIMSTYLE
105
1D
100
AcDbSymbolTableRecord
100
AcDbDimStyleTableRecord
  2
STANDARD
 70
     0
  3

  4

  5

  6
_CLOSED
  7
_CLOSED
 40
12.0
 41
0.1875
 42
0.0625
 43
0.375
 44
0.1875
 45
0.0
 46
0.0
 47
0.0
 48
0.0
140
0.18
141
0.0625
142
0.0
143
25.4
144
1.0
145
0.0
146
1.0
147
0.09
 71
     0
 72
     0
 73
     1
 74
     1
 75
     0
 76
     0
 77
     0
 78
     0
170
     0
171
     2
172
     0
173
     1
174
     0
175
     0
176
     0
177
     0
178
     0
270
     2
271
     4
272
     4
273
     2
274
     2
340
10
275
     0
280
     0
281
     0
282
     0
283
     1
284
     0
285
     0
286
     0
287
     3
288
     0
  0
DIMSTYLE
105
13B0
100
AcDbSymbolTableRecord
100
AcDbDimStyleTableRecord
  2
LEADER
 70
     0
  3

  4

  5
OBLIQUE
  6
_OPEN90
  7
_OPEN90
 40
12.0
 41
0.1875
 42
0.0625
 43
0.375
 44
0.1875
 45
0.0
 46
0.0
 47
0.0
 48
0.0
140
0.125
141
0.1875
142
0.0
143
25.4
144
1.0
145
0.0
146
1.0
147
0.125
 71
     0
 72
     0
 73
     1
 74
     1
 75
     0
 76
     0
 77
     0
 78
     0
170
     0
171
     1
172
     0
173
     1
174
     0
175
     0
176
     0
177
     0
178
     0
270
     4
271
     4
272
     2
273
     2
274
     1
340
4E
275
     0
280
     0
281
     0
282
     0
283
     0
284
     0
285
     0
286
     0
287
     1
288
     1
  0
ENDTAB
  0
TABLE
  2
BLOCK_RECORD
  5
1
100
AcDbSymbolTable
 70
     2
  0
BLOCK_RECORD
  5
1A
100
AcDbSymbolTableRecord
100
AcDbBlockTableRecord
  2
*MODEL_SPACE
  0
BLOCK_RECORD
  5
17
100
AcDbSymbolTableRecord
100
AcDbBlockTableRecord
  2
*PAPER_SPACE
  0
BLOCK_RECORD
  5
13A3
100
AcDbSymbolTableRecord
100
AcDbBlockTableRecord
  2
CEMCO_BLANK
  0
BLOCK_RECORD
  5
F7D6
100
AcDbSymbolTableRecord
100
AcDbBlockTableRecord
  2
DETAIL_TITLE
  0
ENDTAB
  0
ENDSEC
  0
SECTION
  2
BLOCKS
  0
BLOCK
  5
1B
100
AcDbEntity
  8
0
100
AcDbBlockBegin
  2
*MODEL_SPACE
 70
     0
 10
0.0
 20
0.0
 30
0.0
  3
*MODEL_SPACE
  1

  0
ENDBLK
  5
1C
100
AcDbEntity
  8
0
100
AcDbBlockEnd
  0
BLOCK
  5
18
100
AcDbEntity
 67
     1
  8
0
100
AcDbBlockBegin
  2
*PAPER_SPACE
 70
     0
 10
0.0
 20
0.0
 30
0.0
  3
*PAPER_SPACE
  1

  0
ENDBLK
  5
19
100
AcDbEntity
 67
     1
  8
0
100
AcDbBlockEnd
  0
BLOCK
  5
13AC
100
AcDbEntity
  8
0
100
AcDbBlockBegin
  2
CEMCO_BLANK
 70
     0
 10
0.0
 20
0.0
 30
0.0
  3
CEMCO_BLANK
  1

  0
POLYLINE
  5
13A4
100
AcDbEntity
  8
_KTI_CONTROL
 60
     1
100
AcDb3dPolyline
 66
     1
 10
0.0
 20
0.0
 30
0.0
 70
     8
1001
_KTI_ARCHT
1070
 12000
1000
ENVIRONMENT
1070
 10003
1000
cemco_blank
1070
 20000
1000
standard
1070
 20001
1000
f:\archt
1070
 20003
1000
h:\archt
1070
 20002
1000
f:\archt\tmp
1070
 20004
1002
{
1000
f:\archt\blks
1000
f:\archt\blks3d
1000
h:\archt\blks
1000
h:\archt\blks3d
1002
}
1070
 20005
1002
{
1000
f:\archt\slds
1002
}
1070
 20006
1002
{
1000
f:\archt\dclswin
1002
}
1070
 20007
1002
{
1000
f:\archt\docs
1002
}
1070
 20008
1002
{
1000
f:\archt\help
1002
}
  0
VERTEX
  5
13A5
100
AcDbEntity
  8
_KTI_CONTROL
100
AcDbVertex
100
AcDb3dPolylineVertex
 10
0.0
 20
0.0
 30
0.0
 70
    32
  0
VERTEX
  5
13A6
100
AcDbEntity
  8
_KTI_CONTROL
100
AcDbVertex
100
AcDb3dPolylineVertex
 10
0.0
 20
0.0
 30
0.0
 70
    32
  0
SEQEND
  5
13A7
100
AcDbEntity
  8
_KTI_CONTROL
  0
POLYLINE
  5
13A8
100
AcDbEntity
  8
_KTI_CONTROL
 60
     1
100
AcDb3dPolyline
 66
     1
 10
0.0
 20
0.0
 30
0.0
 70
     8
1001
_KTI_ARCHT
1070
 12000
1000
ARCHTVARS
1070
 10003
1000
cemco_blank
1070
 12030
1000
in
1070
 12020
1070
     1
1070
 12021
1070
     0
1070
 12070
1070
     0
1070
 12071
1070
     1
1070
 12907
1070
     0
1070
 12072
1070
     2
1070
 12073
1070
    48
1070
 12074
1070
     0
1070
 12080
1070
     1
1070
 12092
1070
     1
1070
 12096
1070
     0
1070
 12095
1070
     0
1070
 12081
1070
     1
1070
 12082
1070
     1
1070
 12083
1070
     1
1070
 12084
1070
     1
1070
 12085
1070
     0
1070
 12086
1070
     1
1070
 12087
1070
     0
1070
 12088
1070
     0
1070
 12097
1070
     1
1070
 12089
1070
     4
1070
 12090
1070
     6
1070
 12091
1070
     1
1070
 12045
1000
standard
1070
 12046
1000

1070
 12047
1000
standard
1070
 12048
1000

1070
 12049
1000

1070
 12093
1070
     1
1070
 12094
1070
     1
1070
 12908
1070
     0
1070
 12909
1070
     0
1070
 12911
1070
     0
1070
 12910
1070
     0
1070
 12912
1070
     0
1070
 12098
1070
   640
1070
 12060
1002
{
1000

1000

1000

1000

1002
}
1070
 12904
1002
{
1070
     0
1070
     0
1070
     0
1070
     0
1070
     0
1002
}
1070
 12905
1002
{
1040
0.0
1040
0.0
1040
0.0
1040
0.0
1040
0.0
1002
}
1070
 12906
1002
{
1000

1000

1000

1000

1000

1002
}
1070
 12040
1002
{
1002
}
  0
VERTEX
  5
13A9
100
AcDbEntity
  8
_KTI_CONTROL
100
AcDbVertex
100
AcDb3dPolylineVertex
 10
0.0
 20
0.0
 30
0.0
 70
    32
  0
VERTEX
  5
13AA
100
AcDbEntity
  8
_KTI_CONTROL
100
AcDbVertex
100
AcDb3dPolylineVertex
 10
0.0
 20
0.0
 30
0.0
 70
    32
  0
SEQEND
  5
13AB
100
AcDbEntity
  8
_KTI_CONTROL
  0
ENDBLK
  5
13AD
100
AcDbEntity
  8
0
100
AcDbBlockEnd
  0
BLOCK
  5
F7DF
100
AcDbEntity
  8
0
100
AcDbBlockBegin
  2
DETAIL_TITLE
 70
    66
 10
0.0
 20
0.0
 30
0.0
  3
DETAIL_TITLE
  1

  0
ATTDEF
  5
F7D7
100
AcDbEntity
  8
D-TEXT
100
AcDbText
 10
1.163519
 20
0.650143
 30
0.0
 40
0.25
  1
TYP. 
  7
BLOCK
100
AcDbAttributeDefinition
  3
Enter the title of the detail
  2
DETAIL_DISCRIPTION
 70
     0
  0
POLYLINE
  5
F7D8
100
AcDbEntity
  8
D-TEXT
100
AcDb2dPolyline
 66
     1
 10
0.0
 20
0.0
 30
0.0
 40
0.05
 41
0.05
  0
VERTEX
  5
F7D9
100
AcDbEntity
  8
D-TEXT
100
AcDbVertex
100
AcDb2dVertex
 10
1.038519
 20
0.51926
 30
0.0
  0
VERTEX
  5
F7DA
100
AcDbEntity
  8
D-TEXT
100
AcDbVertex
100
AcDb2dVertex
 10
7.93
 20
0.51926
 30
0.0
  0
SEQEND
  5
F7DB
100
AcDbEntity
  8
D-TEXT
  0
ATTDEF
  5
F7DC
100
AcDbEntity
  8
D-TEXT
100
AcDbText
 10
0.189467
 20
0.39426
 30
0.0
 40
0.25
  1
D-#
  7
BLD
 72
     1
 11
0.51926
 21
0.51926
 31
0.0
100
AcDbAttributeDefinition
  3
Enter the Detail number
  2
DETAIL_NO
 70
     0
 74
     2
  0
ATTDEF
  5
F7DD
100
AcDbEntity
  8
D-TEXT
100
AcDbText
 10
1.163519
 20
0.172049
 30
0.0
 40
0.1875
  1
N. T. Scale 1-1/2" = 1'0"
  7
BLOCK
100
AcDbAttributeDefinition
  3
Type the defanition of scale
  2
SCALE
 70
     0
  0
CIRCLE
  5
F7DE
100
AcDbEntity
  8
D-TEXT
100
AcDbCircle
 10
0.51926
 20
0.51926
 30
0.0
 40
0.51926
  0
ENDBLK
  5
F7E0
100
AcDbEntity
  8
0
100
AcDbBlockEnd
  0
ENDSEC
  0
SECTION
  2
ENTITIES
  0
LINE
  5
1A6E
100
AcDbEntity
  8
TRACK
100
AcDbLine
 10
1.910469
 20
52.99995
 30
0.0
 11
67.230292
 21
90.712367
 31
0.0
  0
LINE
  5
1A6F
100
AcDbEntity
  8
TRACK
100
AcDbLine
 10
60.832201
 20
90.571259
 30
0.0
 11
1.49378
 21
56.312206
 31
0.0
  0
LINE
  5
1A71
100
AcDbEntity
  8
TRACK
100
AcDbLine
 10
1.943394
 20
52.942922
 30
0.0
 11
67.297817
 21
90.675316
 31
0.0
  0
LINE
  5
1A93
100
AcDbEntity
  8
TRACK
100
AcDbLine
 10
67.297817
 20
89.048381
 30
0.0
 11
1.943394
 21
51.315988
 31
0.0
  0
LINE
  5
26EA
100
AcDbEntity
  8
STUD
100
AcDbLine
 10
15.980786
 20
59.42048
 30
0.0
 11
15.980786
 21
42.950358
 31
0.0
  0
LINE
  5
26EB
100
AcDbEntity
  8
STUD
100
AcDbLine
 10
17.308278
 20
54.427863
 30
0.0
 11
17.308278
 21
51.18047
 31
0.0
  0
LINE
  5
26EC
100
AcDbEntity
  8
STUD
100
AcDbLine
 10
17.746867
 20
54.177251
 30
0.0
 11
17.746867
 21
50.927251
 31
0.0
  0
LINE
  5
26ED
100
AcDbEntity
  8
STUD
100
AcDbLine
 10
17.781467
 20
54.157274
 30
0.0
 11
17.781467
 21
50.907274
 31
0.0
  0
LINE
  5
26EE
100
AcDbEntity
  8
STUD
100
AcDbLine
 10
20.33992
 20
61.937227
 30
0.0
 11
20.33992
 21
23.447524
 31
0.0
  0
POLYLINE
  5
2713
100
AcDbEntity
  8
STUD
100
AcDb2dPolyline
 66
     1
 10
0.0
 20
0.0
 30
0.0
 70
     1
  0
VERTEX
  5
2714
100
AcDbEntity
  8
STUD
100
AcDbVertex
100
AcDb2dVertex
 10
18.262476
 20
29.735226
 30
0.0
 42
0.267949
  0
VERTEX
  5
2715
100
AcDbEntity
  8
STUD
100
AcDbVertex
100
AcDb2dVertex
 10
18.137476
 20
29.951732
 30
0.0
  0
VERTEX
  5
2716
100
AcDbEntity
  8
STUD
100
AcDbVertex
100
AcDb2dVertex
 10
17.338438
 20
30.413057
 30
0.0
 42
0.57735
  0
VERTEX
  5
2717
100
AcDbEntity
  8
STUD
100
AcDbVertex
100
AcDb2dVertex
 10
16.963438
 20
30.196551
 30
0.0
  0
VERTEX
  5
2718
100
AcDbEntity
  8
STUD
100
AcDbVertex
100
AcDb2dVertex
 10
16.963438
 20
27.523901
 30
0.0
 42
0.267949
  0
VERTEX
  5
2719
100
AcDbEntity
  8
STUD
100
AcDbVertex
100
AcDb2dVertex
 10
17.088438
 20
27.307394
 30
0.0
  0
VERTEX
  5
271A
100
AcDbEntity
  8
STUD
100
AcDbVertex
100
AcDb2dVertex
 10
17.887476
 20
26.84607
 30
0.0
 42
0.57735
  0
VERTEX
  5
271B
100
AcDbEntity
  8
STUD
100
AcDbVertex
100
AcDb2dVertex
 10
18.262476
 20
27.062576
 30
0.0
  0
SEQEND
  5
271C
100
AcDbEntity
  8
STUD
  0
POLYLINE
  5
271D
100
AcDbEntity
  8
STUD
100
AcDb2dPolyline
 66
     1
 10
0.0
 20
0.0
 30
0.0
 70
     1
  0
VERTEX
  5
271E
100
AcDbEntity
  8
STUD
100
AcDbVertex
100
AcDb2dVertex
 10
18.262476
 20
53.735226
 30
0.0
 42
0.267949
  0
VERTEX
  5
271F
100
AcDbEntity
  8
STUD
100
AcDbVertex
100
AcDb2dVertex
 10
18.137476
 20
53.951732
 30
0.0
  0
VERTEX
  5
2720
100
AcDbEntity
  8
STUD
100
AcDbVertex
100
AcDb2dVertex
 10
17.338438
 20
54.413057
 30
0.0
 42
0.57735
  0
VERTEX
  5
2721
100
AcDbEntity
  8
STUD
100
AcDbVertex
100
AcDb2dVertex
 10
16.963438
 20
54.196551
 30
0.0
  0
VERTEX
  5
2722
100
AcDbEntity
  8
STUD
100
AcDbVertex
100
AcDb2dVertex
 10
16.963438
 20
51.523901
 30
0.0
 42
0.267949
  0
VERTEX
  5
2723
100
AcDbEntity
  8
STUD
100
AcDbVertex
100
AcDb2dVertex
 10
17.088438
 20
51.307394
 30
0.0
  0
VERTEX
  5
2724
100
AcDbEntity
  8
STUD
100
AcDbVertex
100
AcDb2dVertex
 10
17.887476
 20
50.84607
 30
0.0
 42
0.57735
  0
VERTEX
  5
2725
100
AcDbEntity
  8
STUD
100
AcDbVertex
100
AcDb2dVertex
 10
18.262476
 20
51.062576
 30
0.0
  0
SEQEND
  5
2726
100
AcDbEntity
  8
STUD
  0
LINE
  5
274A
100
AcDbEntity
  8
STUD
100
AcDbLine
 10
29.837193
 20
67.42048
 30
0.0
 11
29.837193
 21
50.950358
 31
0.0
  0
LINE
  5
274B
100
AcDbEntity
  8
STUD
100
AcDbLine
 10
31.164684
 20
62.427863
 30
0.0
 11
31.164684
 21
59.18047
 31
0.0
  0
LINE
  5
274C
100
AcDbEntity
  8
STUD
100
AcDbLine
 10
31.603273
 20
62.177251
 30
0.0
 11
31.603273
 21
58.927251
 31
0.0
  0
LINE
  5
274D
100
AcDbEntity
  8
STUD
100
AcDbLine
 10
31.637873
 20
62.157274
 30
0.0
 11
31.637873
 21
58.907274
 31
0.0
  0
LINE
  5
274E
100
AcDbEntity
  8
STUD
100
AcDbLine
 10
34.196326
 20
69.937227
 30
0.0
 11
34.196326
 21
30.041128
 31
0.0
  0
POLYLINE
  5
2773
100
AcDbEntity
  8
STUD
100
AcDb2dPolyline
 66
     1
 10
0.0
 20
0.0
 30
0.0
 70
     1
  0
VERTEX
  5
2774
100
AcDbEntity
  8
STUD
100
AcDbVertex
100
AcDb2dVertex
 10
32.118883
 20
37.735226
 30
0.0
 42
0.267949
  0
VERTEX
  5
2775
100
AcDbEntity
  8
STUD
100
AcDbVertex
100
AcDb2dVertex
 10
31.993883
 20
37.951732
 30
0.0
  0
VERTEX
  5
2776
100
AcDbEntity
  8
STUD
100
AcDbVertex
100
AcDb2dVertex
 10
31.194845
 20
38.413057
 30
0.0
 42
0.57735
  0
VERTEX
  5
2777
100
AcDbEntity
  8
STUD
100
AcDbVertex
100
AcDb2dVertex
 10
30.819845
 20
38.196551
 30
0.0
  0
VERTEX
  5
2778
100
AcDbEntity
  8
STUD
100
AcDbVertex
100
AcDb2dVertex
 10
30.819845
 20
35.523901
 30
0.0
 42
0.267949
  0
VERTEX
  5
2779
100
AcDbEntity
  8
STUD
100
AcDbVertex
100
AcDb2dVertex
 10
30.944845
 20
35.307394
 30
0.0
  0
VERTEX
  5
277A
100
AcDbEntity
  8
STUD
100
AcDbVertex
100
AcDb2dVertex
 10
31.743883
 20
34.84607
 30
0.0
 42
0.57735
  0
VERTEX
  5
277B
100
AcDbEntity
  8
STUD
100
AcDbVertex
100
AcDb2dVertex
 10
32.118883
 20
35.062576
 30
0.0
  0
SEQEND
  5
277C
100
AcDbEntity
  8
STUD
  0
POLYLINE
  5
277D
100
AcDbEntity
  8
STUD
100
AcDb2dPolyline
 66
     1
 10
0.0
 20
0.0
 30
0.0
 70
     1
  0
VERTEX
  5
277E
100
AcDbEntity
  8
STUD
100
AcDbVertex
100
AcDb2dVertex
 10
32.118883
 20
61.735226
 30
0.0
 42
0.267949
  0
VERTEX
  5
277F
100
AcDbEntity
  8
STUD
100
AcDbVertex
100
AcDb2dVertex
 10
31.993883
 20
61.951732
 30
0.0
  0
VERTEX
  5
2780
100
AcDbEntity
  8
STUD
100
AcDbVertex
100
AcDb2dVertex
 10
31.194845
 20
62.413057
 30
0.0
 42
0.57735
  0
VERTEX
  5
2781
100
AcDbEntity
  8
STUD
100
AcDbVertex
100
AcDb2dVertex
 10
30.819845
 20
62.196551
 30
0.0
  0
VERTEX
  5
2782
100
AcDbEntity
  8
STUD
100
AcDbVertex
100
AcDb2dVertex
 10
30.819845
 20
59.523901
 30
0.0
 42
0.267949
  0
VERTEX
  5
2783
100
AcDbEntity
  8
STUD
100
AcDbVertex
100
AcDb2dVertex
 10
30.944845
 20
59.307394
 30
0.0
  0
VERTEX
  5
2784
100
AcDbEntity
  8
STUD
100
AcDbVertex
100
AcDb2dVertex
 10
31.743883
 20
58.84607
 30
0.0
 42
0.57735
  0
VERTEX
  5
2785
100
AcDbEntity
  8
STUD
100
AcDbVertex
100
AcDb2dVertex
 10
32.118883
 20
59.062576
 30
0.0
  0
SEQEND
  5
2786
100
AcDbEntity
  8
STUD
  0
LINE
  5
27AA
100
AcDbEntity
  8
STUD
100
AcDbLine
 10
43.693599
 20
75.42048
 30
0.0
 11
43.693599
 21
58.950358
 31
0.0
  0
LINE
  5
27AB
100
AcDbEntity
  8
STUD
100
AcDbLine
 10
45.021091
 20
70.427863
 30
0.0
 11
45.021091
 21
67.18047
 31
0.0
  0
LINE
  5
27AC
100
AcDbEntity
  8
STUD
100
AcDbLine
 10
45.45968
 20
70.177251
 30
0.0
 11
45.45968
 21
66.927251
 31
0.0
  0
LINE
  5
27AD
100
AcDbEntity
  8
STUD
100
AcDbLine
 10
45.49428
 20
70.157274
 30
0.0
 11
45.49428
 21
66.907274
 31
0.0
  0
LINE
  5
27AE
100
AcDbEntity
  8
STUD
100
AcDbLine
 10
48.052733
 20
77.937227
 30
0.0
 11
48.052733
 21
35.019048
 31
0.0
  0
POLYLINE
  5
27D3
100
AcDbEntity
  8
STUD
100
AcDb2dPolyline
 66
     1
 10
0.0
 20
0.0
 30
0.0
 70
     1
  0
VERTEX
  5
27D4
100
AcDbEntity
  8
STUD
100
AcDbVertex
100
AcDb2dVertex
 10
45.975289
 20
45.735226
 30
0.0
 42
0.267949
  0
VERTEX
  5
27D5
100
AcDbEntity
  8
STUD
100
AcDbVertex
100
AcDb2dVertex
 10
45.850289
 20
45.951732
 30
0.0
  0
VERTEX
  5
27D6
100
AcDbEntity
  8
STUD
100
AcDbVertex
100
AcDb2dVertex
 10
45.051251
 20
46.413057
 30
0.0
 42
0.57735
  0
VERTEX
  5
27D7
100
AcDbEntity
  8
STUD
100
AcDbVertex
100
AcDb2dVertex
 10
44.676251
 20
46.196551
 30
0.0
  0
VERTEX
  5
27D8
100
AcDbEntity
  8
STUD
100
AcDbVertex
100
AcDb2dVertex
 10
44.676251
 20
43.523901
 30
0.0
 42
0.267949
  0
VERTEX
  5
27D9
100
AcDbEntity
  8
STUD
100
AcDbVertex
100
AcDb2dVertex
 10
44.801251
 20
43.307394
 30
0.0
  0
VERTEX
  5
27DA
100
AcDbEntity
  8
STUD
100
AcDbVertex
100
AcDb2dVertex
 10
45.600289
 20
42.84607
 30
0.0
 42
0.57735
  0
VERTEX
  5
27DB
100
AcDbEntity
  8
STUD
100
AcDbVertex
100
AcDb2dVertex
 10
45.975289
 20
43.062576
 30
0.0
  0
SEQEND
  5
27DC
100
AcDbEntity
  8
STUD
  0
POLYLINE
  5
27DD
100
AcDbEntity
  8
STUD
100
AcDb2dPolyline
 66
     1
 10
0.0
 20
0.0
 30
0.0
 70
     1
  0
VERTEX
  5
27DE
100
AcDbEntity
  8
STUD
100
AcDbVertex
100
AcDb2dVertex
 10
45.975289
 20
69.735226
 30
0.0
 42
0.267949
  0
VERTEX
  5
27DF
100
AcDbEntity
  8
STUD
100
AcDbVertex
100
AcDb2dVertex
 10
45.850289
 20
69.951732
 30
0.0
  0
VERTEX
  5
27E0
100
AcDbEntity
  8
STUD
100
AcDbVertex
100
AcDb2dVertex
 10
45.051251
 20
70.413057
 30
0.0
 42
0.57735
  0
VERTEX
  5
27E1
100
AcDbEntity
  8
STUD
100
AcDbVertex
100
AcDb2dVertex
 10
44.676251
 20
70.196551
 30
0.0
  0
VERTEX
  5
27E2
100
AcDbEntity
  8
STUD
100
AcDbVertex
100
AcDb2dVertex
 10
44.676251
 20
67.523901
 30
0.0
 42
0.267949
  0
VERTEX
  5
27E3
100
AcDbEntity
  8
STUD
100
AcDbVertex
100
AcDb2dVertex
 10
44.801251
 20
67.307394
 30
0.0
  0
VERTEX
  5
27E4
100
AcDbEntity
  8
STUD
100
AcDbVertex
100
AcDb2dVertex
 10
45.600289
 20
66.84607
 30
0.0
 42
0.57735
  0
VERTEX
  5
27E5
100
AcDbEntity
  8
STUD
100
AcDbVertex
100
AcDb2dVertex
 10
45.975289
 20
67.062576
 30
0.0
  0
SEQEND
  5
27E6
100
AcDbEntity
  8
STUD
  0
LINE
  5
280B
100
AcDbEntity
  8
STUD
100
AcDbLine
 10
58.877497
 20
78.427863
 30
0.0
 11
58.877497
 21
75.18047
 31
0.0
  0
LINE
  5
280C
100
AcDbEntity
  8
STUD
100
AcDbLine
 10
59.316086
 20
78.177251
 30
0.0
 11
59.316086
 21
74.927251
 31
0.0
  0
LINE
  5
280D
100
AcDbEntity
  8
STUD
100
AcDbLine
 10
59.350686
 20
78.157274
 30
0.0
 11
59.350686
 21
74.907274
 31
0.0
  0
POLYLINE
  5
2833
100
AcDbEntity
  8
STUD
100
AcDb2dPolyline
 66
     1
 10
0.0
 20
0.0
 30
0.0
 70
     1
  0
VERTEX
  5
2834
100
AcDbEntity
  8
STUD
100
AcDbVertex
100
AcDb2dVertex
 10
59.831696
 20
53.735226
 30
0.0
 42
0.267949
  0
VERTEX
  5
2835
100
AcDbEntity
  8
STUD
100
AcDbVertex
100
AcDb2dVertex
 10
59.706696
 20
53.951732
 30
0.0
  0
VERTEX
  5
2836
100
AcDbEntity
  8
STUD
100
AcDbVertex
100
AcDb2dVertex
 10
58.907658
 20
54.413057
 30
0.0
 42
0.57735
  0
VERTEX
  5
2837
100
AcDbEntity
  8
STUD
100
AcDbVertex
100
AcDb2dVertex
 10
58.532658
 20
54.196551
 30
0.0
  0
VERTEX
  5
2838
100
AcDbEntity
  8
STUD
100
AcDbVertex
100
AcDb2dVertex
 10
58.532658
 20
51.523901
 30
0.0
 42
0.267949
  0
VERTEX
  5
2839
100
AcDbEntity
  8
STUD
100
AcDbVertex
100
AcDb2dVertex
 10
58.657658
 20
51.307394
 30
0.0
  0
VERTEX
  5
283A
100
AcDbEntity
  8
STUD
100
AcDbVertex
100
AcDb2dVertex
 10
59.456696
 20
50.84607
 30
0.0
 42
0.57735
  0
VERTEX
  5
283B
100
AcDbEntity
  8
STUD
100
AcDbVertex
100
AcDb2dVertex
 10
59.831696
 20
51.062576
 30
0.0
  0
SEQEND
  5
283C
100
AcDbEntity
  8
STUD
  0
POLYLINE
  5
283D
100
AcDbEntity
  8
STUD
100
AcDb2dPolyline
 66
     1
 10
0.0
 20
0.0
 30
0.0
 70
     1
  0
VERTEX
  5
283E
100
AcDbEntity
  8
STUD
100
AcDbVertex
100
AcDb2dVertex
 10
59.831696
 20
77.735226
 30
0.0
 42
0.267949
  0
VERTEX
  5
283F
100
AcDbEntity
  8
STUD
100
AcDbVertex
100
AcDb2dVertex
 10
59.706696
 20
77.951732
 30
0.0
  0
VERTEX
  5
2840
100
AcDbEntity
  8
STUD
100
AcDbVertex
100
AcDb2dVertex
 10
58.907658
 20
78.413057
 30
0.0
 42
0.57735
  0
VERTEX
  5
2841
100
AcDbEntity
  8
STUD
100
AcDbVertex
100
AcDb2dVertex
 10
58.532658
 20
78.196551
 30
0.0
  0
VERTEX
  5
2842
100
AcDbEntity
  8
STUD
100
AcDbVertex
100
AcDb2dVertex
 10
58.532658
 20
75.523901
 30
0.0
 42
0.267949
  0
VERTEX
  5
2843
100
AcDbEntity
  8
STUD
100
AcDbVertex
100
AcDb2dVertex
 10
58.657658
 20
75.307394
 30
0.0
  0
VERTEX
  5
2844
100
AcDbEntity
  8
STUD
100
AcDbVertex
100
AcDb2dVertex
 10
59.456696
 20
74.84607
 30
0.0
 42
0.57735
  0
VERTEX
  5
2845
100
AcDbEntity
  8
STUD
100
AcDbVertex
100
AcDb2dVertex
 10
59.831696
 20
75.062576
 30
0.0
  0
SEQEND
  5
2846
100
AcDbEntity
  8
STUD
  0
LINE
  5
28C1
100
AcDbEntity
  8
STUD
100
AcDbLine
 10
17.781467
 20
30.157274
 30
0.0
 11
17.781467
 21
26.907274
 31
0.0
  0
LINE
  5
28C2
100
AcDbEntity
  8
STUD
100
AcDbLine
 10
17.746867
 20
30.177251
 30
0.0
 11
17.746867
 21
26.927251
 31
0.0
  0
LINE
  5
28C3
100
AcDbEntity
  8
STUD
100
AcDbLine
 10
17.308278
 20
30.427863
 30
0.0
 11
17.308278
 21
27.18047
 31
0.0
  0
LINE
  5
28D0
100
AcDbEntity
  8
STUD
100
AcDbLine
 10
31.637873
 20
38.157274
 30
0.0
 11
31.637873
 21
34.907274
 31
0.0
  0
LINE
  5
28D1
100
AcDbEntity
  8
STUD
100
AcDbLine
 10
31.603273
 20
38.177251
 30
0.0
 11
31.603273
 21
34.927251
 31
0.0
  0
LINE
  5
28D2
100
AcDbEntity
  8
STUD
100
AcDbLine
 10
31.164684
 20
38.427863
 30
0.0
 11
31.164684
 21
35.18047
 31
0.0
  0
LINE
  5
28D3
100
AcDbEntity
  8
STUD
100
AcDbLine
 10
45.49428
 20
46.157274
 30
0.0
 11
45.49428
 21
42.907274
 31
0.0
  0
LINE
  5
28D4
100
AcDbEntity
  8
STUD
100
AcDbLine
 10
45.45968
 20
46.177251
 30
0.0
 11
45.45968
 21
42.927251
 31
0.0
  0
LINE
  5
28D5
100
AcDbEntity
  8
STUD
100
AcDbLine
 10
45.021091
 20
46.427863
 30
0.0
 11
45.021091
 21
43.18047
 31
0.0
  0
LINE
  5
715A
100
AcDbEntity
  8
STUD
100
AcDbLine
 10
18.995128
 20
61.160811
 30
0.0
 11
18.995128
 21
22.670572
 31
0.0
  0
LINE
  5
715B
100
AcDbEntity
  8
STUD
100
AcDbLine
 10
19.057628
 20
61.196896
 30
0.0
 11
19.057628
 21
22.706681
 31
0.0
  0
LINE
  5
715C
100
AcDbEntity
  8
STUD
100
AcDbLine
 10
32.851535
 20
69.160811
 30
0.0
 11
32.851535
 21
29.264176
 31
0.0
  0
LINE
  5
715D
100
AcDbEntity
  8
STUD
100
AcDbLine
 10
32.914035
 20
69.196896
 30
0.0
 11
32.914035
 21
29.300285
 31
0.0
  0
LINE
  5
715E
100
AcDbEntity
  8
STUD
100
AcDbLine
 10
46.707941
 20
77.160811
 30
0.0
 11
46.707941
 21
34.242096
 31
0.0
  0
LINE
  5
715F
100
AcDbEntity
  8
STUD
100
AcDbLine
 10
46.770441
 20
77.196896
 30
0.0
 11
46.770441
 21
34.278205
 31
0.0
  0
LINE
  5
7160
100
AcDbEntity
  8
STUD
100
AcDbLine
 10
60.564348
 20
85.160811
 30
0.0
 11
60.564348
 21
48.005116
 31
0.0
  0
LINE
  5
7161
100
AcDbEntity
  8
STUD
100
AcDbLine
 10
60.626848
 20
85.196896
 30
0.0
 11
60.626848
 21
48.0412
 31
0.0
  0
LINE
  5
BDC3
100
AcDbEntity
  8
JOIST
100
AcDbLine
 10
32.586479
 20
43.455202
 30
0.0
 11
20.33992
 21
50.525756
 31
0.0
  0
LINE
  5
BDC5
100
AcDbEntity
  8
JOIST
100
AcDbLine
 10
32.600429
 20
43.479364
 30
0.0
 11
20.33992
 21
50.557972
 31
0.0
  0
LINE
  5
BDC6
100
AcDbEntity
  8
JOIST
100
AcDbLine
 10
31.227737
 20
48.594695
 30
0.0
 11
20.33992
 21
54.88078
 31
0.0
  0
POLYLINE
  5
BDDD
100
AcDbEntity
  8
JOIST
100
AcDb2dPolyline
 66
     1
 10
0.0
 20
0.0
 30
0.0
 70
     1
  0
VERTEX
  5
BDDE
100
AcDbEntity
  8
JOIST
100
AcDbVertex
100
AcDb2dVertex
 10
31.227737
 20
48.06828
 30
0.0
  0
VERTEX
  5
BDDF
100
AcDbEntity
  8
JOIST
100
AcDbVertex
100
AcDb2dVertex
 10
31.227737
 20
48.594695
 30
0.0
 42
-0.267949
  0
VERTEX
  5
BDE0
100
AcDbEntity
  8
JOIST
100
AcDbVertex
100
AcDb2dVertex
 10
31.258987
 20
48.648822
 30
0.0
  0
VERTEX
  5
BDE1
100
AcDbEntity
  8
JOIST
100
AcDbVertex
100
AcDb2dVertex
 10
32.541279
 20
49.389153
 30
0.0
 42
-0.57735
  0
VERTEX
  5
BDE2
100
AcDbEntity
  8
JOIST
100
AcDbVertex
100
AcDb2dVertex
 10
32.635029
 20
49.335027
 30
0.0
  0
VERTEX
  5
BDE3
100
AcDbEntity
  8
JOIST
100
AcDbVertex
100
AcDb2dVertex
 10
32.635029
 20
43.479364
 30
0.0
 42
-0.267949
  0
VERTEX
  5
BDE4
100
AcDbEntity
  8
JOIST
100
AcDbVertex
100
AcDb2dVertex
 10
32.603779
 20
43.425238
 30
0.0
  0
VERTEX
  5
BDE5
100
AcDbEntity
  8
JOIST
100
AcDbVertex
100
AcDb2dVertex
 10
31.321487
 20
42.684906
 30
0.0
 42
-0.57735
  0
VERTEX
  5
BDE6
100
AcDbEntity
  8
JOIST
100
AcDbVertex
100
AcDb2dVertex
 10
31.227737
 20
42.739033
 30
0.0
  0
VERTEX
  5
BDE7
100
AcDbEntity
  8
JOIST
100
AcDbVertex
100
AcDb2dVertex
 10
31.227737
 20
43.19328
 30
0.0
  0
VERTEX
  5
BDE8
100
AcDbEntity
  8
JOIST
100
AcDbVertex
100
AcDb2dVertex
 10
31.262337
 20
43.213256
 30
0.0
  0
VERTEX
  5
BDE9
100
AcDbEntity
  8
JOIST
100
AcDbVertex
100
AcDb2dVertex
 10
31.262337
 20
42.739033
 30
0.0
 42
0.57735
  0
VERTEX
  5
BDEA
100
AcDbEntity
  8
JOIST
100
AcDbVertex
100
AcDb2dVertex
 10
31.304187
 20
42.714871
 30
0.0
  0
VERTEX
  5
BDEB
100
AcDbEntity
  8
JOIST
100
AcDbVertex
100
AcDb2dVertex
 10
32.586479
 20
43.455202
 30
0.0
 42
0.267949
  0
VERTEX
  5
BDEC
100
AcDbEntity
  8
JOIST
100
AcDbVertex
100
AcDb2dVertex
 10
32.600429
 20
43.479364
 30
0.0
  0
VERTEX
  5
BDED
100
AcDbEntity
  8
JOIST
100
AcDbVertex
100
AcDb2dVertex
 10
32.600429
 20
49.335027
 30
0.0
 42
0.57735
  0
VERTEX
  5
BDEE
100
AcDbEntity
  8
JOIST
100
AcDbVertex
100
AcDb2dVertex
 10
32.558579
 20
49.359189
 30
0.0
  0
VERTEX
  5
BDEF
100
AcDbEntity
  8
JOIST
100
AcDbVertex
100
AcDb2dVertex
 10
31.276287
 20
48.618858
 30
0.0
 42
0.267949
  0
VERTEX
  5
BDF0
100
AcDbEntity
  8
JOIST
100
AcDbVertex
100
AcDb2dVertex
 10
31.262337
 20
48.594695
 30
0.0
  0
VERTEX
  5
BDF1
100
AcDbEntity
  8
JOIST
100
AcDbVertex
100
AcDb2dVertex
 10
31.262337
 20
48.088256
 30
0.0
  0
SEQEND
  5
BDF2
100
AcDbEntity
  8
JOIST
  0
LINE
  5
BDF3
100
AcDbEntity
  8
JOIST
100
AcDbLine
 10
32.541279
 20
49.389153
 30
0.0
 11
20.33992
 21
56.433611
 31
0.0
  0
LINE
  5
BDF5
100
AcDbEntity
  8
JOIST
100
AcDbLine
 10
31.258987
 20
48.648822
 30
0.0
 11
20.33992
 21
54.952949
 31
0.0
  0
LINE
  5
BDF7
100
AcDbEntity
  8
JOIST
100
AcDbLine
 10
31.262337
 20
43.213256
 30
0.0
 11
20.33992
 21
49.519317
 31
0.0
  0
LINE
  5
BE05
100
AcDbEntity
  8
JOIST
100
AcDbLine
 10
32.178484
 20
48.969641
 30
0.0
 11
32.176024
 21
48.719653
 31
0.0
  0
LINE
  5
BE06
100
AcDbEntity
  8
JOIST
100
AcDbLine
 10
32.285507
 20
48.782147
 30
0.0
 11
32.069001
 21
48.907147
 31
0.0
  0
ELLIPSE
  5
BE07
100
AcDbEntity
  8
JOIST
100
AcDbEllipse
 10
32.177254
 20
48.844647
 30
0.0
 11
-0.0765465544619698
 21
0.1325825214724749
 31
0.0
210
0.0
220
0.0
230
1.0
 40
0.57735
 41
0.0000000000000219
 42
6.283185307179622
  0
LINE
  5
BE08
100
AcDbEntity
  8
JOIST
100
AcDbLine
 10
32.158807
 20
44.594738
 30
0.0
 11
32.156348
 21
44.34475
 31
0.0
  0
LINE
  5
BE09
100
AcDbEntity
  8
JOIST
100
AcDbLine
 10
32.265831
 20
44.407244
 30
0.0
 11
32.049324
 21
44.532244
 31
0.0
  0
ELLIPSE
  5
BE0A
100
AcDbEntity
  8
JOIST
100
AcDbEllipse
 10
32.157578
 20
44.469744
 30
0.0
 11
-0.0765465544619697
 21
0.132582521472475
 31
0.0
210
0.0
220
0.0
230
1.0
 40
0.57735
 41
0.0000000000000231
 42
6.283185307179623
  0
LINE
  5
BE87
100
AcDbEntity
  8
JOIST
100
AcDbLine
 10
45.118744
 20
51.213256
 30
0.0
 11
34.196326
 21
57.519317
 31
0.0
  0
LINE
  5
BE89
100
AcDbEntity
  8
JOIST
100
AcDbLine
 10
45.115394
 20
56.648822
 30
0.0
 11
34.196326
 21
62.952949
 31
0.0
  0
LINE
  5
BE8B
100
AcDbEntity
  8
JOIST
100
AcDbLine
 10
46.397685
 20
57.389153
 30
0.0
 11
34.196326
 21
64.433611
 31
0.0
  0
LINE
  5
BE8C
100
AcDbEntity
  8
JOIST
100
AcDbLine
 10
45.084144
 20
56.594695
 30
0.0
 11
34.196326
 21
62.88078
 31
0.0
  0
LINE
  5
BE8D
100
AcDbEntity
  8
JOIST
100
AcDbLine
 10
46.456835
 20
51.479364
 30
0.0
 11
34.196326
 21
58.557972
 31
0.0
  0
LINE
  5
BE8F
100
AcDbEntity
  8
JOIST
100
AcDbLine
 10
46.442885
 20
51.455202
 30
0.0
 11
34.196326
 21
58.525756
 31
0.0
  0
ELLIPSE
  5
BE93
100
AcDbEntity
  8
JOIST
100
AcDbEllipse
 10
46.013984
 20
52.469744
 30
0.0
 11
-0.0765465544619697
 21
0.132582521472475
 31
0.0
210
0.0
220
0.0
230
1.0
 40
0.57735
 41
0.0000000000000231
 42
6.283185307179623
  0
LINE
  5
BE94
100
AcDbEntity
  8
JOIST
100
AcDbLine
 10
46.122237
 20
52.407244
 30
0.0
 11
45.905731
 21
52.532244
 31
0.0
  0
LINE
  5
BE95
100
AcDbEntity
  8
JOIST
100
AcDbLine
 10
46.015214
 20
52.594738
 30
0.0
 11
46.012754
 21
52.34475
 31
0.0
  0
ELLIPSE
  5
BE96
100
AcDbEntity
  8
JOIST
100
AcDbEllipse
 10
46.03366
 20
56.844647
 30
0.0
 11
-0.0765465544619698
 21
0.1325825214724749
 31
0.0
210
0.0
220
0.0
230
1.0
 40
0.57735
 41
0.0000000000000219
 42
6.283185307179622
  0
LINE
  5
BE97
100
AcDbEntity
  8
JOIST
100
AcDbLine
 10
46.141914
 20
56.782147
 30
0.0
 11
45.925407
 21
56.907147
 31
0.0
  0
LINE
  5
BE98
100
AcDbEntity
  8
JOIST
100
AcDbLine
 10
46.03489
 20
56.969641
 30
0.0
 11
46.032431
 21
56.719653
 31
0.0
  0
POLYLINE
  5
BE99
100
AcDbEntity
  8
JOIST
100
AcDb2dPolyline
 66
     1
 10
0.0
 20
0.0
 30
0.0
 70
     1
  0
VERTEX
  5
BE9A
100
AcDbEntity
  8
JOIST
100
AcDbVertex
100
AcDb2dVertex
 10
45.084144
 20
56.06828
 30
0.0
  0
VERTEX
  5
BE9B
100
AcDbEntity
  8
JOIST
100
AcDbVertex
100
AcDb2dVertex
 10
45.084144
 20
56.594695
 30
0.0
 42
-0.267949
  0
VERTEX
  5
BE9C
100
AcDbEntity
  8
JOIST
100
AcDbVertex
100
AcDb2dVertex
 10
45.115394
 20
56.648822
 30
0.0
  0
VERTEX
  5
BE9D
100
AcDbEntity
  8
JOIST
100
AcDbVertex
100
AcDb2dVertex
 10
46.397685
 20
57.389153
 30
0.0
 42
-0.57735
  0
VERTEX
  5
BE9E
100
AcDbEntity
  8
JOIST
100
AcDbVertex
100
AcDb2dVertex
 10
46.491435
 20
57.335027
 30
0.0
  0
VERTEX
  5
BE9F
100
AcDbEntity
  8
JOIST
100
AcDbVertex
100
AcDb2dVertex
 10
46.491435
 20
51.479364
 30
0.0
 42
-0.267949
  0
VERTEX
  5
BEA0
100
AcDbEntity
  8
JOIST
100
AcDbVertex
100
AcDb2dVertex
 10
46.460185
 20
51.425238
 30
0.0
  0
VERTEX
  5
BEA1
100
AcDbEntity
  8
JOIST
100
AcDbVertex
100
AcDb2dVertex
 10
45.177894
 20
50.684906
 30
0.0
 42
-0.57735
  0
VERTEX
  5
BEA2
100
AcDbEntity
  8
JOIST
100
AcDbVertex
100
AcDb2dVertex
 10
45.084144
 20
50.739033
 30
0.0
  0
VERTEX
  5
BEA3
100
AcDbEntity
  8
JOIST
100
AcDbVertex
100
AcDb2dVertex
 10
45.084144
 20
51.19328
 30
0.0
  0
VERTEX
  5
BEA4
100
AcDbEntity
  8
JOIST
100
AcDbVertex
100
AcDb2dVertex
 10
45.118744
 20
51.213256
 30
0.0
  0
VERTEX
  5
BEA5
100
AcDbEntity
  8
JOIST
100
AcDbVertex
100
AcDb2dVertex
 10
45.118744
 20
50.739033
 30
0.0
 42
0.57735
  0
VERTEX
  5
BEA6
100
AcDbEntity
  8
JOIST
100
AcDbVertex
100
AcDb2dVertex
 10
45.160594
 20
50.714871
 30
0.0
  0
VERTEX
  5
BEA7
100
AcDbEntity
  8
JOIST
100
AcDbVertex
100
AcDb2dVertex
 10
46.442885
 20
51.455202
 30
0.0
 42
0.267949
  0
VERTEX
  5
BEA8
100
AcDbEntity
  8
JOIST
100
AcDbVertex
100
AcDb2dVertex
 10
46.456835
 20
51.479364
 30
0.0
  0
VERTEX
  5
BEA9
100
AcDbEntity
  8
JOIST
100
AcDbVertex
100
AcDb2dVertex
 10
46.456835
 20
57.335027
 30
0.0
 42
0.57735
  0
VERTEX
  5
BEAA
100
AcDbEntity
  8
JOIST
100
AcDbVertex
100
AcDb2dVertex
 10
46.414985
 20
57.359189
 30
0.0
  0
VERTEX
  5
BEAB
100
AcDbEntity
  8
JOIST
100
AcDbVertex
100
AcDb2dVertex
 10
45.132694
 20
56.618858
 30
0.0
 42
0.267949
  0
VERTEX
  5
BEAC
100
AcDbEntity
  8
JOIST
100
AcDbVertex
100
AcDb2dVertex
 10
45.118744
 20
56.594695
 30
0.0
  0
VERTEX
  5
BEAD
100
AcDbEntity
  8
JOIST
100
AcDbVertex
100
AcDb2dVertex
 10
45.118744
 20
56.088256
 30
0.0
  0
SEQEND
  5
BEAE
100
AcDbEntity
  8
JOIST
  0
POLYLINE
  5
BEF0
100
AcDbEntity
  8
JOIST
100
AcDb2dPolyline
 66
     1
 10
0.0
 20
0.0
 30
0.0
 70
     1
  0
VERTEX
  5
BEF1
100
AcDbEntity
  8
JOIST
100
AcDbVertex
100
AcDb2dVertex
 10
51.203228
 20
68.581178
 30
0.0
 42
-0.267949
  0
VERTEX
  5
BEF2
100
AcDbEntity
  8
JOIST
100
AcDbVertex
100
AcDb2dVertex
 10
51.328228
 20
68.364672
 30
0.0
  0
VERTEX
  5
BEF3
100
AcDbEntity
  8
JOIST
100
AcDbVertex
100
AcDb2dVertex
 10
51.328228
 20
67.442022
 30
0.0
 42
-0.57735
  0
VERTEX
  5
BEF4
100
AcDbEntity
  8
JOIST
100
AcDbVertex
100
AcDb2dVertex
 10
50.953228
 20
67.225516
 30
0.0
  0
VERTEX
  5
BEF5
100
AcDbEntity
  8
JOIST
100
AcDbVertex
100
AcDb2dVertex
 10
48.638645
 20
68.561841
 30
0.0
 42
-0.267949
  0
VERTEX
  5
BEF6
100
AcDbEntity
  8
JOIST
100
AcDbVertex
100
AcDb2dVertex
 10
48.513645
 20
68.778347
 30
0.0
  0
VERTEX
  5
BEF7
100
AcDbEntity
  8
JOIST
100
AcDbVertex
100
AcDb2dVertex
 10
48.513645
 20
69.700997
 30
0.0
 42
-0.57735
  0
VERTEX
  5
BEF8
100
AcDbEntity
  8
JOIST
100
AcDbVertex
100
AcDb2dVertex
 10
48.888645
 20
69.917503
 30
0.0
  0
SEQEND
  5
BEF9
100
AcDbEntity
  8
JOIST
  0
LINE
  5
BEFA
100
AcDbEntity
  8
JOIST
100
AcDbLine
 10
58.97515
 20
59.213256
 30
0.0
 11
48.052733
 21
65.519317
 31
0.0
  0
LINE
  5
BEFC
100
AcDbEntity
  8
JOIST
100
AcDbLine
 10
58.9718
 20
64.648822
 30
0.0
 11
48.052733
 21
70.952949
 31
0.0
  0
LINE
  5
BEFE
100
AcDbEntity
  8
JOIST
100
AcDbLine
 10
60.254091
 20
65.389153
 30
0.0
 11
48.052733
 21
72.433611
 31
0.0
  0
LINE
  5
BEFF
100
AcDbEntity
  8
JOIST
100
AcDbLine
 10
58.94055
 20
64.594695
 30
0.0
 11
48.052733
 21
70.88078
 31
0.0
  0
LINE
  5
BF00
100
AcDbEntity
  8
JOIST
100
AcDbLine
 10
60.313241
 20
59.479364
 30
0.0
 11
48.052733
 21
66.557972
 31
0.0
  0
LINE
  5
BF02
100
AcDbEntity
  8
JOIST
100
AcDbLine
 10
60.299291
 20
59.455202
 30
0.0
 11
48.052733
 21
66.525756
 31
0.0
  0
ELLIPSE
  5
BF06
100
AcDbEntity
  8
JOIST
100
AcDbEllipse
 10
59.870391
 20
60.469744
 30
0.0
 11
-0.0765465544619697
 21
0.132582521472475
 31
0.0
210
0.0
220
0.0
230
1.0
 40
0.57735
 41
0.0000000000000231
 42
6.283185307179623
  0
LINE
  5
BF07
100
AcDbEntity
  8
JOIST
100
AcDbLine
 10
59.978644
 20
60.407244
 30
0.0
 11
59.762137
 21
60.532244
 31
0.0
  0
LINE
  5
BF08
100
AcDbEntity
  8
JOIST
100
AcDbLine
 10
59.87162
 20
60.594738
 30
0.0
 11
59.869161
 21
60.34475
 31
0.0
  0
ELLIPSE
  5
BF09
100
AcDbEntity
  8
JOIST
100
AcDbEllipse
 10
59.890067
 20
64.844647
 30
0.0
 11
-0.0765465544619698
 21
0.1325825214724749
 31
0.0
210
0.0
220
0.0
230
1.0
 40
0.57735
 41
0.0000000000000219
 42
6.283185307179622
  0
LINE
  5
BF0A
100
AcDbEntity
  8
JOIST
100
AcDbLine
 10
59.99832
 20
64.782147
 30
0.0
 11
59.781814
 21
64.907147
 31
0.0
  0
LINE
  5
BF0B
100
AcDbEntity
  8
JOIST
100
AcDbLine
 10
59.891297
 20
64.969641
 30
0.0
 11
59.888837
 21
64.719653
 31
0.0
  0
POLYLINE
  5
BF0C
100
AcDbEntity
  8
JOIST
100
AcDb2dPolyline
 66
     1
 10
0.0
 20
0.0
 30
0.0
 70
     1
  0
VERTEX
  5
BF0D
100
AcDbEntity
  8
JOIST
100
AcDbVertex
100
AcDb2dVertex
 10
58.94055
 20
64.06828
 30
0.0
  0
VERTEX
  5
BF0E
100
AcDbEntity
  8
JOIST
100
AcDbVertex
100
AcDb2dVertex
 10
58.94055
 20
64.594695
 30
0.0
 42
-0.267949
  0
VERTEX
  5
BF0F
100
AcDbEntity
  8
JOIST
100
AcDbVertex
100
AcDb2dVertex
 10
58.9718
 20
64.648822
 30
0.0
  0
VERTEX
  5
BF10
100
AcDbEntity
  8
JOIST
100
AcDbVertex
100
AcDb2dVertex
 10
60.254091
 20
65.389153
 30
0.0
 42
-0.57735
  0
VERTEX
  5
BF11
100
AcDbEntity
  8
JOIST
100
AcDbVertex
100
AcDb2dVertex
 10
60.347841
 20
65.335027
 30
0.0
  0
VERTEX
  5
BF12
100
AcDbEntity
  8
JOIST
100
AcDbVertex
100
AcDb2dVertex
 10
60.347841
 20
59.479364
 30
0.0
 42
-0.267949
  0
VERTEX
  5
BF13
100
AcDbEntity
  8
JOIST
100
AcDbVertex
100
AcDb2dVertex
 10
60.316591
 20
59.425238
 30
0.0
  0
VERTEX
  5
BF14
100
AcDbEntity
  8
JOIST
100
AcDbVertex
100
AcDb2dVertex
 10
59.0343
 20
58.684906
 30
0.0
 42
-0.57735
  0
VERTEX
  5
BF15
100
AcDbEntity
  8
JOIST
100
AcDbVertex
100
AcDb2dVertex
 10
58.94055
 20
58.739033
 30
0.0
  0
VERTEX
  5
BF16
100
AcDbEntity
  8
JOIST
100
AcDbVertex
100
AcDb2dVertex
 10
58.94055
 20
59.19328
 30
0.0
  0
VERTEX
  5
BF17
100
AcDbEntity
  8
JOIST
100
AcDbVertex
100
AcDb2dVertex
 10
58.97515
 20
59.213256
 30
0.0
  0
VERTEX
  5
BF18
100
AcDbEntity
  8
JOIST
100
AcDbVertex
100
AcDb2dVertex
 10
58.97515
 20
58.739033
 30
0.0
 42
0.57735
  0
VERTEX
  5
BF19
100
AcDbEntity
  8
JOIST
100
AcDbVertex
100
AcDb2dVertex
 10
59.017
 20
58.714871
 30
0.0
  0
VERTEX
  5
BF1A
100
AcDbEntity
  8
JOIST
100
AcDbVertex
100
AcDb2dVertex
 10
60.299291
 20
59.455202
 30
0.0
 42
0.267949
  0
VERTEX
  5
BF1B
100
AcDbEntity
  8
JOIST
100
AcDbVertex
100
AcDb2dVertex
 10
60.313241
 20
59.479364
 30
0.0
  0
VERTEX
  5
BF1C
100
AcDbEntity
  8
JOIST
100
AcDbVertex
100
AcDb2dVertex
 10
60.313241
 20
65.335027
 30
0.0
 42
0.57735
  0
VERTEX
  5
BF1D
100
AcDbEntity
  8
JOIST
100
AcDbVertex
100
AcDb2dVertex
 10
60.271391
 20
65.359189
 30
0.0
  0
VERTEX
  5
BF1E
100
AcDbEntity
  8
JOIST
100
AcDbVertex
100
AcDb2dVertex
 10
58.9891
 20
64.618858
 30
0.0
 42
0.267949
  0
VERTEX
  5
BF1F
100
AcDbEntity
  8
JOIST
100
AcDbVertex
100
AcDb2dVertex
 10
58.97515
 20
64.594695
 30
0.0
  0
VERTEX
  5
BF20
100
AcDbEntity
  8
JOIST
100
AcDbVertex
100
AcDb2dVertex
 10
58.97515
 20
64.088256
 30
0.0
  0
SEQEND
  5
BF21
100
AcDbEntity
  8
JOIST
  0
LINE
  5
C061
100
AcDbEntity
  8
JOIST
100
AcDbLine
 10
17.405931
 20
35.213256
 30
0.0
 11
6.547634
 21
41.482297
 31
0.0
  0
LINE
  5
C063
100
AcDbEntity
  8
JOIST
100
AcDbLine
 10
17.402581
 20
40.648822
 30
0.0
 11
6.547634
 21
46.915929
 31
0.0
  0
LINE
  5
C065
100
AcDbEntity
  8
JOIST
100
AcDbLine
 10
18.684872
 20
41.389153
 30
0.0
 11
6.547634
 21
48.396591
 31
0.0
  0
LINE
  5
C066
100
AcDbEntity
  8
JOIST
100
AcDbLine
 10
17.371331
 20
40.594695
 30
0.0
 11
6.547634
 21
46.84376
 31
0.0
  0
LINE
  5
C067
100
AcDbEntity
  8
JOIST
100
AcDbLine
 10
18.744022
 20
35.479364
 30
0.0
 11
6.547634
 21
42.520952
 31
0.0
  0
LINE
  5
C069
100
AcDbEntity
  8
JOIST
100
AcDbLine
 10
18.730072
 20
35.455202
 30
0.0
 11
6.547634
 21
42.488736
 31
0.0
  0
ELLIPSE
  5
C06D
100
AcDbEntity
  8
JOIST
100
AcDbEllipse
 10
18.301171
 20
36.469744
 30
0.0
 11
-0.0765465544619697
 21
0.132582521472475
 31
0.0
210
0.0
220
0.0
230
1.0
 40
0.57735
 41
0.0000000000000231
 42
6.283185307179623
  0
LINE
  5
C06E
100
AcDbEntity
  8
JOIST
100
AcDbLine
 10
18.409424
 20
36.407244
 30
0.0
 11
18.192918
 21
36.532244
 31
0.0
  0
LINE
  5
C06F
100
AcDbEntity
  8
JOIST
100
AcDbLine
 10
18.302401
 20
36.594738
 30
0.0
 11
18.299941
 21
36.34475
 31
0.0
  0
ELLIPSE
  5
C070
100
AcDbEntity
  8
JOIST
100
AcDbEllipse
 10
18.320848
 20
40.844647
 30
0.0
 11
-0.0765465544619698
 21
0.1325825214724749
 31
0.0
210
0.0
220
0.0
230
1.0
 40
0.57735
 41
0.0000000000000219
 42
6.283185307179622
  0
LINE
  5
C071
100
AcDbEntity
  8
JOIST
100
AcDbLine
 10
18.429101
 20
40.782147
 30
0.0
 11
18.212594
 21
40.907147
 31
0.0
  0
LINE
  5
C072
100
AcDbEntity
  8
JOIST
100
AcDbLine
 10
18.322077
 20
40.969641
 30
0.0
 11
18.319618
 21
40.719653
 31
0.0
  0
POLYLINE
  5
C073
100
AcDbEntity
  8
JOIST
100
AcDb2dPolyline
 66
     1
 10
0.0
 20
0.0
 30
0.0
 70
     1
  0
VERTEX
  5
C074
100
AcDbEntity
  8
JOIST
100
AcDbVertex
100
AcDb2dVertex
 10
17.371331
 20
40.06828
 30
0.0
  0
VERTEX
  5
C075
100
AcDbEntity
  8
JOIST
100
AcDbVertex
100
AcDb2dVertex
 10
17.371331
 20
40.594695
 30
0.0
 42
-0.267949
  0
VERTEX
  5
C076
100
AcDbEntity
  8
JOIST
100
AcDbVertex
100
AcDb2dVertex
 10
17.402581
 20
40.648822
 30
0.0
  0
VERTEX
  5
C077
100
AcDbEntity
  8
JOIST
100
AcDbVertex
100
AcDb2dVertex
 10
18.684872
 20
41.389153
 30
0.0
 42
-0.57735
  0
VERTEX
  5
C078
100
AcDbEntity
  8
JOIST
100
AcDbVertex
100
AcDb2dVertex
 10
18.778622
 20
41.335027
 30
0.0
  0
VERTEX
  5
C079
100
AcDbEntity
  8
JOIST
100
AcDbVertex
100
AcDb2dVertex
 10
18.778622
 20
35.479364
 30
0.0
 42
-0.267949
  0
VERTEX
  5
C07A
100
AcDbEntity
  8
JOIST
100
AcDbVertex
100
AcDb2dVertex
 10
18.747372
 20
35.425238
 30
0.0
  0
VERTEX
  5
C07B
100
AcDbEntity
  8
JOIST
100
AcDbVertex
100
AcDb2dVertex
 10
17.465081
 20
34.684906
 30
0.0
 42
-0.57735
  0
VERTEX
  5
C07C
100
AcDbEntity
  8
JOIST
100
AcDbVertex
100
AcDb2dVertex
 10
17.371331
 20
34.739033
 30
0.0
  0
VERTEX
  5
C07D
100
AcDbEntity
  8
JOIST
100
AcDbVertex
100
AcDb2dVertex
 10
17.371331
 20
35.19328
 30
0.0
  0
VERTEX
  5
C07E
100
AcDbEntity
  8
JOIST
100
AcDbVertex
100
AcDb2dVertex
 10
17.405931
 20
35.213256
 30
0.0
  0
VERTEX
  5
C07F
100
AcDbEntity
  8
JOIST
100
AcDbVertex
100
AcDb2dVertex
 10
17.405931
 20
34.739033
 30
0.0
 42
0.57735
  0
VERTEX
  5
C080
100
AcDbEntity
  8
JOIST
100
AcDbVertex
100
AcDb2dVertex
 10
17.447781
 20
34.714871
 30
0.0
  0
VERTEX
  5
C081
100
AcDbEntity
  8
JOIST
100
AcDbVertex
100
AcDb2dVertex
 10
18.730072
 20
35.455202
 30
0.0
 42
0.267949
  0
VERTEX
  5
C082
100
AcDbEntity
  8
JOIST
100
AcDbVertex
100
AcDb2dVertex
 10
18.744022
 20
35.479364
 30
0.0
  0
VERTEX
  5
C083
100
AcDbEntity
  8
JOIST
100
AcDbVertex
100
AcDb2dVertex
 10
18.744022
 20
41.335027
 30
0.0
 42
0.57735
  0
VERTEX
  5
C084
100
AcDbEntity
  8
JOIST
100
AcDbVertex
100
AcDb2dVertex
 10
18.702172
 20
41.359189
 30
0.0
  0
VERTEX
  5
C085
100
AcDbEntity
  8
JOIST
100
AcDbVertex
100
AcDb2dVertex
 10
17.419881
 20
40.618858
 30
0.0
 42
0.267949
  0
VERTEX
  5
C086
100
AcDbEntity
  8
JOIST
100
AcDbVertex
100
AcDb2dVertex
 10
17.405931
 20
40.594695
 30
0.0
  0
VERTEX
  5
C087
100
AcDbEntity
  8
JOIST
100
AcDbVertex
100
AcDb2dVertex
 10
17.405931
 20
40.088256
 30
0.0
  0
SEQEND
  5
C088
100
AcDbEntity
  8
JOIST
  0
LINE
  5
E1B7
100
AcDbEntity
  8
JOIST
100
AcDbLine
 10
6.547634
 20
40.988097
 30
0.0
 11
17.371331
 21
34.739033
 31
0.0
  0
LINE
  5
E1BE
100
AcDbEntity
  8
JOIST
100
AcDbLine
 10
6.547634
 20
41.442344
 30
0.0
 11
17.371331
 21
35.19328
 31
0.0
  0
LINE
  5
E1C0
100
AcDbEntity
  8
JOIST
100
AcDbLine
 10
6.547634
 20
46.317344
 30
0.0
 11
17.371331
 21
40.06828
 31
0.0
  0
LINE
  5
E394
100
AcDbEntity
  8
STUD
100
AcDbLine
 10
15.980786
 20
35.541864
 30
0.0
 11
15.980786
 21
22.726759
 31
0.0
  0
LINE
  5
E3A4
100
AcDbEntity
  8
STUD
100
AcDbLine
 10
29.837193
 20
43.541864
 30
0.0
 11
29.837193
 21
29.672157
 31
0.0
  0
LINE
  5
E3AE
100
AcDbEntity
  8
JOIST
100
AcDbLine
 10
20.33992
 20
49.025117
 30
0.0
 11
31.227737
 21
42.739033
 31
0.0
  0
LINE
  5
E3AF
100
AcDbEntity
  8
JOIST
100
AcDbLine
 10
20.33992
 20
54.354364
 30
0.0
 11
31.227737
 21
48.06828
 31
0.0
  0
LINE
  5
E3B0
100
AcDbEntity
  8
JOIST
100
AcDbLine
 10
20.33992
 20
49.479364
 30
0.0
 11
31.227737
 21
43.19328
 31
0.0
  0
LINE
  5
E3B1
100
AcDbEntity
  8
JOIST
100
AcDbLine
 10
18.082564
 20
50.822602
 30
0.0
 11
17.781467
 21
50.99644
 31
0.0
  0
LINE
  5
E3B2
100
AcDbEntity
  8
JOIST
100
AcDbLine
 10
15.980786
 20
57.469695
 30
0.0
 11
14.291357
 21
58.445088
 31
0.0
  0
LINE
  5
E3B3
100
AcDbEntity
  8
JOIST
100
AcDbLine
 10
15.980786
 20
58.950358
 30
0.0
 11
15.573648
 21
59.185419
 31
0.0
  0
LINE
  5
E3B4
100
AcDbEntity
  8
JOIST
100
AcDbLine
 10
15.980786
 20
57.397527
 30
0.0
 11
14.228857
 21
58.409003
 31
0.0
  0
LINE
  5
E3B5
100
AcDbEntity
  8
JOIST
100
AcDbLine
 10
18.262476
 20
51.757385
 30
0.0
 11
17.781467
 21
52.035096
 31
0.0
  0
LINE
  5
E3B6
100
AcDbEntity
  8
JOIST
100
AcDbLine
 10
18.262476
 20
51.725169
 30
0.0
 11
17.781467
 21
52.00288
 31
0.0
  0
LINE
  5
E3B7
100
AcDbEntity
  8
JOIST
100
AcDbLine
 10
15.980786
 20
53.042503
 30
0.0
 11
10.457296
 21
56.231492
 31
0.0
  0
LINE
  5
E3B8
100
AcDbEntity
  8
JOIST
100
AcDbLine
 10
15.980786
 20
53.074719
 30
0.0
 11
10.485196
 21
56.2476
 31
0.0
  0
LINE
  5
E3B9
100
AcDbEntity
  8
JOIST
100
AcDbLine
 10
15.980786
 20
52.036064
 30
0.0
 11
9.585694
 21
55.728272
 31
0.0
  0
LINE
  5
E3BA
100
AcDbEntity
  8
JOIST
100
AcDbLine
 10
17.781467
 20
50.956488
 30
0.0
 11
18.0297
 21
50.81317
 31
0.0
  0
POLYLINE
  5
E3BB
100
AcDbEntity
  8
JOIST
100
AcDb2dPolyline
 66
     1
 10
0.0
 20
0.0
 30
0.0
  0
VERTEX
  5
E3BC
100
AcDbEntity
  8
JOIST
100
AcDbVertex
100
AcDb2dVertex
 10
23.58757
 20
52.479332
 30
0.0
 42
-0.119683
  0
VERTEX
  5
E3BD
100
AcDbEntity
  8
JOIST
100
AcDbVertex
100
AcDb2dVertex
 10
23.615415
 20
52.364672
 30
0.0
  0
VERTEX
  5
E3BE
100
AcDbEntity
  8
JOIST
100
AcDbVertex
100
AcDb2dVertex
 10
23.615415
 20
51.442022
 30
0.0
 42
-0.57735
  0
VERTEX
  5
E3BF
100
AcDbEntity
  8
JOIST
100
AcDbVertex
100
AcDb2dVertex
 10
23.240415
 20
51.225516
 30
0.0
  0
VERTEX
  5
E3C0
100
AcDbEntity
  8
JOIST
100
AcDbVertex
100
AcDb2dVertex
 10
20.925832
 20
52.561841
 30
0.0
 42
-0.267949
  0
VERTEX
  5
E3C1
100
AcDbEntity
  8
JOIST
100
AcDbVertex
100
AcDb2dVertex
 10
20.800832
 20
52.778347
 30
0.0
  0
VERTEX
  5
E3C2
100
AcDbEntity
  8
JOIST
100
AcDbVertex
100
AcDb2dVertex
 10
20.800832
 20
53.700997
 30
0.0
 42
-0.400475
  0
VERTEX
  5
E3C3
100
AcDbEntity
  8
JOIST
100
AcDbVertex
100
AcDb2dVertex
 10
21.039054
 20
53.950719
 30
0.0
  0
SEQEND
  5
E3C4
100
AcDbEntity
  8
JOIST
  0
LINE
  5
E3CB
100
AcDbEntity
  8
JOIST
100
AcDbLine
 10
23.407501
 20
63.708296
 30
0.0
 11
29.837193
 21
59.996111
 31
0.0
  0
LINE
  5
E3CC
100
AcDbEntity
  8
JOIST
100
AcDbLine
 10
23.014111
 20
63.481172
 30
0.0
 11
29.837193
 21
59.541864
 31
0.0
  0
LINE
  5
E3CD
100
AcDbEntity
  8
JOIST
100
AcDbLine
 10
9.157705
 20
55.481172
 30
0.0
 11
15.980786
 21
51.541864
 31
0.0
  0
LINE
  5
E3CE
100
AcDbEntity
  8
JOIST
100
AcDbLine
 10
13.772968
 20
58.145796
 30
0.0
 11
15.980786
 21
56.871111
 31
0.0
  0
LINE
  5
E3CF
100
AcDbEntity
  8
JOIST
100
AcDbLine
 10
9.551094
 20
55.708296
 30
0.0
 11
15.980786
 21
51.996111
 31
0.0
  0
LINE
  5
E3D1
100
AcDbEntity
  8
JOIST
100
AcDbLine
 10
36.870518
 20
71.481172
 30
0.0
 11
43.693599
 21
67.541864
 31
0.0
  0
LINE
  5
E3D5
100
AcDbEntity
  8
JOIST
100
AcDbLine
 10
41.485781
 20
74.145796
 30
0.0
 11
43.693599
 21
72.871111
 31
0.0
  0
LINE
  5
E3D7
100
AcDbEntity
  8
JOIST
100
AcDbLine
 10
37.263907
 20
71.708296
 30
0.0
 11
43.693599
 21
67.996111
 31
0.0
  0
LINE
  5
E3DD
100
AcDbEntity
  8
JOIST
100
AcDbLine
 10
27.629374
 20
66.145796
 30
0.0
 11
29.837193
 21
64.871111
 31
0.0
  0
LINE
  5
E3E8
100
AcDbEntity
  8
JOIST
100
AcDbLine
 10
34.196326
 20
62.354364
 30
0.0
 11
45.084144
 21
56.06828
 31
0.0
  0
LINE
  5
E3E9
100
AcDbEntity
  8
JOIST
100
AcDbLine
 10
34.196326
 20
57.025117
 30
0.0
 11
45.084144
 21
50.739033
 31
0.0
  0
LINE
  5
E3EA
100
AcDbEntity
  8
JOIST
100
AcDbLine
 10
31.637873
 20
58.956488
 30
0.0
 11
31.886107
 21
58.81317
 31
0.0
  0
LINE
  5
E3EB
100
AcDbEntity
  8
JOIST
100
AcDbLine
 10
29.837193
 20
61.042503
 30
0.0
 11
24.313703
 21
64.231492
 31
0.0
  0
LINE
  5
E3EC
100
AcDbEntity
  8
JOIST
100
AcDbLine
 10
29.837193
 20
61.074719
 30
0.0
 11
24.341603
 21
64.2476
 31
0.0
  0
LINE
  5
E3ED
100
AcDbEntity
  8
JOIST
100
AcDbLine
 10
29.837193
 20
65.397527
 30
0.0
 11
28.085264
 21
66.409003
 31
0.0
  0
LINE
  5
E3EE
100
AcDbEntity
  8
JOIST
100
AcDbLine
 10
29.837193
 20
66.950358
 30
0.0
 11
29.430055
 21
67.185419
 31
0.0
  0
LINE
  5
E3EF
100
AcDbEntity
  8
JOIST
100
AcDbLine
 10
29.837193
 20
65.469695
 30
0.0
 11
28.147764
 21
66.445088
 31
0.0
  0
LINE
  5
E3F0
100
AcDbEntity
  8
JOIST
100
AcDbLine
 10
29.837193
 20
60.036064
 30
0.0
 11
23.442101
 21
63.728272
 31
0.0
  0
LINE
  5
E3F1
100
AcDbEntity
  8
JOIST
100
AcDbLine
 10
34.196326
 20
57.479364
 30
0.0
 11
45.084144
 21
51.19328
 31
0.0
  0
LINE
  5
E3F2
100
AcDbEntity
  8
JOIST
100
AcDbLine
 10
32.118883
 20
59.725169
 30
0.0
 11
31.637873
 21
60.00288
 31
0.0
  0
LINE
  5
E3F3
100
AcDbEntity
  8
JOIST
100
AcDbLine
 10
32.118883
 20
59.757385
 30
0.0
 11
31.637873
 21
60.035096
 31
0.0
  0
LINE
  5
E3F4
100
AcDbEntity
  8
JOIST
100
AcDbLine
 10
31.938971
 20
58.822602
 30
0.0
 11
31.637873
 21
58.99644
 31
0.0
  0
POLYLINE
  5
E3F5
100
AcDbEntity
  8
JOIST
100
AcDb2dPolyline
 66
     1
 10
0.0
 20
0.0
 30
0.0
  0
VERTEX
  5
E3F6
100
AcDbEntity
  8
JOIST
100
AcDbVertex
100
AcDb2dVertex
 10
37.443977
 20
60.479332
 30
0.0
 42
-0.119683
  0
VERTEX
  5
E3F7
100
AcDbEntity
  8
JOIST
100
AcDbVertex
100
AcDb2dVertex
 10
37.471821
 20
60.364672
 30
0.0
  0
VERTEX
  5
E3F8
100
AcDbEntity
  8
JOIST
100
AcDbVertex
100
AcDb2dVertex
 10
37.471821
 20
59.442022
 30
0.0
 42
-0.57735
  0
VERTEX
  5
E3F9
100
AcDbEntity
  8
JOIST
100
AcDbVertex
100
AcDb2dVertex
 10
37.096821
 20
59.225516
 30
0.0
  0
VERTEX
  5
E3FA
100
AcDbEntity
  8
JOIST
100
AcDbVertex
100
AcDb2dVertex
 10
34.782239
 20
60.561841
 30
0.0
 42
-0.267949
  0
VERTEX
  5
E3FB
100
AcDbEntity
  8
JOIST
100
AcDbVertex
100
AcDb2dVertex
 10
34.657239
 20
60.778347
 30
0.0
  0
VERTEX
  5
E3FC
100
AcDbEntity
  8
JOIST
100
AcDbVertex
100
AcDb2dVertex
 10
34.657239
 20
61.700997
 30
0.0
 42
-0.400475
  0
VERTEX
  5
E3FD
100
AcDbEntity
  8
JOIST
100
AcDbVertex
100
AcDb2dVertex
 10
34.89546
 20
61.950719
 30
0.0
  0
SEQEND
  5
E3FE
100
AcDbEntity
  8
JOIST
  0
LINE
  5
E7DE
100
AcDbEntity
  8
STUD
100
AcDbLine
 10
48.116853
 20
77.974247
 30
0.0
 11
48.116853
 21
35.007722
 31
0.0
  0
LINE
  5
E7E5
100
AcDbEntity
  8
STUD
100
AcDbLine
 10
57.550006
 20
83.42048
 30
0.0
 11
57.550006
 21
66.950358
 31
0.0
  0
LINE
  5
E801
100
AcDbEntity
  8
STUD
100
AcDbLine
 10
43.693599
 20
51.541864
 30
0.0
 11
43.693599
 21
34.644553
 31
0.0
  0
LINE
  5
E802
100
AcDbEntity
  8
STUD
100
AcDbLine
 10
57.550006
 20
59.541864
 30
0.0
 11
57.550006
 21
48.440682
 31
0.0
  0
LINE
  5
E908
100
AcDbEntity
  8
JOIST
100
AcDbLine
 10
48.052733
 20
65.479364
 30
0.0
 11
58.94055
 21
59.19328
 31
0.0
  0
LINE
  5
E909
100
AcDbEntity
  8
JOIST
100
AcDbLine
 10
48.052733
 20
70.354364
 30
0.0
 11
58.94055
 21
64.06828
 31
0.0
  0
LINE
  5
E90A
100
AcDbEntity
  8
JOIST
100
AcDbLine
 10
48.052733
 20
65.025117
 30
0.0
 11
58.94055
 21
58.739033
 31
0.0
  0
LINE
  5
E90B
100
AcDbEntity
  8
JOIST
100
AcDbLine
 10
45.975289
 20
67.725169
 30
0.0
 11
45.49428
 21
68.00288
 31
0.0
  0
LINE
  5
E90C
100
AcDbEntity
  8
JOIST
100
AcDbLine
 10
45.975289
 20
67.757385
 30
0.0
 11
45.49428
 21
68.035096
 31
0.0
  0
LINE
  5
E90D
100
AcDbEntity
  8
JOIST
100
AcDbLine
 10
43.693599
 20
73.397527
 30
0.0
 11
41.94167
 21
74.409003
 31
0.0
  0
LINE
  5
E90E
100
AcDbEntity
  8
JOIST
100
AcDbLine
 10
43.693599
 20
74.950358
 30
0.0
 11
43.286461
 21
75.185419
 31
0.0
  0
LINE
  5
E90F
100
AcDbEntity
  8
JOIST
100
AcDbLine
 10
43.693599
 20
73.469695
 30
0.0
 11
42.00417
 21
74.445088
 31
0.0
  0
LINE
  5
E910
100
AcDbEntity
  8
JOIST
100
AcDbLine
 10
45.795377
 20
66.822602
 30
0.0
 11
45.49428
 21
66.99644
 31
0.0
  0
LINE
  5
E911
100
AcDbEntity
  8
JOIST
100
AcDbLine
 10
43.693599
 20
68.036064
 30
0.0
 11
37.298507
 21
71.728272
 31
0.0
  0
LINE
  5
E912
100
AcDbEntity
  8
JOIST
100
AcDbLine
 10
43.693599
 20
69.074719
 30
0.0
 11
38.198009
 21
72.2476
 31
0.0
  0
LINE
  5
E913
100
AcDbEntity
  8
JOIST
100
AcDbLine
 10
43.693599
 20
69.042503
 30
0.0
 11
38.170109
 21
72.231492
 31
0.0
  0
LINE
  5
E914
100
AcDbEntity
  8
JOIST
100
AcDbLine
 10
45.49428
 20
66.956488
 30
0.0
 11
45.742513
 21
66.81317
 31
0.0
  0
ELLIPSE
  5
E915
100
AcDbEntity
  8
FASTENER
100
AcDbEllipse
 10
47.353458
 20
78.19352
 30
0.0
 11
0.0765465544619697
 21
0.132582521472475
 31
0.0
210
0.0
220
0.0
230
-1.0
 40
0.57735
 41
0.0000000000000231
 42
6.283185307179623
  0
LINE
  5
E916
100
AcDbEntity
  8
FASTENER
100
AcDbLine
 10
47.245205
 20
78.13102
 30
0.0
 11
47.461711
 21
78.25602
 31
0.0
  0
LINE
  5
E917
100
AcDbEntity
  8
FASTENER
100
AcDbLine
 10
47.352228
 20
78.318514
 30
0.0
 11
47.354688
 21
78.068526
 31
0.0
  0
ELLIPSE
  5
E918
100
AcDbEntity
  8
FASTENER
100
AcDbEllipse
 10
33.497052
 20
70.19352
 30
0.0
 11
0.0765465544619697
 21
0.132582521472475
 31
0.0
210
0.0
220
0.0
230
-1.0
 40
0.57735
 41
0.0000000000000231
 42
6.283185307179623
  0
LINE
  5
E919
100
AcDbEntity
  8
FASTENER
100
AcDbLine
 10
33.388799
 20
70.13102
 30
0.0
 11
33.605305
 21
70.25602
 31
0.0
  0
LINE
  5
E91A
100
AcDbEntity
  8
FASTENER
100
AcDbLine
 10
33.495822
 20
70.318514
 30
0.0
 11
33.498281
 21
70.068526
 31
0.0
  0
ELLIPSE
  5
E91B
100
AcDbEntity
  8
FASTENER
100
AcDbEllipse
 10
19.640645
 20
62.19352
 30
0.0
 11
0.0765465544619697
 21
0.132582521472475
 31
0.0
210
0.0
220
0.0
230
-1.0
 40
0.57735
 41
0.0000000000000231
 42
6.283185307179623
  0
LINE
  5
E91C
100
AcDbEntity
  8
FASTENER
100
AcDbLine
 10
19.532392
 20
62.13102
 30
0.0
 11
19.748898
 21
62.25602
 31
0.0
  0
LINE
  5
E91D
100
AcDbEntity
  8
FASTENER
100
AcDbLine
 10
19.639415
 20
62.318514
 30
0.0
 11
19.641875
 21
62.068526
 31
0.0
  0
POLYLINE
  5
EE5B
100
AcDbEntity
  8
STEEL
100
AcDb2dPolyline
 66
     1
 10
0.0
 20
0.0
 30
0.0
  0
VERTEX
  5
EE5C
100
AcDbEntity
  8
STEEL
100
AcDbVertex
100
AcDb2dVertex
 10
452.58445
 20
375.152039
 30
0.0
  0
SEQEND
  5
EE5D
100
AcDbEntity
  8
STEEL
  0
INSERT
  5
EE5E
100
AcDbEntity
  8
0
100
AcDbBlockReference
  2
CEMCO_BLANK
 10
-458.830198
 20
325.6031
 30
0.0
 41
0.5
 42
0.5
 43
-0.5
210
0.0
220
0.0
230
-1.0
  0
POLYLINE
  5
F1C0
100
AcDbEntity
  8
TRACK
100
AcDb2dPolyline
 66
     1
 10
0.0
 20
0.0
 30
0.0
  0
VERTEX
  5
F1C1
100
AcDbEntity
  8
TRACK
100
AcDbVertex
100
AcDb2dVertex
 10
302.731286
 20
195.235897
 30
0.0
  0
SEQEND
  5
F1C2
100
AcDbEntity
  8
TRACK
  0
LINE
  5
F28D
100
AcDbEntity
  8
JOIST
100
AcDbLine
 10
18.302401
 20
38.719738
 30
0.0
 11
18.299941
 21
38.46975
 31
0.0
  0
LINE
  5
F28E
100
AcDbEntity
  8
JOIST
100
AcDbLine
 10
18.409424
 20
38.532244
 30
0.0
 11
18.192918
 21
38.657244
 31
0.0
  0
ELLIPSE
  5
F28F
100
AcDbEntity
  8
JOIST
100
AcDbEllipse
 10
18.301171
 20
38.594744
 30
0.0
 11
-0.0765465544619697
 21
0.132582521472475
 31
0.0
210
0.0
220
0.0
230
1.0
 40
0.57735
 41
0.0000000000000231
 42
6.283185307179623
  0
ELLIPSE
  5
F290
100
AcDbEntity
  8
JOIST
100
AcDbEllipse
 10
32.157578
 20
46.594744
 30
0.0
 11
-0.0765465544619697
 21
0.132582521472475
 31
0.0
210
0.0
220
0.0
230
1.0
 40
0.57735
 41
0.0000000000000231
 42
6.283185307179623
  0
LINE
  5
F291
100
AcDbEntity
  8
JOIST
100
AcDbLine
 10
32.265831
 20
46.532244
 30
0.0
 11
32.049324
 21
46.657244
 31
0.0
  0
LINE
  5
F292
100
AcDbEntity
  8
JOIST
100
AcDbLine
 10
32.158807
 20
46.719738
 30
0.0
 11
32.156348
 21
46.46975
 31
0.0
  0
LINE
  5
F293
100
AcDbEntity
  8
JOIST
100
AcDbLine
 10
46.015214
 20
54.719738
 30
0.0
 11
46.012754
 21
54.46975
 31
0.0
  0
LINE
  5
F294
100
AcDbEntity
  8
JOIST
100
AcDbLine
 10
46.122237
 20
54.532244
 30
0.0
 11
45.905731
 21
54.657244
 31
0.0
  0
ELLIPSE
  5
F295
100
AcDbEntity
  8
JOIST
100
AcDbEllipse
 10
46.013984
 20
54.594744
 30
0.0
 11
-0.0765465544619697
 21
0.132582521472475
 31
0.0
210
0.0
220
0.0
230
1.0
 40
0.57735
 41
0.0000000000000231
 42
6.283185307179623
  0
LINE
  5
F296
100
AcDbEntity
  8
JOIST
100
AcDbLine
 10
59.87162
 20
62.719738
 30
0.0
 11
59.869161
 21
62.46975
 31
0.0
  0
LINE
  5
F297
100
AcDbEntity
  8
JOIST
100
AcDbLine
 10
59.978644
 20
62.532244
 30
0.0
 11
59.762137
 21
62.657244
 31
0.0
  0
ELLIPSE
  5
F298
100
AcDbEntity
  8
JOIST
100
AcDbEllipse
 10
59.870391
 20
62.594744
 30
0.0
 11
-0.0765465544619697
 21
0.132582521472475
 31
0.0
210
0.0
220
0.0
230
1.0
 40
0.57735
 41
0.0000000000000231
 42
6.283185307179623
  0
POLYLINE
  5
F302
100
AcDbEntity
  8
STEEL
100
AcDb2dPolyline
 66
     1
 10
0.0
 20
0.0
 30
0.0
  0
VERTEX
  5
F303
100
AcDbEntity
  8
STEEL
100
AcDbVertex
100
AcDb2dVertex
 10
56.250968
 20
60.291864
 30
0.0
  0
VERTEX
  5
F304
100
AcDbEntity
  8
STEEL
100
AcDbVertex
100
AcDb2dVertex
 10
57.550006
 20
59.541864
 30
0.0
  0
VERTEX
  5
F305
100
AcDbEntity
  8
STEEL
100
AcDbVertex
100
AcDb2dVertex
 10
57.550006
 20
58.041864
 30
0.0
  0
SEQEND
  5
F306
100
AcDbEntity
  8
STEEL
  0
POLYLINE
  5
F319
100
AcDbEntity
  8
STEEL
100
AcDb2dPolyline
 66
     1
 10
0.0
 20
0.0
 30
0.0
  0
VERTEX
  5
F31A
100
AcDbEntity
  8
STEEL
100
AcDbVertex
100
AcDb2dVertex
 10
56.250968
 20
60.291864
 30
0.0
  0
VERTEX
  5
F31B
100
AcDbEntity
  8
STEEL
100
AcDbVertex
100
AcDb2dVertex
 10
56.250968
 20
60.25578
 30
0.0
  0
VERTEX
  5
F31C
100
AcDbEntity
  8
STEEL
100
AcDbVertex
100
AcDb2dVertex
 10
57.518756
 20
59.523822
 30
0.0
  0
VERTEX
  5
F31D
100
AcDbEntity
  8
STEEL
100
AcDbVertex
100
AcDb2dVertex
 10
57.518756
 20
58.059906
 30
0.0
  0
VERTEX
  5
F31F
100
AcDbEntity
  8
STEEL
100
AcDbVertex
100
AcDb2dVertex
 10
57.550006
 20
58.041864
 30
0.0
  0
SEQEND
  5
F31E
100
AcDbEntity
  8
STEEL
  0
LINE
  5
F32E
100
AcDbEntity
  8
STEEL
100
AcDbLine
 10
57.518756
 20
59.559906
 30
0.0
 11
48.052733
 21
54.094695
 31
0.0
  0
LINE
  5
F331
100
AcDbEntity
  8
STEEL
100
AcDbLine
 10
56.250968
 20
60.291864
 30
0.0
 11
48.052733
 21
55.558611
 31
0.0
  0
LINE
  5
F332
100
AcDbEntity
  8
STEEL
100
AcDbLine
 10
57.550006
 20
58.041864
 30
0.0
 11
48.052733
 21
52.558611
 31
0.0
  0
LINE
  5
F333
100
AcDbEntity
  8
STEEL
100
AcDbLine
 10
57.550006
 20
59.50578
 30
0.0
 11
48.052733
 21
54.022527
 31
0.0
  0
LEADER
  5
F342
100
AcDbEntity
  8
D-TEXT
100
AcDbLeader
  3
LEADER
 73
     0
 40
1.0
 41
9.758621
 76
     3
 10
38.452128
 20
46.995768
 30
0.0
 10
46.394726
 20
35.79151
 30
0.0
 10
57.679466
 20
34.945509
 30
0.0
 77
   256
  0
MTEXT
  5
F343
100
AcDbEntity
  8
D-TEXT
100
AcDbMText
 10
58.679466
 20
34.945509
 30
0.0
 40
1.5
 41
0.0
 71
     4
 72
     1
  1
{ANGLE IRON}
  7
ARCH
  0
LINE
  5
F350
100
AcDbEntity
  8
STEEL
100
AcDbLine
 10
43.693599
 20
50.041864
 30
0.0
 11
34.260447
 21
44.595631
 31
0.0
  0
LINE
  5
F351
100
AcDbEntity
  8
STEEL
100
AcDbLine
 10
43.693599
 20
51.50578
 30
0.0
 11
34.260447
 21
46.059547
 31
0.0
  0
LINE
  5
F352
100
AcDbEntity
  8
STEEL
100
AcDbLine
 10
29.805943
 20
43.559906
 30
0.0
 11
20.40404
 21
38.131716
 31
0.0
  0
LINE
  5
F353
100
AcDbEntity
  8
STEEL
100
AcDbLine
 10
28.538155
 20
44.291864
 30
0.0
 11
20.40404
 21
39.595631
 31
0.0
  0
LINE
  5
F354
100
AcDbEntity
  8
STEEL
100
AcDbLine
 10
29.868443
 20
43.523822
 30
0.0
 11
20.40404
 21
38.059547
 31
0.0
  0
LINE
  5
F355
100
AcDbEntity
  8
STEEL
100
AcDbLine
 10
29.837193
 20
42.041864
 30
0.0
 11
20.40404
 21
36.595631
 31
0.0
  0
LINE
  5
F356
100
AcDbEntity
  8
STEEL
100
AcDbLine
 10
15.980786
 20
34.041864
 30
0.0
 11
6.483513
 21
28.558611
 31
0.0
  0
LINE
  5
F357
100
AcDbEntity
  8
STEEL
100
AcDbLine
 10
16.012036
 20
35.523822
 30
0.0
 11
6.483513
 21
30.022527
 31
0.0
  0
LINE
  5
F358
100
AcDbEntity
  8
STEEL
100
AcDbLine
 10
14.681748
 20
36.291864
 30
0.0
 11
6.483513
 21
31.558611
 31
0.0
  0
LINE
  5
F359
100
AcDbEntity
  8
STEEL
100
AcDbLine
 10
15.949536
 20
35.559906
 30
0.0
 11
6.483513
 21
30.094695
 31
0.0
  0
LINE
  5
F35A
100
AcDbEntity
  8
STEEL
100
AcDbLine
 10
42.394561
 20
52.291864
 30
0.0
 11
34.260447
 21
47.595631
 31
0.0
  0
LINE
  5
F3CE
100
AcDbEntity
  8
STUD
100
AcDbLine
 10
58.979749
 20
54.346792
 30
0.0
 11
58.979749
 21
51.099399
 31
0.0
  0
LINE
  5
F3CF
100
AcDbEntity
  8
STUD
100
AcDbLine
 10
59.418338
 20
54.096179
 30
0.0
 11
59.418338
 21
50.846179
 31
0.0
  0
LINE
  5
F3D0
100
AcDbEntity
  8
STUD
100
AcDbLine
 10
59.452938
 20
54.076203
 30
0.0
 11
59.452938
 21
50.826203
 31
0.0
  0
ELLIPSE
  5
F3FA
100
AcDbEntity
  8
D-TEXT
100
AcDbEllipse
 10
17.916365
 20
38.033464
 30
0.0
 11
-0.1702995433379044
 21
-5.622243368495686
 31
0.0
210
0.0
220
0.0
230
1.0
 40
0.336911
 41
0.0000000000000187
 42
6.283185307179619
  0
LEADER
  5
F3FB
100
AcDbEntity
  8
D-TEXT
100
AcDbLeader
  3
LEADER
 73
     0
 74
     0
 75
     1
 40
1.0
 41
18.931034
 76
     3
 10
19.451963
 20
34.515223
 30
0.0
 10
25.592281
 20
25.166755
 30
0.0
 10
27.842281
 20
25.166755
 30
0.0
 77
   256
  0
MTEXT
  5
F3FC
100
AcDbEntity
  8
D-TEXT
100
AcDbMText
 10
28.842281
 20
24.055053
 30
0.0
 40
1.5
 41
0.0
 71
     4
 72
     1
  1
{(3) SCREWS EACH STUD}\P{(2) MIN.}
  7
ARCH
  0
TEXT
  5
F824
100
AcDbEntity
  8
LINK
 62
     1
100
AcDbText
 10
-21.82204
 20
23.008004
 30
0.0
 40
1.5
  1
drawing list
  7
BLOCK
 72
     1
 11
-14.04
 21
23.008004
 31
0.0
100
AcDbText
1001
PE_URL
1000
Cemco_drawings.htm
  0
TEXT
  5
F825
100
AcDbEntity
  8
LINK
 62
     1
100
AcDbText
 10
-16.66263
 20
11.008004
 30
0.0
 40
1.5
  1
home
  7
BLOCK
 72
     1
 11
-14.04
 21
11.008004
 31
0.0
100
AcDbText
1001
PE_URL
1000
Cemco_drawings.htm
  0
TEXT
  5
F826
100
AcDbEntity
  8
LINK
 62
     1
100
AcDbText
 10
-26.371285
 20
17.008004
 30
0.0
 40
1.5
  1
Assembly drawing 10
  7
BLOCK
 72
     1
 11
-14.04
 21
17.008004
 31
0.0
100
AcDbText
1001
PE_URL
1000
Cemco_drawings.htm
  0
TEXT
  5
F827
100
AcDbEntity
  8
LINK
 62
     1
100
AcDbText
 10
-25.718985
 20
14.008004
 30
0.0
 40
1.5
  1
Cemco drawing list
  7
BLOCK
 72
     1
 11
-14.04
 21
14.008004
 31
0.0
100
AcDbText
1001
PE_URL
1000
Cemco_drawings.htm
  0
TEXT
  5
F836
100
AcDbEntity
  8
LINK
 62
     1
100
AcDbText
 10
-25.727412
 20
20.008004
 30
0.0
 40
1.5
  1
Assembly drawing 9
  7
BLOCK
 72
     1
 11
-14.04
 21
20.008004
 31
0.0
100
AcDbText
1001
PE_URL
1000
6020-009.dwf
  0
MTEXT
  5
F83B
100
AcDbEntity
  8
LINK
100
AcDbMText
 10
-8.502297
 20
2.198246
 30
0.0
 40
1.5
 41
0.0
 71
     7
 72
     1
  1
{Back}\P{Button}
  7
ARCH
1001
PE_URL
1000
6020-009.dwf
  0
LEADER
  5
F83C
100
AcDbEntity
  8
LINK
100
AcDbLeader
  3
LEADER
 72
     1
 73
     0
 74
     0
 40
0.125
 41
0.556034
 76
     7
 10
-0.333038
 20
6.676278
 30
0.0
 10
-9.000835
 20
9.731647
 30
0.0
 10
-9.996674
 20
9.820429
 30
0.0
 10
-14.131116
 20
8.438908
 30
0.0
 10
-13.284303
 20
3.389212
 30
0.0
 10
-11.667364
 20
3.043443
 30
0.0
 10
-8.875068
 20
3.019385
 30
0.0
 77
   256
1001
PE_URL
1000
6020-009.dwf
  0
INSERT
  5
F83D
100
AcDbEntity
  8
D-TEXT
100
AcDbBlockReference
 66
     1
  2
DETAIL_TITLE
 10
0.0
 20
0.0
 30
0.0
 41
12.0
 42
12.0
 43
12.0
1001
PE_URL
1000
6020-009.dwf
  0
ATTRIB
  5
F83E
100
AcDbEntity
  8
D-TEXT
100
AcDbText
 10
13.962231
 20
7.801712
 30
0.0
 40
3.0
  1
JOIST STUD OVERLAP CONNECTION
  7
BLOCK
100
AcDbAttribute
  2
DETAIL_DISCRIPTION
 70
     0
  0
ATTRIB
  5
F83F
100
AcDbEntity
  8
D-TEXT
100
AcDbText
 10
0.985856
 20
4.731115
 30
0.0
 40
3.0
  1
D-27
  7
BLD
 72
     1
 11
6.231115
 21
6.231115
 31
0.0
100
AcDbAttribute
  2
DETAIL_NO
 70
     0
 74
     2
  0
ATTRIB
  5
F840
100
AcDbEntity
  8
D-TEXT
100
AcDbText
 10
13.962231
 20
2.064588
 30
0.0
 40
2.25
  1
N. T. Scale 1" = 1'0"
  7
BLOCK
100
AcDbAttribute
  2
SCALE
 70
     0
  0
SEQEND
  5
F841
100
AcDbEntity
  8
D-TEXT
  0
LINE
  5
F8A3
100
AcDbEntity
  8
STEEL
100
AcDbLine
 10
71.406412
 20
67.50578
 30
0.0
 11
61.909139
 21
62.022527
 31
0.0
  0
LINE
  5
F8A4
100
AcDbEntity
  8
STEEL
100
AcDbLine
 10
71.406412
 20
66.041864
 30
0.0
 11
61.909139
 21
60.558611
 31
0.0
  0
LINE
  5
F8A5
100
AcDbEntity
  8
STEEL
100
AcDbLine
 10
70.107374
 20
68.291864
 30
0.0
 11
61.909139
 21
63.558611
 31
0.0
  0
LINE
  5
F8A6
100
AcDbEntity
  8
STEEL
100
AcDbLine
 10
71.375162
 20
67.559906
 30
0.0
 11
61.909139
 21
62.094695
 31
0.0
  0
LINE
  5
F8A7
100
AcDbEntity
  8
STUD
100
AcDbLine
 10
61.97326
 20
85.974247
 30
0.0
 11
61.97326
 21
49.851478
 31
0.0
  0
LINE
  5
F8A8
100
AcDbEntity
  8
STUD
100
AcDbLine
 10
61.909139
 20
85.937227
 30
0.0
 11
61.909139
 21
49.862804
 31
0.0
  0
POLYLINE
  5
F8BF
100
AcDbEntity
  8
LAYOUT
100
AcDb2dPolyline
 66
     1
 10
0.0
 20
0.0
 30
0.0
 70
     1
  0
VERTEX
  5
F8C0
100
AcDbEntity
  8
LAYOUT
100
AcDbVertex
100
AcDb2dVertex
 10
0.0
 20
0.0
 30
0.0
  0
VERTEX
  5
F8C1
100
AcDbEntity
  8
LAYOUT
100
AcDbVertex
100
AcDb2dVertex
 10
123.24
 20
0.0
 30
0.0
  0
VERTEX
  5
F8C2
100
AcDbEntity
  8
LAYOUT
100
AcDbVertex
100
AcDb2dVertex
 10
123.24
 20
95.16
 30
0.0
  0
VERTEX
  5
F8C3
100
AcDbEntity
  8
LAYOUT
100
AcDbVertex
100
AcDb2dVertex
 10
95.16
 20
95.16
 30
0.0
  0
VERTEX
  5
F8C4
100
AcDbEntity
  8
LAYOUT
100
AcDbVertex
100
AcDb2dVertex
 10
95.16
 20
123.24
 30
0.0
  0
VERTEX
  5
F8C5
100
AcDbEntity
  8
LAYOUT
100
AcDbVertex
100
AcDb2dVertex
 10
0.0
 20
123.24
 30
0.0
  0
SEQEND
  5
F8C6
100
AcDbEntity
  8
LAYOUT
  0
TEXT
  5
F8F2
100
AcDbEntity
  8
LINK
100
AcDbText
 10
-24.680015
 20
0.993628
 30
0.0
 40
3.0
  1
12
  7
BLOCK
 11
-24.680015
 21
0.993628
 31
0.0
100
AcDbText
 73
     1
  0
POLYLINE
  5
F91F
100
AcDbEntity
  8
_KTI_CONTROL
 60
     1
100
AcDb3dPolyline
 66
     1
 10
0.0
 20
0.0
 30
0.0
 70
     8
1001
_KTI_ARCHT
1070
 12000
1000
ENVIRONMENT
1070
 10003
1000
6020-027
1070
 20000
1000
standard
1070
 20001
1000
f:\archt
1070
 20003
1000
j:\archt
1070
 20002
1000
f:\archt\tmp
1070
 20004
1002
{
1000
f:\archt\blks
1000
f:\archt\blks3d
1000
h:\archt\blks
1000
h:\archt\blks3d
1000
j:\archt\blks
1000
j:\archt\blks3d
1002
}
1070
 20005
1002
{
1000
f:\archt\slds
1002
}
1070
 20006
1002
{
1000
f:\archt\dclswin
1002
}
1070
 20007
1002
{
1000
f:\archt\docs
1002
}
1070
 20008
1002
{
1000
f:\archt\help
1002
}
  0
VERTEX
  5
F920
100
AcDbEntity
  8
_KTI_CONTROL
100
AcDbVertex
100
AcDb3dPolylineVertex
 10
0.0
 20
0.0
 30
0.0
 70
    32
  0
VERTEX
  5
F921
100
AcDbEntity
  8
_KTI_CONTROL
100
AcDbVertex
100
AcDb3dPolylineVertex
 10
0.0
 20
0.0
 30
0.0
 70
    32
  0
SEQEND
  5
F922
100
AcDbEntity
  8
_KTI_CONTROL
  0
POLYLINE
  5
F923
100
AcDbEntity
  8
_KTI_CONTROL
 60
     1
100
AcDb3dPolyline
 66
     1
 10
0.0
 20
0.0
 30
0.0
 70
     8
1001
_KTI_ARCHT
1070
 12000
1000
ARCHTVARS
1070
 10003
1000
6020-027
1070
 12030
1000
in
1070
 12020
1070
     1
1070
 12021
1070
     0
1070
 12070
1070
     0
1070
 12071
1070
     1
1070
 12907
1070
     0
1070
 12072
1070
     2
1070
 12073
1070
    48
1070
 12074
1070
     0
1070
 12080
1070
     1
1070
 12092
1070
     1
1070
 12096
1070
     0
1070
 12095
1070
     0
1070
 12081
1070
     1
1070
 12082
1070
     1
1070
 12083
1070
     1
1070
 12084
1070
     1
1070
 12085
1070
     0
1070
 12086
1070
     1
1070
 12087
1070
     0
1070
 12088
1070
     0
1070
 12097
1070
     1
1070
 12089
1070
     4
1070
 12090
1070
     6
1070
 12091
1070
     1
1070
 12045
1000
standard
1070
 12046
1000

1070
 12047
1000
standard
1070
 12048
1000

1070
 12049
1000

1070
 12093
1070
     1
1070
 12094
1070
     1
1070
 12908
1070
     0
1070
 12909
1070
     0
1070
 12911
1070
     0
1070
 12910
1070
     0
1070
 12912
1070
     0
1070
 12098
1070
   640
1070
 12060
1002
{
1000

1000

1000

1000

1002
}
1070
 12904
1002
{
1070
     0
1070
     0
1070
     0
1070
     0
1070
     0
1002
}
1070
 12905
1002
{
1040
0.0
1040
0.0
1040
0.0
1040
0.0
1040
0.0
1002
}
1070
 12906
1002
{
1000

1000

1000

1000

1000

1002
}
1070
 12040
1002
{
1002
}
  0
VERTEX
  5
F924
100
AcDbEntity
  8
_KTI_CONTROL
100
AcDbVertex
100
AcDb3dPolylineVertex
 10
0.0
 20
0.0
 30
0.0
 70
    32
  0
VERTEX
  5
F925
100
AcDbEntity
  8
_KTI_CONTROL
100
AcDbVertex
100
AcDb3dPolylineVertex
 10
0.0
 20
0.0
 30
0.0
 70
    32
  0
SEQEND
  5
F926
100
AcDbEntity
  8
_KTI_CONTROL
  0
VIEWPORT
  5
F8D7
100
AcDbEntity
 67
     1
  8
0
100
AcDbViewport
 10
7.664385
 20
4.5
 30
0.0
 40
15.32877
 41
9.0
 68
    -1
 69
     1
1001
ACAD
1000
MVIEW
1002
{
1070
    16
1010
0.0
1020
0.0
1030
0.0
1010
0.0
1020
0.0
1030
1.0
1040
0.0
1040
9.0
1040
7.664385
1040
4.5
1040
50.0
1040
0.0
1040
0.0
1070
     0
1070
   100
1070
     1
1070
     1
1070
     0
1070
     0
1070
     0
1070
     2
1040
0.0
1040
0.0
1040
0.0
1040
0.125
1040
0.125
1040
1.0
1040
1.0
1070
     0
1002
{
1002
}
1002
}
  0
ENDSEC
  0
SECTION
  2
OBJECTS
  0
DICTIONARY
  5
C
100
AcDbDictionary
  3
ACAD_GROUP
350
D
  3
ACAD_MLINESTYLE
350
E
  0
DICTIONARY
  5
D
102
{ACAD_REACTORS
330
C
102
}
100
AcDbDictionary
  3
*A1
350
13B4
  3
*A2
350
13B5
  0
DICTIONARY
  5
E
102
{ACAD_REACTORS
330
C
102
}
100
AcDbDictionary
  3
STANDARD
350
13
  0
GROUP
  5
13B4
102
{ACAD_REACTORS
330
D
102
}
100
AcDbGroup
300

 70
     3
 71
     1
  0
GROUP
  5
13B5
102
{ACAD_REACTORS
330
D
102
}
100
AcDbGroup
300
stud_3p625x1p625x96_woleEnchala
 70
     3
 71
     1
  0
MLINESTYLE
  5
13
102
{ACAD_REACTORS
330
E
102
}
100
AcDbMlineStyle
  2
STANDARD
 70
     0
  3

 62
     0
 51
90.0
 52
90.0
 71
     2
 49
0.5
 62
   256
  6
BYLAYER
 49
-0.5
 62
   256
  6
BYLAYER
  0
ENDSEC
  0
EOF
